ISO-10303-21;
HEADER;
FILE_DESCRIPTION(('STEP AP214'),'1');
FILE_NAME(' ','  ',('TraceParts'),('TraceParts S.A.'),'XStep 1.0',' ',' ');
FILE_SCHEMA(('automotive_design'));
ENDSEC;
DATA;
#1=MECHANICAL_DESIGN_GEOMETRIC_PRESENTATION_REPRESENTATION(' ',(#10,#11,#12,#13,#14,#15,#16,#17,#18,#19,#20,#21,#22,#23,#24,#25,#26,#27,#28,#29,#30,#31,#32,#33,#34,#35,#36,#37,#38,#39,#40,#41,#42,#43,#44),#6);
#2=PRODUCT_DEFINITION_CONTEXT('',#45,'design');
#3=APPLICATION_PROTOCOL_DEFINITION('INTERNATIONAL STANDARD','automotive_design',1994,#45);
#4=PRODUCT_CATEGORY_RELATIONSHIP('NONE','NONE',#46,#47);
#5=SHAPE_DEFINITION_REPRESENTATION(#48,#49);
#6= (GEOMETRIC_REPRESENTATION_CONTEXT(3)GLOBAL_UNCERTAINTY_ASSIGNED_CONTEXT((#52))GLOBAL_UNIT_ASSIGNED_CONTEXT((#54,#55,#56))REPRESENTATION_CONTEXT('NONE','WORKSPACE'));
#10=STYLED_ITEM('',(#58),#59);
#11=STYLED_ITEM('',(#60),#61);
#12=STYLED_ITEM('',(#62),#63);
#13=STYLED_ITEM('',(#64),#65);
#14=STYLED_ITEM('',(#66),#67);
#15=STYLED_ITEM('',(#68),#69);
#16=STYLED_ITEM('',(#70),#71);
#17=STYLED_ITEM('',(#72),#73);
#18=STYLED_ITEM('',(#74),#75);
#19=STYLED_ITEM('',(#76),#77);
#20=STYLED_ITEM('',(#78),#79);
#21=STYLED_ITEM('',(#80),#81);
#22=STYLED_ITEM('',(#82),#83);
#23=STYLED_ITEM('',(#84),#85);
#24=STYLED_ITEM('',(#86),#87);
#25=STYLED_ITEM('',(#88),#89);
#26=STYLED_ITEM('',(#90),#91);
#27=STYLED_ITEM('',(#92),#93);
#28=STYLED_ITEM('',(#94),#95);
#29=STYLED_ITEM('',(#96),#97);
#30=STYLED_ITEM('',(#98),#99);
#31=STYLED_ITEM('',(#100),#101);
#32=STYLED_ITEM('',(#102),#103);
#33=STYLED_ITEM('',(#104),#105);
#34=STYLED_ITEM('',(#106),#107);
#35=STYLED_ITEM('',(#108),#109);
#36=STYLED_ITEM('',(#110),#111);
#37=STYLED_ITEM('',(#112),#113);
#38=STYLED_ITEM('',(#114),#115);
#39=STYLED_ITEM('',(#116),#117);
#40=STYLED_ITEM('',(#118),#119);
#41=STYLED_ITEM('',(#120),#121);
#42=STYLED_ITEM('',(#122),#123);
#43=STYLED_ITEM('',(#124),#125);
#44=STYLED_ITEM('',(#126),#127);
#45=APPLICATION_CONTEXT(' ');
#46=PRODUCT_CATEGORY('part','NONE');
#47=PRODUCT_RELATED_PRODUCT_CATEGORY('detail',' ',(#128));
#48=PRODUCT_DEFINITION_SHAPE('NONE','NONE',#129);
#49=ADVANCED_BREP_SHAPE_REPRESENTATION('1',(#127,#130),#6);
#52=UNCERTAINTY_MEASURE_WITH_UNIT(LENGTH_MEASURE(1.0E-006),#54,'','');
#54= (CONVERSION_BASED_UNIT('MILLIMETRE',#133)LENGTH_UNIT()NAMED_UNIT(#136));
#55= (NAMED_UNIT(#138)PLANE_ANGLE_UNIT()SI_UNIT($,.RADIAN.));
#56= (NAMED_UNIT(#138)SOLID_ANGLE_UNIT()SI_UNIT($,.STERADIAN.));
#58=PRESENTATION_STYLE_ASSIGNMENT((#144));
#59=EDGE_CURVE('',#69,#85,#145,.T.);
#60=PRESENTATION_STYLE_ASSIGNMENT((#146));
#61=ADVANCED_FACE('',(#147),#148,.F.);
#62=PRESENTATION_STYLE_ASSIGNMENT((#149));
#63=EDGE_CURVE('',#85,#97,#150,.T.);
#64=PRESENTATION_STYLE_ASSIGNMENT((#151));
#65=ADVANCED_FACE('',(#152,#153),#154,.T.);
#66=PRESENTATION_STYLE_ASSIGNMENT((#155));
#67=EDGE_CURVE('',#117,#95,#156,.T.);
#68=PRESENTATION_STYLE_ASSIGNMENT((#157));
#69=VERTEX_POINT('',#158);
#70=PRESENTATION_STYLE_ASSIGNMENT((#159));
#71=EDGE_CURVE('',#87,#115,#160,.T.);
#72=PRESENTATION_STYLE_ASSIGNMENT((#161));
#73=EDGE_CURVE('',#95,#117,#162,.T.);
#74=PRESENTATION_STYLE_ASSIGNMENT((#163));
#75=EDGE_CURVE('',#115,#95,#164,.T.);
#76=PRESENTATION_STYLE_ASSIGNMENT((#165));
#77=EDGE_CURVE('',#83,#119,#166,.T.);
#78=PRESENTATION_STYLE_ASSIGNMENT((#167));
#79=ADVANCED_FACE('',(#168),#169,.F.);
#80=PRESENTATION_STYLE_ASSIGNMENT((#170));
#81=ADVANCED_FACE('',(#171),#172,.T.);
#82=PRESENTATION_STYLE_ASSIGNMENT((#173));
#83=VERTEX_POINT('',#174);
#84=PRESENTATION_STYLE_ASSIGNMENT((#175));
#85=VERTEX_POINT('',#176);
#86=PRESENTATION_STYLE_ASSIGNMENT((#177));
#87=VERTEX_POINT('',#178);
#88=PRESENTATION_STYLE_ASSIGNMENT((#179));
#89=EDGE_CURVE('',#69,#101,#180,.T.);
#90=PRESENTATION_STYLE_ASSIGNMENT((#181));
#91=ADVANCED_FACE('',(#182,#183),#184,.T.);
#92=PRESENTATION_STYLE_ASSIGNMENT((#185));
#93=EDGE_CURVE('',#101,#119,#186,.T.);
#94=PRESENTATION_STYLE_ASSIGNMENT((#187));
#95=VERTEX_POINT('',#188);
#96=PRESENTATION_STYLE_ASSIGNMENT((#189));
#97=VERTEX_POINT('',#190);
#98=PRESENTATION_STYLE_ASSIGNMENT((#191));
#99=EDGE_CURVE('',#101,#69,#192,.T.);
#100=PRESENTATION_STYLE_ASSIGNMENT((#193));
#101=VERTEX_POINT('',#194);
#102=PRESENTATION_STYLE_ASSIGNMENT((#195));
#103=EDGE_CURVE('',#119,#83,#196,.T.);
#104=PRESENTATION_STYLE_ASSIGNMENT((#197));
#105=EDGE_CURVE('',#97,#85,#198,.T.);
#106=PRESENTATION_STYLE_ASSIGNMENT((#199));
#107=EDGE_CURVE('',#115,#87,#200,.T.);
#108=PRESENTATION_STYLE_ASSIGNMENT((#201));
#109=ADVANCED_FACE('',(#202),#203,.F.);
#110=PRESENTATION_STYLE_ASSIGNMENT((#204));
#111=ADVANCED_FACE('',(#205),#206,.F.);
#112=PRESENTATION_STYLE_ASSIGNMENT((#207));
#113=EDGE_CURVE('',#97,#101,#208,.T.);
#114=PRESENTATION_STYLE_ASSIGNMENT((#209));
#115=VERTEX_POINT('',#210);
#116=PRESENTATION_STYLE_ASSIGNMENT((#211));
#117=VERTEX_POINT('',#212);
#118=PRESENTATION_STYLE_ASSIGNMENT((#213));
#119=VERTEX_POINT('',#214);
#120=PRESENTATION_STYLE_ASSIGNMENT((#215));
#121=EDGE_CURVE('',#83,#69,#216,.T.);
#122=PRESENTATION_STYLE_ASSIGNMENT((#217));
#123=EDGE_CURVE('',#117,#87,#218,.T.);
#124=PRESENTATION_STYLE_ASSIGNMENT((#219));
#125=ADVANCED_FACE('',(#220),#221,.T.);
#126=PRESENTATION_STYLE_ASSIGNMENT((#222));
#127=MANIFOLD_SOLID_BREP('1',#223);
#128=PRODUCT('1','1','PART-1-DESC',(#224));
#129=PRODUCT_DEFINITION('NONE','NONE',#225,#2);
#130=AXIS2_PLACEMENT_3D('',#226,#227,#228);
#133=LENGTH_MEASURE_WITH_UNIT(LENGTH_MEASURE(1.0),#229);
#136=DIMENSIONAL_EXPONENTS(1.0,0.0,0.0,0.0,0.0,0.0,0.0);
#138=DIMENSIONAL_EXPONENTS(0.0,0.0,0.0,0.0,0.0,0.0,0.0);
#144=CURVE_STYLE('',#230,POSITIVE_LENGTH_MEASURE(1.0E-006),#231);
#145=LINE('',#232,#233);
#146=SURFACE_STYLE_USAGE(.BOTH.,#234);
#147=FACE_OUTER_BOUND('',#235,.T.);
#148=CONICAL_SURFACE('',#236,13.55,1.04719755119659);
#149=CURVE_STYLE('',#237,POSITIVE_LENGTH_MEASURE(1.0E-006),#238);
#150=CIRCLE('',#239,11.6);
#151=SURFACE_STYLE_USAGE(.BOTH.,#240);
#152=FACE_OUTER_BOUND('',#241,.T.);
#153=FACE_BOUND('',#242,.T.);
#154=PLANE('',#243);
#155=CURVE_STYLE('',#244,POSITIVE_LENGTH_MEASURE(1.0E-006),#245);
#156=CIRCLE('',#246,18.0);
#157=POINT_STYLE(' ',#247,POSITIVE_LENGTH_MEASURE(1.0E-006),#248);
#158=CARTESIAN_POINT('',(-11.6,1.02326189251754E-014,5.24833395016043));
#159=CURVE_STYLE('',#249,POSITIVE_LENGTH_MEASURE(1.0E-006),#250);
#160=CIRCLE('',#251,18.0);
#161=CURVE_STYLE('',#252,POSITIVE_LENGTH_MEASURE(1.0E-006),#253);
#162=CIRCLE('',#254,18.0);
#163=CURVE_STYLE('',#255,POSITIVE_LENGTH_MEASURE(1.0E-006),#256);
#164=LINE('',#257,#258);
#165=CURVE_STYLE('',#259,POSITIVE_LENGTH_MEASURE(1.0E-006),#260);
#166=CIRCLE('',#261,15.5);
#167=SURFACE_STYLE_USAGE(.BOTH.,#262);
#168=FACE_OUTER_BOUND('',#263,.T.);
#169=CONICAL_SURFACE('',#264,13.55,1.04719755119659);
#170=SURFACE_STYLE_USAGE(.BOTH.,#265);
#171=FACE_OUTER_BOUND('',#266,.T.);
#172=CYLINDRICAL_SURFACE('',#267,18.0);
#173=POINT_STYLE(' ',#268,POSITIVE_LENGTH_MEASURE(1.0E-006),#269);
#174=CARTESIAN_POINT('',(-15.5,9.89289267475071E-015,7.49999999999997));
#175=POINT_STYLE(' ',#270,POSITIVE_LENGTH_MEASURE(1.0E-006),#271);
#176=CARTESIAN_POINT('',(-11.6,9.91126177005804E-015,-2.8421709430404E-014));
#177=POINT_STYLE(' ',#272,POSITIVE_LENGTH_MEASURE(1.0E-006),#273);
#178=CARTESIAN_POINT('',(18.0,1.69115962625296E-014,7.49999999999997));
#179=CURVE_STYLE('',#274,POSITIVE_LENGTH_MEASURE(1.0E-006),#275);
#180=CIRCLE('',#276,11.6);
#181=SURFACE_STYLE_USAGE(.BOTH.,#277);
#182=FACE_BOUND('',#278,.T.);
#183=FACE_OUTER_BOUND('',#279,.T.);
#184=PLANE('',#280);
#185=CURVE_STYLE('',#281,POSITIVE_LENGTH_MEASURE(1.0E-006),#282);
#186=LINE('',#283,#284);
#187=POINT_STYLE(' ',#285,POSITIVE_LENGTH_MEASURE(1.0E-006),#286);
#188=CARTESIAN_POINT('',(-18.0,9.12751370361172E-015,-2.8421709430404E-014));
#189=POINT_STYLE(' ',#287,POSITIVE_LENGTH_MEASURE(1.0E-006),#288);
#190=CARTESIAN_POINT('',(11.6,1.50909513774259E-014,-2.8421709430404E-014));
#191=CURVE_STYLE('',#289,POSITIVE_LENGTH_MEASURE(1.0E-006),#290);
#192=CIRCLE('',#291,11.6);
#193=POINT_STYLE(' ',#292,POSITIVE_LENGTH_MEASURE(1.0E-006),#293);
#194=CARTESIAN_POINT('',(11.6,1.50909513774259E-014,5.24833395016043));
#195=CURVE_STYLE('',#294,POSITIVE_LENGTH_MEASURE(1.0E-006),#295);
#196=CIRCLE('',#296,15.5);
#197=CURVE_STYLE('',#297,POSITIVE_LENGTH_MEASURE(1.0E-006),#298);
#198=CIRCLE('',#299,11.6);
#199=CURVE_STYLE('',#300,POSITIVE_LENGTH_MEASURE(1.0E-006),#301);
#200=CIRCLE('',#302,18.0);
#201=SURFACE_STYLE_USAGE(.BOTH.,#303);
#202=FACE_OUTER_BOUND('',#304,.T.);
#203=CYLINDRICAL_SURFACE('',#305,11.6);
#204=SURFACE_STYLE_USAGE(.BOTH.,#306);
#205=FACE_OUTER_BOUND('',#307,.T.);
#206=CYLINDRICAL_SURFACE('',#308,11.6);
#207=CURVE_STYLE('',#309,POSITIVE_LENGTH_MEASURE(1.0E-006),#310);
#208=LINE('',#311,#312);
#209=POINT_STYLE(' ',#313,POSITIVE_LENGTH_MEASURE(1.0E-006),#314);
#210=CARTESIAN_POINT('',(-18.0,9.58674108629511E-015,7.49999999999997));
#211=POINT_STYLE(' ',#315,POSITIVE_LENGTH_MEASURE(1.0E-006),#316);
#212=CARTESIAN_POINT('',(18.0,1.69115962625296E-014,-2.8421709430404E-014));
#213=POINT_STYLE(' ',#317,POSITIVE_LENGTH_MEASURE(1.0E-006),#318);
#214=CARTESIAN_POINT('',(15.5,1.6200406854286E-014,7.49999999999997));
#215=CURVE_STYLE('',#319,POSITIVE_LENGTH_MEASURE(1.0E-006),#320);
#216=LINE('',#321,#322);
#217=CURVE_STYLE('',#323,POSITIVE_LENGTH_MEASURE(1.0E-006),#324);
#218=LINE('',#325,#326);
#219=SURFACE_STYLE_USAGE(.BOTH.,#327);
#220=FACE_OUTER_BOUND('',#328,.T.);
#221=CYLINDRICAL_SURFACE('',#329,18.0);
#222=SURFACE_STYLE_USAGE(.BOTH.,#330);
#223=CLOSED_SHELL('',(#109,#81,#79,#61,#65,#125,#91,#111));
#224=PRODUCT_CONTEXT('',#45,'mechanical');
#225=PRODUCT_DEFINITION_FORMATION_WITH_SPECIFIED_SOURCE(' ','NONE',#128,.NOT_KNOWN.);
#226=CARTESIAN_POINT('',(0.0,0.0,0.0));
#227=DIRECTION('',(0.0,0.0,1.0));
#228=DIRECTION('',(1.0,0.0,0.0));
#229= (NAMED_UNIT(#136)LENGTH_UNIT()SI_UNIT(.MILLI.,.METRE.));
#230=DRAUGHTING_PRE_DEFINED_CURVE_FONT('continuous');
#231=COLOUR_RGB('',0.509803950786591,0.509803950786591,0.588235318660736);
#232=CARTESIAN_POINT('',(-11.6,8.49111366892487E-015,2.6241669750802));
#233=VECTOR('',#332,1.0);
#234=SURFACE_SIDE_STYLE('',(#333));
#235=EDGE_LOOP('',(#334,#335,#336,#337));
#236=AXIS2_PLACEMENT_3D('',#338,#339,#340);
#237=DRAUGHTING_PRE_DEFINED_CURVE_FONT('continuous');
#238=COLOUR_RGB('',0.509803950786591,0.509803950786591,0.588235318660736);
#239=AXIS2_PLACEMENT_3D('',#341,#342,#343);
#240=SURFACE_SIDE_STYLE('',(#344));
#241=EDGE_LOOP('',(#345,#346));
#242=EDGE_LOOP('',(#347,#348));
#243=AXIS2_PLACEMENT_3D('',#349,#350,#351);
#244=DRAUGHTING_PRE_DEFINED_CURVE_FONT('continuous');
#245=COLOUR_RGB('',0.509803950786591,0.509803950786591,0.588235318660736);
#246=AXIS2_PLACEMENT_3D('',#352,#353,#354);
#247=PRE_DEFINED_MARKER('');
#248=COLOUR_RGB('',0.509803950786591,0.509803950786591,0.588235318660736);
#249=DRAUGHTING_PRE_DEFINED_CURVE_FONT('continuous');
#250=COLOUR_RGB('',0.509803950786591,0.509803950786591,0.588235318660736);
#251=AXIS2_PLACEMENT_3D('',#355,#356,#357);
#252=DRAUGHTING_PRE_DEFINED_CURVE_FONT('continuous');
#253=COLOUR_RGB('',0.509803950786591,0.509803950786591,0.588235318660736);
#254=AXIS2_PLACEMENT_3D('',#358,#359,#360);
#255=DRAUGHTING_PRE_DEFINED_CURVE_FONT('continuous');
#256=COLOUR_RGB('',0.509803950786591,0.509803950786591,0.588235318660736);
#257=CARTESIAN_POINT('',(-18.0,6.67046878382116E-015,3.74999999999997));
#258=VECTOR('',#361,1.0);
#259=DRAUGHTING_PRE_DEFINED_CURVE_FONT('continuous');
#260=COLOUR_RGB('',0.509803950786591,0.509803950786591,0.588235318660736);
#261=AXIS2_PLACEMENT_3D('',#362,#363,#364);
#262=SURFACE_SIDE_STYLE('',(#365));
#263=EDGE_LOOP('',(#366,#367,#368,#369));
#264=AXIS2_PLACEMENT_3D('',#370,#371,#372);
#265=SURFACE_SIDE_STYLE('',(#373));
#266=EDGE_LOOP('',(#374,#375,#376,#377));
#267=AXIS2_PLACEMENT_3D('',#378,#379,#380);
#268=PRE_DEFINED_MARKER('');
#269=COLOUR_RGB('',0.509803950786591,0.509803950786591,0.588235318660736);
#270=PRE_DEFINED_MARKER('');
#271=COLOUR_RGB('',0.509803950786591,0.509803950786591,0.588235318660736);
#272=PRE_DEFINED_MARKER('');
#273=COLOUR_RGB('',0.509803950786591,0.509803950786591,0.588235318660736);
#274=DRAUGHTING_PRE_DEFINED_CURVE_FONT('continuous');
#275=COLOUR_RGB('',0.509803950786591,0.509803950786591,0.588235318660736);
#276=AXIS2_PLACEMENT_3D('',#381,#382,#383);
#277=SURFACE_SIDE_STYLE('',(#384));
#278=EDGE_LOOP('',(#385,#386));
#279=EDGE_LOOP('',(#387,#388));
#280=AXIS2_PLACEMENT_3D('',#389,#390,#391);
#281=DRAUGHTING_PRE_DEFINED_CURVE_FONT('continuous');
#282=COLOUR_RGB('',0.509803950786591,0.509803950786591,0.588235318660736);
#283=CARTESIAN_POINT('',(13.55,1.56456791158559E-014,6.3741669750802));
#284=VECTOR('',#392,1.0);
#285=PRE_DEFINED_MARKER('');
#286=COLOUR_RGB('',0.509803950786591,0.509803950786591,0.588235318660736);
#287=PRE_DEFINED_MARKER('');
#288=COLOUR_RGB('',0.509803950786591,0.509803950786591,0.588235318660736);
#289=DRAUGHTING_PRE_DEFINED_CURVE_FONT('continuous');
#290=COLOUR_RGB('',0.509803950786591,0.509803950786591,0.588235318660736);
#291=AXIS2_PLACEMENT_3D('',#393,#394,#395);
#292=PRE_DEFINED_MARKER('');
#293=COLOUR_RGB('',0.509803950786591,0.509803950786591,0.588235318660736);
#294=DRAUGHTING_PRE_DEFINED_CURVE_FONT('continuous');
#295=COLOUR_RGB('',0.509803950786591,0.509803950786591,0.588235318660736);
#296=AXIS2_PLACEMENT_3D('',#396,#397,#398);
#297=DRAUGHTING_PRE_DEFINED_CURVE_FONT('continuous');
#298=COLOUR_RGB('',0.509803950786591,0.509803950786591,0.588235318660736);
#299=AXIS2_PLACEMENT_3D('',#399,#400,#401);
#300=DRAUGHTING_PRE_DEFINED_CURVE_FONT('continuous');
#301=COLOUR_RGB('',0.509803950786591,0.509803950786591,0.588235318660736);
#302=AXIS2_PLACEMENT_3D('',#402,#403,#404);
#303=SURFACE_SIDE_STYLE('',(#405));
#304=EDGE_LOOP('',(#406,#407,#408,#409));
#305=AXIS2_PLACEMENT_3D('',#410,#411,#412);
#306=SURFACE_SIDE_STYLE('',(#413));
#307=EDGE_LOOP('',(#414,#415,#416,#417));
#308=AXIS2_PLACEMENT_3D('',#418,#419,#420);
#309=DRAUGHTING_PRE_DEFINED_CURVE_FONT('continuous');
#310=COLOUR_RGB('',0.509803950786591,0.509803950786591,0.588235318660736);
#311=CARTESIAN_POINT('',(11.6,1.50909513774259E-014,2.6241669750802));
#312=VECTOR('',#421,1.0);
#313=PRE_DEFINED_MARKER('');
#314=COLOUR_RGB('',0.509803950786591,0.509803950786591,0.588235318660736);
#315=PRE_DEFINED_MARKER('');
#316=COLOUR_RGB('',0.509803950786591,0.509803950786591,0.588235318660736);
#317=PRE_DEFINED_MARKER('');
#318=COLOUR_RGB('',0.509803950786591,0.509803950786591,0.588235318660736);
#319=DRAUGHTING_PRE_DEFINED_CURVE_FONT('continuous');
#320=COLOUR_RGB('',0.509803950786591,0.509803950786591,0.588235318660736);
#321=CARTESIAN_POINT('',(-13.55,7.93638593049484E-015,6.3741669750802));
#322=VECTOR('',#422,1.0);
#323=DRAUGHTING_PRE_DEFINED_CURVE_FONT('continuous');
#324=COLOUR_RGB('',0.509803950786591,0.509803950786591,0.588235318660736);
#325=CARTESIAN_POINT('',(18.0,1.69115962625296E-014,3.74999999999997));
#326=VECTOR('',#423,1.0);
#327=SURFACE_SIDE_STYLE('',(#424));
#328=EDGE_LOOP('',(#425,#426,#427,#428));
#329=AXIS2_PLACEMENT_3D('',#429,#430,#431);
#330=SURFACE_SIDE_STYLE('',(#432));
#332=DIRECTION('',(0.0,0.0,-1.0));
#333=SURFACE_STYLE_FILL_AREA(#433);
#334=ORIENTED_EDGE('',*,*,#121,.T.);
#335=ORIENTED_EDGE('',*,*,#89,.T.);
#336=ORIENTED_EDGE('',*,*,#93,.T.);
#337=ORIENTED_EDGE('',*,*,#77,.F.);
#338=CARTESIAN_POINT('',(0.0,1.17910325231754E-014,6.3741669750802));
#339=DIRECTION('',(0.0,-0.0,1.0));
#340=DIRECTION('',(-1.0,-1.6201512791522E-016,0.0));
#341=CARTESIAN_POINT('',(0.0,1.17910325231754E-014,-2.8421709430404E-014));
#342=DIRECTION('',(-0.0,0.0,-1.0));
#343=DIRECTION('',(-1.0,-1.6201512791522E-016,0.0));
#344=SURFACE_STYLE_FILL_AREA(#434);
#345=ORIENTED_EDGE('',*,*,#107,.F.);
#346=ORIENTED_EDGE('',*,*,#71,.F.);
#347=ORIENTED_EDGE('',*,*,#77,.T.);
#348=ORIENTED_EDGE('',*,*,#103,.T.);
#349=CARTESIAN_POINT('',(-16.75,9.73981688052291E-015,7.49999999999997));
#350=DIRECTION('',(0.0,0.0,1.0));
#351=DIRECTION('',(-1.0,-1.22460635382238E-016,0.0));
#352=CARTESIAN_POINT('',(0.0,1.17910325231754E-014,-2.8421709430404E-014));
#353=DIRECTION('',(-0.0,0.0,-1.0));
#354=DIRECTION('',(-1.0,-1.6201512791522E-016,0.0));
#355=CARTESIAN_POINT('',(0.0,1.17910325231754E-014,7.49999999999997));
#356=DIRECTION('',(-0.0,0.0,-1.0));
#357=DIRECTION('',(-1.0,-1.6201512791522E-016,0.0));
#358=CARTESIAN_POINT('',(0.0,1.17910325231754E-014,-2.8421709430404E-014));
#359=DIRECTION('',(-0.0,0.0,-1.0));
#360=DIRECTION('',(-1.0,-1.6201512791522E-016,0.0));
#361=DIRECTION('',(0.0,0.0,-1.0));
#362=CARTESIAN_POINT('',(0.0,1.17910325231754E-014,7.49999999999997));
#363=DIRECTION('',(-0.0,0.0,-1.0));
#364=DIRECTION('',(-1.0,-1.6201512791522E-016,0.0));
#365=SURFACE_STYLE_FILL_AREA(#435);
#366=ORIENTED_EDGE('',*,*,#121,.F.);
#367=ORIENTED_EDGE('',*,*,#103,.F.);
#368=ORIENTED_EDGE('',*,*,#93,.F.);
#369=ORIENTED_EDGE('',*,*,#99,.T.);
#370=CARTESIAN_POINT('',(0.0,1.17910325231754E-014,6.3741669750802));
#371=DIRECTION('',(0.0,-0.0,1.0));
#372=DIRECTION('',(-1.0,-1.6201512791522E-016,0.0));
#373=SURFACE_STYLE_FILL_AREA(#436);
#374=ORIENTED_EDGE('',*,*,#75,.F.);
#375=ORIENTED_EDGE('',*,*,#107,.T.);
#376=ORIENTED_EDGE('',*,*,#123,.F.);
#377=ORIENTED_EDGE('',*,*,#73,.F.);
#378=CARTESIAN_POINT('',(0.0,1.17910325231754E-014,3.74999999999997));
#379=DIRECTION('',(0.0,-0.0,1.0));
#380=DIRECTION('',(-1.0,-1.6201512791522E-016,0.0));
#381=CARTESIAN_POINT('',(0.0,1.17910325231754E-014,5.24833395016043));
#382=DIRECTION('',(-0.0,0.0,-1.0));
#383=DIRECTION('',(-1.0,-1.6201512791522E-016,0.0));
#384=SURFACE_STYLE_FILL_AREA(#437);
#385=ORIENTED_EDGE('',*,*,#63,.F.);
#386=ORIENTED_EDGE('',*,*,#105,.F.);
#387=ORIENTED_EDGE('',*,*,#73,.T.);
#388=ORIENTED_EDGE('',*,*,#67,.T.);
#389=CARTESIAN_POINT('',(-14.8,9.51938773683488E-015,-2.8421709430404E-014));
#390=DIRECTION('',(0.0,0.0,-1.0));
#391=DIRECTION('',(1.0,1.22460635382238E-016,0.0));
#392=DIRECTION('',(0.866025403784436,2.46363237776566E-016,0.500000000000005));
#393=CARTESIAN_POINT('',(0.0,1.17910325231754E-014,5.24833395016043));
#394=DIRECTION('',(-0.0,0.0,-1.0));
#395=DIRECTION('',(-1.0,-1.6201512791522E-016,0.0));
#396=CARTESIAN_POINT('',(0.0,1.17910325231754E-014,7.49999999999997));
#397=DIRECTION('',(-0.0,0.0,-1.0));
#398=DIRECTION('',(-1.0,-1.6201512791522E-016,0.0));
#399=CARTESIAN_POINT('',(0.0,1.17910325231754E-014,-2.8421709430404E-014));
#400=DIRECTION('',(-0.0,0.0,-1.0));
#401=DIRECTION('',(-1.0,-1.6201512791522E-016,0.0));
#402=CARTESIAN_POINT('',(0.0,1.17910325231754E-014,7.49999999999997));
#403=DIRECTION('',(-0.0,0.0,-1.0));
#404=DIRECTION('',(-1.0,-1.6201512791522E-016,0.0));
#405=SURFACE_STYLE_FILL_AREA(#438);
#406=ORIENTED_EDGE('',*,*,#59,.F.);
#407=ORIENTED_EDGE('',*,*,#99,.F.);
#408=ORIENTED_EDGE('',*,*,#113,.F.);
#409=ORIENTED_EDGE('',*,*,#105,.T.);
#410=CARTESIAN_POINT('',(0.0,1.17910325231754E-014,2.6241669750802));
#411=DIRECTION('',(0.0,-0.0,1.0));
#412=DIRECTION('',(-1.0,-1.6201512791522E-016,0.0));
#413=SURFACE_STYLE_FILL_AREA(#439);
#414=ORIENTED_EDGE('',*,*,#59,.T.);
#415=ORIENTED_EDGE('',*,*,#63,.T.);
#416=ORIENTED_EDGE('',*,*,#113,.T.);
#417=ORIENTED_EDGE('',*,*,#89,.F.);
#418=CARTESIAN_POINT('',(0.0,1.17910325231754E-014,2.6241669750802));
#419=DIRECTION('',(0.0,-0.0,1.0));
#420=DIRECTION('',(-1.0,-1.6201512791522E-016,0.0));
#421=DIRECTION('',(0.0,0.0,1.0));
#422=DIRECTION('',(0.866025403784436,2.46363237776566E-016,-0.500000000000005));
#423=DIRECTION('',(-0.0,-0.0,1.0));
#424=SURFACE_STYLE_FILL_AREA(#440);
#425=ORIENTED_EDGE('',*,*,#75,.T.);
#426=ORIENTED_EDGE('',*,*,#67,.F.);
#427=ORIENTED_EDGE('',*,*,#123,.T.);
#428=ORIENTED_EDGE('',*,*,#71,.T.);
#429=CARTESIAN_POINT('',(0.0,1.17910325231754E-014,3.74999999999997));
#430=DIRECTION('',(0.0,-0.0,1.0));
#431=DIRECTION('',(-1.0,-1.6201512791522E-016,0.0));
#432=SURFACE_STYLE_FILL_AREA(#441);
#433=FILL_AREA_STYLE('',(#442));
#434=FILL_AREA_STYLE('',(#443));
#435=FILL_AREA_STYLE('',(#444));
#436=FILL_AREA_STYLE('',(#445));
#437=FILL_AREA_STYLE('',(#446));
#438=FILL_AREA_STYLE('',(#447));
#439=FILL_AREA_STYLE('',(#448));
#440=FILL_AREA_STYLE('',(#449));
#441=FILL_AREA_STYLE('',(#450));
#442=FILL_AREA_STYLE_COLOUR('',#451);
#443=FILL_AREA_STYLE_COLOUR('',#452);
#444=FILL_AREA_STYLE_COLOUR('',#453);
#445=FILL_AREA_STYLE_COLOUR('',#454);
#446=FILL_AREA_STYLE_COLOUR('',#455);
#447=FILL_AREA_STYLE_COLOUR('',#456);
#448=FILL_AREA_STYLE_COLOUR('',#457);
#449=FILL_AREA_STYLE_COLOUR('',#458);
#450=FILL_AREA_STYLE_COLOUR('',#459);
#451=COLOUR_RGB('',0.509803950786591,0.509803950786591,0.588235318660736);
#452=COLOUR_RGB('',0.509803950786591,0.509803950786591,0.588235318660736);
#453=COLOUR_RGB('',0.509803950786591,0.509803950786591,0.588235318660736);
#454=COLOUR_RGB('',0.509803950786591,0.509803950786591,0.588235318660736);
#455=COLOUR_RGB('',0.509803950786591,0.509803950786591,0.588235318660736);
#456=COLOUR_RGB('',0.509803950786591,0.509803950786591,0.588235318660736);
#457=COLOUR_RGB('',0.509803950786591,0.509803950786591,0.588235318660736);
#458=COLOUR_RGB('',0.509803950786591,0.509803950786591,0.588235318660736);
#459=COLOUR_RGB('',0.509803950786591,0.509803950786591,0.588235318660736);
ENDSEC;
END-ISO-10303-21;
