ISO-10303-21;
HEADER;
FILE_DESCRIPTION(('STEP AP214'),'1');
FILE_NAME(' ','  ',('TraceParts'),('TraceParts S.A.'),'XStep 1.0',' ',' ');
FILE_SCHEMA(('automotive_design'));
ENDSEC;
DATA;
#1=MECHANICAL_DESIGN_GEOMETRIC_PRESENTATION_REPRESENTATION(' ',(#10,#11,#12,#13,#14,#15,#16,#17,#18,#19,#20,#21,#22,#23,#24,#25,#26,#27,#28,#29,#30,#31,#32,#33,#34,#35,#36,#37,#38,#39,#40,#41,#42,#43,#44,#45,#46,#47,#48,#49,#50,#51,#52),#6);
#2=PRODUCT_DEFINITION_CONTEXT('',#53,'design');
#3=APPLICATION_PROTOCOL_DEFINITION('INTERNATIONAL STANDARD','automotive_design',1994,#53);
#4=PRODUCT_CATEGORY_RELATIONSHIP('NONE','NONE',#54,#55);
#5=SHAPE_DEFINITION_REPRESENTATION(#56,#57);
#6= (GEOMETRIC_REPRESENTATION_CONTEXT(3)GLOBAL_UNCERTAINTY_ASSIGNED_CONTEXT((#60))GLOBAL_UNIT_ASSIGNED_CONTEXT((#62,#63,#64))REPRESENTATION_CONTEXT('NONE','WORKSPACE'));
#10=STYLED_ITEM('',(#66),#67);
#11=STYLED_ITEM('',(#68),#69);
#12=STYLED_ITEM('',(#70),#71);
#13=STYLED_ITEM('',(#72),#73);
#14=STYLED_ITEM('',(#74),#75);
#15=STYLED_ITEM('',(#76),#77);
#16=STYLED_ITEM('',(#78),#79);
#17=STYLED_ITEM('',(#80),#81);
#18=STYLED_ITEM('',(#82),#83);
#19=STYLED_ITEM('',(#84),#85);
#20=STYLED_ITEM('',(#86),#87);
#21=STYLED_ITEM('',(#88),#89);
#22=STYLED_ITEM('',(#90),#91);
#23=STYLED_ITEM('',(#92),#93);
#24=STYLED_ITEM('',(#94),#95);
#25=STYLED_ITEM('',(#96),#97);
#26=STYLED_ITEM('',(#98),#99);
#27=STYLED_ITEM('',(#100),#101);
#28=STYLED_ITEM('',(#102),#103);
#29=STYLED_ITEM('',(#104),#105);
#30=STYLED_ITEM('',(#106),#107);
#31=STYLED_ITEM('',(#108),#109);
#32=STYLED_ITEM('',(#110),#111);
#33=STYLED_ITEM('',(#112),#113);
#34=STYLED_ITEM('',(#114),#115);
#35=STYLED_ITEM('',(#116),#117);
#36=STYLED_ITEM('',(#118),#119);
#37=STYLED_ITEM('',(#120),#121);
#38=STYLED_ITEM('',(#122),#123);
#39=STYLED_ITEM('',(#124),#125);
#40=STYLED_ITEM('',(#126),#127);
#41=STYLED_ITEM('',(#128),#129);
#42=STYLED_ITEM('',(#130),#131);
#43=STYLED_ITEM('',(#132),#133);
#44=STYLED_ITEM('',(#134),#135);
#45=STYLED_ITEM('',(#136),#137);
#46=STYLED_ITEM('',(#138),#139);
#47=STYLED_ITEM('',(#140),#141);
#48=STYLED_ITEM('',(#142),#143);
#49=STYLED_ITEM('',(#144),#145);
#50=STYLED_ITEM('',(#146),#147);
#51=STYLED_ITEM('',(#148),#149);
#52=STYLED_ITEM('',(#150),#151);
#53=APPLICATION_CONTEXT(' ');
#54=PRODUCT_CATEGORY('part','NONE');
#55=PRODUCT_RELATED_PRODUCT_CATEGORY('detail',' ',(#152));
#56=PRODUCT_DEFINITION_SHAPE('NONE','NONE',#153);
#57=ADVANCED_BREP_SHAPE_REPRESENTATION('1',(#103,#154),#6);
#60=UNCERTAINTY_MEASURE_WITH_UNIT(LENGTH_MEASURE(1.0E-006),#62,'','');
#62= (CONVERSION_BASED_UNIT('MILLIMETRE',#157)LENGTH_UNIT()NAMED_UNIT(#160));
#63= (NAMED_UNIT(#162)PLANE_ANGLE_UNIT()SI_UNIT($,.RADIAN.));
#64= (NAMED_UNIT(#162)SOLID_ANGLE_UNIT()SI_UNIT($,.STERADIAN.));
#66=PRESENTATION_STYLE_ASSIGNMENT((#168));
#67=ADVANCED_FACE('',(#169),#170,.F.);
#68=PRESENTATION_STYLE_ASSIGNMENT((#171));
#69=EDGE_CURVE('',#117,#137,#172,.T.);
#70=PRESENTATION_STYLE_ASSIGNMENT((#173));
#71=EDGE_CURVE('',#123,#125,#174,.T.);
#72=PRESENTATION_STYLE_ASSIGNMENT((#175));
#73=VERTEX_POINT('',#176);
#74=PRESENTATION_STYLE_ASSIGNMENT((#177));
#75=EDGE_CURVE('',#73,#107,#178,.T.);
#76=PRESENTATION_STYLE_ASSIGNMENT((#179));
#77=ADVANCED_FACE('',(#180,#181),#182,.T.);
#78=PRESENTATION_STYLE_ASSIGNMENT((#183));
#79=EDGE_CURVE('',#107,#73,#184,.T.);
#80=PRESENTATION_STYLE_ASSIGNMENT((#185));
#81=EDGE_CURVE('',#107,#89,#186,.T.);
#82=PRESENTATION_STYLE_ASSIGNMENT((#187));
#83=ADVANCED_FACE('',(#188),#189,.F.);
#84=PRESENTATION_STYLE_ASSIGNMENT((#190));
#85=ADVANCED_FACE('',(#191),#192,.T.);
#86=PRESENTATION_STYLE_ASSIGNMENT((#193));
#87=ADVANCED_FACE('',(#194,#195),#196,.T.);
#88=PRESENTATION_STYLE_ASSIGNMENT((#197));
#89=VERTEX_POINT('',#198);
#90=PRESENTATION_STYLE_ASSIGNMENT((#199));
#91=EDGE_CURVE('',#89,#99,#200,.T.);
#92=PRESENTATION_STYLE_ASSIGNMENT((#201));
#93=EDGE_CURVE('',#119,#99,#202,.T.);
#94=PRESENTATION_STYLE_ASSIGNMENT((#203));
#95=ADVANCED_FACE('',(#204),#205,.T.);
#96=PRESENTATION_STYLE_ASSIGNMENT((#206));
#97=EDGE_CURVE('',#89,#151,#207,.T.);
#98=PRESENTATION_STYLE_ASSIGNMENT((#208));
#99=VERTEX_POINT('',#209);
#100=PRESENTATION_STYLE_ASSIGNMENT((#210));
#101=EDGE_CURVE('',#147,#131,#211,.T.);
#102=PRESENTATION_STYLE_ASSIGNMENT((#212));
#103=MANIFOLD_SOLID_BREP('1',#213);
#104=PRESENTATION_STYLE_ASSIGNMENT((#214));
#105=EDGE_CURVE('',#99,#73,#215,.T.);
#106=PRESENTATION_STYLE_ASSIGNMENT((#216));
#107=VERTEX_POINT('',#217);
#108=PRESENTATION_STYLE_ASSIGNMENT((#218));
#109=EDGE_CURVE('',#125,#123,#219,.T.);
#110=PRESENTATION_STYLE_ASSIGNMENT((#220));
#111=ADVANCED_FACE('',(#221),#222,.T.);
#112=PRESENTATION_STYLE_ASSIGNMENT((#223));
#113=EDGE_CURVE('',#99,#89,#224,.T.);
#114=PRESENTATION_STYLE_ASSIGNMENT((#225));
#115=EDGE_CURVE('',#137,#125,#226,.T.);
#116=PRESENTATION_STYLE_ASSIGNMENT((#227));
#117=VERTEX_POINT('',#228);
#118=PRESENTATION_STYLE_ASSIGNMENT((#229));
#119=VERTEX_POINT('',#230);
#120=PRESENTATION_STYLE_ASSIGNMENT((#231));
#121=EDGE_CURVE('',#125,#131,#232,.T.);
#122=PRESENTATION_STYLE_ASSIGNMENT((#233));
#123=VERTEX_POINT('',#234);
#124=PRESENTATION_STYLE_ASSIGNMENT((#235));
#125=VERTEX_POINT('',#236);
#126=PRESENTATION_STYLE_ASSIGNMENT((#237));
#127=ADVANCED_FACE('',(#238),#239,.F.);
#128=PRESENTATION_STYLE_ASSIGNMENT((#240));
#129=EDGE_CURVE('',#131,#147,#241,.T.);
#130=PRESENTATION_STYLE_ASSIGNMENT((#242));
#131=VERTEX_POINT('',#243);
#132=PRESENTATION_STYLE_ASSIGNMENT((#244));
#133=EDGE_CURVE('',#151,#119,#245,.T.);
#134=PRESENTATION_STYLE_ASSIGNMENT((#246));
#135=EDGE_CURVE('',#119,#151,#247,.T.);
#136=PRESENTATION_STYLE_ASSIGNMENT((#248));
#137=VERTEX_POINT('',#249);
#138=PRESENTATION_STYLE_ASSIGNMENT((#250));
#139=ADVANCED_FACE('',(#251),#252,.F.);
#140=PRESENTATION_STYLE_ASSIGNMENT((#253));
#141=EDGE_CURVE('',#137,#117,#254,.T.);
#142=PRESENTATION_STYLE_ASSIGNMENT((#255));
#143=ADVANCED_FACE('',(#256),#257,.T.);
#144=PRESENTATION_STYLE_ASSIGNMENT((#258));
#145=EDGE_CURVE('',#147,#123,#259,.T.);
#146=PRESENTATION_STYLE_ASSIGNMENT((#260));
#147=VERTEX_POINT('',#261);
#148=PRESENTATION_STYLE_ASSIGNMENT((#262));
#149=EDGE_CURVE('',#123,#117,#263,.T.);
#150=PRESENTATION_STYLE_ASSIGNMENT((#264));
#151=VERTEX_POINT('',#265);
#152=PRODUCT('1','1','PART-1-DESC',(#266));
#153=PRODUCT_DEFINITION('NONE','NONE',#267,#2);
#154=AXIS2_PLACEMENT_3D('',#268,#269,#270);
#157=LENGTH_MEASURE_WITH_UNIT(LENGTH_MEASURE(1.0),#271);
#160=DIMENSIONAL_EXPONENTS(1.0,0.0,0.0,0.0,0.0,0.0,0.0);
#162=DIMENSIONAL_EXPONENTS(0.0,0.0,0.0,0.0,0.0,0.0,0.0);
#168=SURFACE_STYLE_USAGE(.BOTH.,#272);
#169=FACE_OUTER_BOUND('',#273,.T.);
#170=CYLINDRICAL_SURFACE('',#274,18.5);
#171=CURVE_STYLE('',#275,POSITIVE_LENGTH_MEASURE(1.0E-006),#276);
#172=CIRCLE('',#277,34.0);
#173=CURVE_STYLE('',#278,POSITIVE_LENGTH_MEASURE(1.0E-006),#279);
#174=CIRCLE('',#280,34.0);
#175=POINT_STYLE(' ',#281,POSITIVE_LENGTH_MEASURE(1.0E-006),#282);
#176=CARTESIAN_POINT('',(19.5,1.4488005583671E-014,14.0));
#177=CURVE_STYLE('',#283,POSITIVE_LENGTH_MEASURE(1.0E-006),#284);
#178=CIRCLE('',#285,19.5);
#179=SURFACE_STYLE_USAGE(.BOTH.,#286);
#180=FACE_OUTER_BOUND('',#287,.T.);
#181=FACE_BOUND('',#288,.T.);
#182=PLANE('',#289);
#183=CURVE_STYLE('',#290,POSITIVE_LENGTH_MEASURE(1.0E-006),#291);
#184=CIRCLE('',#292,19.5);
#185=CURVE_STYLE('',#293,POSITIVE_LENGTH_MEASURE(1.0E-006),#294);
#186=LINE('',#295,#296);
#187=SURFACE_STYLE_USAGE(.BOTH.,#297);
#188=FACE_OUTER_BOUND('',#298,.T.);
#189=CONICAL_SURFACE('',#299,19.0,0.785398163397448);
#190=SURFACE_STYLE_USAGE(.BOTH.,#300);
#191=FACE_OUTER_BOUND('',#301,.T.);
#192=CYLINDRICAL_SURFACE('',#302,34.0);
#193=SURFACE_STYLE_USAGE(.BOTH.,#303);
#194=FACE_OUTER_BOUND('',#304,.T.);
#195=FACE_BOUND('',#305,.T.);
#196=PLANE('',#306);
#197=POINT_STYLE(' ',#307,POSITIVE_LENGTH_MEASURE(1.0E-006),#308);
#198=CARTESIAN_POINT('',(-18.5,6.48275982282725E-015,13.0));
#199=CURVE_STYLE('',#309,POSITIVE_LENGTH_MEASURE(1.0E-006),#310);
#200=CIRCLE('',#311,18.5);
#201=CURVE_STYLE('',#312,POSITIVE_LENGTH_MEASURE(1.0E-006),#313);
#202=LINE('',#314,#315);
#203=SURFACE_STYLE_USAGE(.BOTH.,#316);
#204=FACE_OUTER_BOUND('',#317,.T.);
#205=SPHERICAL_SURFACE('',#318,50.0000000000002);
#206=CURVE_STYLE('',#319,POSITIVE_LENGTH_MEASURE(1.0E-006),#320);
#207=LINE('',#321,#322);
#208=POINT_STYLE(' ',#323,POSITIVE_LENGTH_MEASURE(1.0E-006),#324);
#209=CARTESIAN_POINT('',(18.5,1.41968007791284E-014,13.0));
#210=CURVE_STYLE('',#325,POSITIVE_LENGTH_MEASURE(1.0E-006),#326);
#211=CIRCLE('',#327,19.4530361506539);
#212=SURFACE_STYLE_USAGE(.BOTH.,#328);
#213=CLOSED_SHELL('',(#127,#143,#83,#111,#95,#139,#87,#85,#77,#67));
#214=CURVE_STYLE('',#329,POSITIVE_LENGTH_MEASURE(1.0E-006),#330);
#215=LINE('',#331,#332);
#216=POINT_STYLE(' ',#333,POSITIVE_LENGTH_MEASURE(1.0E-006),#334);
#217=CARTESIAN_POINT('',(-19.5,6.42152950513613E-015,14.0));
#218=CURVE_STYLE('',#335,POSITIVE_LENGTH_MEASURE(1.0E-006),#336);
#219=CIRCLE('',#337,34.0);
#220=SURFACE_STYLE_USAGE(.BOTH.,#338);
#221=FACE_OUTER_BOUND('',#339,.T.);
#222=SPHERICAL_SURFACE('',#340,50.0000000000002);
#223=CURVE_STYLE('',#341,POSITIVE_LENGTH_MEASURE(1.0E-006),#342);
#224=CIRCLE('',#343,18.5);
#225=CURVE_STYLE('',#344,POSITIVE_LENGTH_MEASURE(1.0E-006),#345);
#226=LINE('',#346,#347);
#227=POINT_STYLE(' ',#348,POSITIVE_LENGTH_MEASURE(1.0E-006),#349);
#228=CARTESIAN_POINT('',(34.0,1.87104752495391E-014,14.0));
#229=POINT_STYLE(' ',#350,POSITIVE_LENGTH_MEASURE(1.0E-006),#351);
#230=CARTESIAN_POINT('',(18.5,1.41968007791284E-014,-2.8421709430404E-014));
#231=CURVE_STYLE('',#352,POSITIVE_LENGTH_MEASURE(1.0E-006),#353);
#232=CIRCLE('',#354,50.0000000000002);
#233=POINT_STYLE(' ',#355,POSITIVE_LENGTH_MEASURE(1.0E-006),#356);
#234=CARTESIAN_POINT('',(34.0,1.90999161648688E-014,9.39999999999981));
#235=POINT_STYLE(' ',#357,POSITIVE_LENGTH_MEASURE(1.0E-006),#358);
#236=CARTESIAN_POINT('',(-34.0,4.36419083071454E-015,9.39999999999993));
#237=SURFACE_STYLE_USAGE(.BOTH.,#359);
#238=FACE_OUTER_BOUND('',#360,.T.);
#239=CYLINDRICAL_SURFACE('',#361,18.5);
#240=CURVE_STYLE('',#362,POSITIVE_LENGTH_MEASURE(1.0E-006),#363);
#241=CIRCLE('',#364,19.4530361506539);
#242=POINT_STYLE(' ',#365,POSITIVE_LENGTH_MEASURE(1.0E-006),#366);
#243=CARTESIAN_POINT('',(-19.4530361506537,5.57005628029141E-015,-1.4210854715202E-014));
#244=CURVE_STYLE('',#367,POSITIVE_LENGTH_MEASURE(1.0E-006),#368);
#245=CIRCLE('',#369,18.5);
#246=CURVE_STYLE('',#370,POSITIVE_LENGTH_MEASURE(1.0E-006),#371);
#247=CIRCLE('',#372,18.5);
#248=POINT_STYLE(' ',#373,POSITIVE_LENGTH_MEASURE(1.0E-006),#374);
#249=CARTESIAN_POINT('',(-34.0,4.64585029209369E-015,14.0));
#250=SURFACE_STYLE_USAGE(.BOTH.,#375);
#251=FACE_OUTER_BOUND('',#376,.T.);
#252=CONICAL_SURFACE('',#377,19.0,0.785398163397448);
#253=CURVE_STYLE('',#378,POSITIVE_LENGTH_MEASURE(1.0E-006),#379);
#254=CIRCLE('',#380,34.0);
#255=SURFACE_STYLE_USAGE(.BOTH.,#381);
#256=FACE_OUTER_BOUND('',#382,.T.);
#257=CYLINDRICAL_SURFACE('',#383,34.0);
#258=CURVE_STYLE('',#384,POSITIVE_LENGTH_MEASURE(1.0E-006),#385);
#259=CIRCLE('',#386,50.0000000000002);
#260=POINT_STYLE(' ',#387,POSITIVE_LENGTH_MEASURE(1.0E-006),#388);
#261=CARTESIAN_POINT('',(19.4530361506538,1.5537055293122E-014,-1.4210854715202E-014));
#262=CURVE_STYLE('',#389,POSITIVE_LENGTH_MEASURE(1.0E-006),#390);
#263=LINE('',#391,#392);
#264=POINT_STYLE(' ',#393,POSITIVE_LENGTH_MEASURE(1.0E-006),#394);
#265=CARTESIAN_POINT('',(-18.5,5.68676569284271E-015,-2.8421709430404E-014));
#266=PRODUCT_CONTEXT('',#53,'mechanical');
#267=PRODUCT_DEFINITION_FORMATION_WITH_SPECIFIED_SOURCE(' ','NONE',#152,.NOT_KNOWN.);
#268=CARTESIAN_POINT('',(0.0,0.0,0.0));
#269=DIRECTION('',(0.0,0.0,1.0));
#270=DIRECTION('',(1.0,0.0,0.0));
#271= (NAMED_UNIT(#160)LENGTH_UNIT()SI_UNIT(.MILLI.,.METRE.));
#272=SURFACE_SIDE_STYLE('',(#396));
#273=EDGE_LOOP('',(#397,#398,#399,#400));
#274=AXIS2_PLACEMENT_3D('',#401,#402,#403);
#275=DRAUGHTING_PRE_DEFINED_CURVE_FONT('continuous');
#276=COLOUR_RGB('',0.509803950786591,0.509803950786591,0.588235318660736);
#277=AXIS2_PLACEMENT_3D('',#404,#405,#406);
#278=DRAUGHTING_PRE_DEFINED_CURVE_FONT('continuous');
#279=COLOUR_RGB('',0.509803950786591,0.509803950786591,0.588235318660736);
#280=AXIS2_PLACEMENT_3D('',#407,#408,#409);
#281=PRE_DEFINED_MARKER('');
#282=COLOUR_RGB('',0.509803950786591,0.509803950786591,0.588235318660736);
#283=DRAUGHTING_PRE_DEFINED_CURVE_FONT('continuous');
#284=COLOUR_RGB('',0.509803950786591,0.509803950786591,0.588235318660736);
#285=AXIS2_PLACEMENT_3D('',#410,#411,#412);
#286=SURFACE_SIDE_STYLE('',(#413));
#287=EDGE_LOOP('',(#414,#415));
#288=EDGE_LOOP('',(#416,#417));
#289=AXIS2_PLACEMENT_3D('',#418,#419,#420);
#290=DRAUGHTING_PRE_DEFINED_CURVE_FONT('continuous');
#291=COLOUR_RGB('',0.509803950786591,0.509803950786591,0.588235318660736);
#292=AXIS2_PLACEMENT_3D('',#421,#422,#423);
#293=DRAUGHTING_PRE_DEFINED_CURVE_FONT('continuous');
#294=COLOUR_RGB('',0.509803950786591,0.509803950786591,0.588235318660736);
#295=CARTESIAN_POINT('',(-19.0,3.27662060877987E-015,13.5));
#296=VECTOR('',#424,1.0);
#297=SURFACE_SIDE_STYLE('',(#425));
#298=EDGE_LOOP('',(#426,#427,#428,#429));
#299=AXIS2_PLACEMENT_3D('',#430,#431,#432);
#300=SURFACE_SIDE_STYLE('',(#433));
#301=EDGE_LOOP('',(#434,#435,#436,#437));
#302=AXIS2_PLACEMENT_3D('',#438,#439,#440);
#303=SURFACE_SIDE_STYLE('',(#441));
#304=EDGE_LOOP('',(#442,#443));
#305=EDGE_LOOP('',(#444,#445));
#306=AXIS2_PLACEMENT_3D('',#446,#447,#448);
#307=PRE_DEFINED_MARKER('');
#308=COLOUR_RGB('',0.509803950786591,0.509803950786591,0.588235318660736);
#309=DRAUGHTING_PRE_DEFINED_CURVE_FONT('continuous');
#310=COLOUR_RGB('',0.509803950786591,0.509803950786591,0.588235318660736);
#311=AXIS2_PLACEMENT_3D('',#449,#450,#451);
#312=DRAUGHTING_PRE_DEFINED_CURVE_FONT('continuous');
#313=COLOUR_RGB('',0.509803950786591,0.509803950786591,0.588235318660736);
#314=CARTESIAN_POINT('',(18.5,1.41968007791284E-014,6.49999999999999));
#315=VECTOR('',#452,1.0);
#316=SURFACE_SIDE_STYLE('',(#453));
#317=EDGE_LOOP('',(#454,#455,#456,#457));
#318=AXIS2_PLACEMENT_3D('',#458,#459,#460);
#319=DRAUGHTING_PRE_DEFINED_CURVE_FONT('continuous');
#320=COLOUR_RGB('',0.509803950786591,0.509803950786591,0.588235318660736);
#321=CARTESIAN_POINT('',(-18.5,3.42222301105119E-015,6.49999999999999));
#322=VECTOR('',#461,1.0);
#323=PRE_DEFINED_MARKER('');
#324=COLOUR_RGB('',0.509803950786591,0.509803950786591,0.588235318660736);
#325=DRAUGHTING_PRE_DEFINED_CURVE_FONT('continuous');
#326=COLOUR_RGB('',0.509803950786591,0.509803950786591,0.588235318660736);
#327=AXIS2_PLACEMENT_3D('',#462,#463,#464);
#328=SURFACE_SIDE_STYLE('',(#465));
#329=DRAUGHTING_PRE_DEFINED_CURVE_FONT('continuous');
#330=COLOUR_RGB('',0.509803950786591,0.509803950786591,0.588235318660736);
#331=CARTESIAN_POINT('',(19.0,1.43424031813997E-014,13.5));
#332=VECTOR('',#466,1.0);
#333=PRE_DEFINED_MARKER('');
#334=COLOUR_RGB('',0.509803950786591,0.509803950786591,0.588235318660736);
#335=DRAUGHTING_PRE_DEFINED_CURVE_FONT('continuous');
#336=COLOUR_RGB('',0.509803950786591,0.509803950786591,0.588235318660736);
#337=AXIS2_PLACEMENT_3D('',#467,#468,#469);
#338=SURFACE_SIDE_STYLE('',(#470));
#339=EDGE_LOOP('',(#471,#472,#473,#474));
#340=AXIS2_PLACEMENT_3D('',#475,#476,#477);
#341=DRAUGHTING_PRE_DEFINED_CURVE_FONT('continuous');
#342=COLOUR_RGB('',0.509803950786591,0.509803950786591,0.588235318660736);
#343=AXIS2_PLACEMENT_3D('',#478,#479,#480);
#344=DRAUGHTING_PRE_DEFINED_CURVE_FONT('continuous');
#345=COLOUR_RGB('',0.509803950786591,0.509803950786591,0.588235318660736);
#346=CARTESIAN_POINT('',(-34.0,-1.09145145935951E-015,11.6999999999999));
#347=VECTOR('',#481,1.0);
#348=PRE_DEFINED_MARKER('');
#349=COLOUR_RGB('',0.509803950786591,0.509803950786591,0.588235318660736);
#350=PRE_DEFINED_MARKER('');
#351=COLOUR_RGB('',0.509803950786591,0.509803950786591,0.588235318660736);
#352=DRAUGHTING_PRE_DEFINED_CURVE_FONT('continuous');
#353=COLOUR_RGB('',0.509803950786591,0.509803950786591,0.588235318660736);
#354=AXIS2_PLACEMENT_3D('',#482,#483,#484);
#355=PRE_DEFINED_MARKER('');
#356=COLOUR_RGB('',0.509803950786591,0.509803950786591,0.588235318660736);
#357=PRE_DEFINED_MARKER('');
#358=COLOUR_RGB('',0.509803950786591,0.509803950786591,0.588235318660736);
#359=SURFACE_SIDE_STYLE('',(#485));
#360=EDGE_LOOP('',(#486,#487,#488,#489));
#361=AXIS2_PLACEMENT_3D('',#490,#491,#492);
#362=DRAUGHTING_PRE_DEFINED_CURVE_FONT('continuous');
#363=COLOUR_RGB('',0.509803950786591,0.509803950786591,0.588235318660736);
#364=AXIS2_PLACEMENT_3D('',#493,#494,#495);
#365=PRE_DEFINED_MARKER('');
#366=COLOUR_RGB('',0.509803950786591,0.509803950786591,0.588235318660736);
#367=DRAUGHTING_PRE_DEFINED_CURVE_FONT('continuous');
#368=COLOUR_RGB('',0.509803950786591,0.509803950786591,0.588235318660736);
#369=AXIS2_PLACEMENT_3D('',#496,#497,#498);
#370=DRAUGHTING_PRE_DEFINED_CURVE_FONT('continuous');
#371=COLOUR_RGB('',0.509803950786591,0.509803950786591,0.588235318660736);
#372=AXIS2_PLACEMENT_3D('',#499,#500,#501);
#373=PRE_DEFINED_MARKER('');
#374=COLOUR_RGB('',0.509803950786591,0.509803950786591,0.588235318660736);
#375=SURFACE_SIDE_STYLE('',(#502));
#376=EDGE_LOOP('',(#503,#504,#505,#506));
#377=AXIS2_PLACEMENT_3D('',#507,#508,#509);
#378=DRAUGHTING_PRE_DEFINED_CURVE_FONT('continuous');
#379=COLOUR_RGB('',0.509803950786591,0.509803950786591,0.588235318660736);
#380=AXIS2_PLACEMENT_3D('',#510,#511,#512);
#381=SURFACE_SIDE_STYLE('',(#513));
#382=EDGE_LOOP('',(#514,#515,#516,#517));
#383=AXIS2_PLACEMENT_3D('',#518,#519,#520);
#384=DRAUGHTING_PRE_DEFINED_CURVE_FONT('continuous');
#385=COLOUR_RGB('',0.509803950786591,0.509803950786591,0.588235318660736);
#386=AXIS2_PLACEMENT_3D('',#521,#522,#523);
#387=PRE_DEFINED_MARKER('');
#388=COLOUR_RGB('',0.509803950786591,0.509803950786591,0.588235318660736);
#389=DRAUGHTING_PRE_DEFINED_CURVE_FONT('continuous');
#390=COLOUR_RGB('',0.509803950786591,0.509803950786591,0.588235318660736);
#391=CARTESIAN_POINT('',(34.0,1.87104752495391E-014,11.6999999999999));
#392=VECTOR('',#524,1.0);
#393=PRE_DEFINED_MARKER('');
#394=COLOUR_RGB('',0.509803950786591,0.509803950786591,0.588235318660736);
#396=SURFACE_STYLE_FILL_AREA(#525);
#397=ORIENTED_EDGE('',*,*,#97,.T.);
#398=ORIENTED_EDGE('',*,*,#133,.T.);
#399=ORIENTED_EDGE('',*,*,#93,.T.);
#400=ORIENTED_EDGE('',*,*,#91,.F.);
#401=CARTESIAN_POINT('',(0.0,8.80951189508977E-015,6.49999999999999));
#402=DIRECTION('',(0.0,-0.0,1.0));
#403=DIRECTION('',(-1.0,-1.68744169160388E-016,0.0));
#404=CARTESIAN_POINT('',(0.0,8.80951189508977E-015,14.0));
#405=DIRECTION('',(-0.0,0.0,-1.0));
#406=DIRECTION('',(-1.0,-1.68744169160388E-016,0.0));
#407=CARTESIAN_POINT('',(0.0,8.80951189508977E-015,9.39999999999981));
#408=DIRECTION('',(0.0,0.0,1.0));
#409=DIRECTION('',(-1.0,-1.68744169160388E-016,0.0));
#410=CARTESIAN_POINT('',(0.0,8.80951189508977E-015,14.0));
#411=DIRECTION('',(-0.0,0.0,-1.0));
#412=DIRECTION('',(-1.0,-1.68744169160388E-016,0.0));
#413=SURFACE_STYLE_FILL_AREA(#526);
#414=ORIENTED_EDGE('',*,*,#129,.T.);
#415=ORIENTED_EDGE('',*,*,#101,.T.);
#416=ORIENTED_EDGE('',*,*,#133,.F.);
#417=ORIENTED_EDGE('',*,*,#135,.F.);
#418=CARTESIAN_POINT('',(-26.25,4.73769576863037E-015,-1.4210854715202E-014));
#419=DIRECTION('',(0.0,0.0,-1.0));
#420=DIRECTION('',(1.0,1.22460635382238E-016,0.0));
#421=CARTESIAN_POINT('',(0.0,8.80951189508977E-015,14.0));
#422=DIRECTION('',(-0.0,0.0,-1.0));
#423=DIRECTION('',(-1.0,-1.68744169160388E-016,0.0));
#424=DIRECTION('',(0.707106781186548,2.05912892006194E-016,-0.707106781186547));
#425=SURFACE_STYLE_FILL_AREA(#527);
#426=ORIENTED_EDGE('',*,*,#81,.F.);
#427=ORIENTED_EDGE('',*,*,#75,.F.);
#428=ORIENTED_EDGE('',*,*,#105,.F.);
#429=ORIENTED_EDGE('',*,*,#113,.T.);
#430=CARTESIAN_POINT('',(0.0,8.80951189508977E-015,13.5));
#431=DIRECTION('',(0.0,-0.0,1.0));
#432=DIRECTION('',(-1.0,-1.68744169160388E-016,0.0));
#433=SURFACE_STYLE_FILL_AREA(#528);
#434=ORIENTED_EDGE('',*,*,#115,.T.);
#435=ORIENTED_EDGE('',*,*,#109,.T.);
#436=ORIENTED_EDGE('',*,*,#149,.T.);
#437=ORIENTED_EDGE('',*,*,#69,.T.);
#438=CARTESIAN_POINT('',(0.0,8.80951189508977E-015,7.0));
#439=DIRECTION('',(0.0,-0.0,1.0));
#440=DIRECTION('',(-1.0,-1.68744169160388E-016,0.0));
#441=SURFACE_STYLE_FILL_AREA(#529);
#442=ORIENTED_EDGE('',*,*,#141,.F.);
#443=ORIENTED_EDGE('',*,*,#69,.F.);
#444=ORIENTED_EDGE('',*,*,#79,.T.);
#445=ORIENTED_EDGE('',*,*,#75,.T.);
#446=CARTESIAN_POINT('',(-26.75,5.53368989861491E-015,14.0));
#447=DIRECTION('',(0.0,0.0,1.0));
#448=DIRECTION('',(-1.0,-1.22460635382238E-016,0.0));
#449=CARTESIAN_POINT('',(0.0,8.80951189508977E-015,13.0));
#450=DIRECTION('',(-0.0,0.0,-1.0));
#451=DIRECTION('',(-1.0,-1.68744169160388E-016,0.0));
#452=DIRECTION('',(0.0,0.0,1.0));
#453=SURFACE_STYLE_FILL_AREA(#530);
#454=ORIENTED_EDGE('',*,*,#145,.T.);
#455=ORIENTED_EDGE('',*,*,#109,.F.);
#456=ORIENTED_EDGE('',*,*,#121,.T.);
#457=ORIENTED_EDGE('',*,*,#101,.F.);
#458=CARTESIAN_POINT('',(-9.59232693276135E-014,1.07725929588766E-014,46.0606055596469));
#459=DIRECTION('',(0.0,0.0,-1.0));
#460=DIRECTION('',(1.0,1.22460635382238E-016,0.0));
#461=DIRECTION('',(0.0,0.0,-1.0));
#462=CARTESIAN_POINT('',(-9.59232693276135E-014,1.07725929588766E-014,-1.4210854715202E-014));
#463=DIRECTION('',(0.0,0.0,-1.0));
#464=DIRECTION('',(0.0,-1.0,0.0));
#465=SURFACE_STYLE_FILL_AREA(#531);
#466=DIRECTION('',(0.707106781186548,2.05912892006194E-016,0.707106781186547));
#467=CARTESIAN_POINT('',(0.0,8.80951189508977E-015,9.39999999999981));
#468=DIRECTION('',(0.0,0.0,1.0));
#469=DIRECTION('',(-1.0,-1.68744169160388E-016,0.0));
#470=SURFACE_STYLE_FILL_AREA(#532);
#471=ORIENTED_EDGE('',*,*,#145,.F.);
#472=ORIENTED_EDGE('',*,*,#129,.F.);
#473=ORIENTED_EDGE('',*,*,#121,.F.);
#474=ORIENTED_EDGE('',*,*,#71,.F.);
#475=CARTESIAN_POINT('',(-9.59232693276135E-014,1.07725929588766E-014,46.0606055596469));
#476=DIRECTION('',(0.0,0.0,-1.0));
#477=DIRECTION('',(1.0,1.22460635382238E-016,0.0));
#478=CARTESIAN_POINT('',(0.0,8.80951189508977E-015,13.0));
#479=DIRECTION('',(-0.0,0.0,-1.0));
#480=DIRECTION('',(-1.0,-1.68744169160388E-016,0.0));
#481=DIRECTION('',(0.0,0.0,-1.0));
#482=CARTESIAN_POINT('',(-9.59232693276135E-014,1.07725929588766E-014,46.0606055596469));
#483=DIRECTION('',(2.44921270764476E-016,-1.0,0.0));
#484=DIRECTION('',(-0.0,0.0,1.0));
#485=SURFACE_STYLE_FILL_AREA(#533);
#486=ORIENTED_EDGE('',*,*,#97,.F.);
#487=ORIENTED_EDGE('',*,*,#113,.F.);
#488=ORIENTED_EDGE('',*,*,#93,.F.);
#489=ORIENTED_EDGE('',*,*,#135,.T.);
#490=CARTESIAN_POINT('',(0.0,8.80951189508977E-015,6.49999999999999));
#491=DIRECTION('',(0.0,-0.0,1.0));
#492=DIRECTION('',(-1.0,-1.68744169160388E-016,0.0));
#493=CARTESIAN_POINT('',(-9.59232693276135E-014,1.07725929588766E-014,-1.4210854715202E-014));
#494=DIRECTION('',(0.0,0.0,-1.0));
#495=DIRECTION('',(0.0,-1.0,0.0));
#496=CARTESIAN_POINT('',(0.0,8.80951189508977E-015,-2.8421709430404E-014));
#497=DIRECTION('',(-0.0,0.0,-1.0));
#498=DIRECTION('',(-1.0,-1.68744169160388E-016,0.0));
#499=CARTESIAN_POINT('',(0.0,8.80951189508977E-015,-2.8421709430404E-014));
#500=DIRECTION('',(-0.0,0.0,-1.0));
#501=DIRECTION('',(-1.0,-1.68744169160388E-016,0.0));
#502=SURFACE_STYLE_FILL_AREA(#534);
#503=ORIENTED_EDGE('',*,*,#81,.T.);
#504=ORIENTED_EDGE('',*,*,#91,.T.);
#505=ORIENTED_EDGE('',*,*,#105,.T.);
#506=ORIENTED_EDGE('',*,*,#79,.F.);
#507=CARTESIAN_POINT('',(0.0,8.80951189508977E-015,13.5));
#508=DIRECTION('',(0.0,-0.0,1.0));
#509=DIRECTION('',(-1.0,-1.68744169160388E-016,0.0));
#510=CARTESIAN_POINT('',(0.0,8.80951189508977E-015,14.0));
#511=DIRECTION('',(-0.0,0.0,-1.0));
#512=DIRECTION('',(-1.0,-1.68744169160388E-016,0.0));
#513=SURFACE_STYLE_FILL_AREA(#535);
#514=ORIENTED_EDGE('',*,*,#115,.F.);
#515=ORIENTED_EDGE('',*,*,#141,.T.);
#516=ORIENTED_EDGE('',*,*,#149,.F.);
#517=ORIENTED_EDGE('',*,*,#71,.T.);
#518=CARTESIAN_POINT('',(0.0,8.80951189508977E-015,7.0));
#519=DIRECTION('',(0.0,-0.0,1.0));
#520=DIRECTION('',(-1.0,-1.68744169160388E-016,0.0));
#521=CARTESIAN_POINT('',(-9.59232693276135E-014,1.07725929588766E-014,46.0606055596469));
#522=DIRECTION('',(2.44921270764476E-016,-1.0,0.0));
#523=DIRECTION('',(-0.0,0.0,1.0));
#524=DIRECTION('',(-0.0,-0.0,1.0));
#525=FILL_AREA_STYLE('',(#536));
#526=FILL_AREA_STYLE('',(#537));
#527=FILL_AREA_STYLE('',(#538));
#528=FILL_AREA_STYLE('',(#539));
#529=FILL_AREA_STYLE('',(#540));
#530=FILL_AREA_STYLE('',(#541));
#531=FILL_AREA_STYLE('',(#542));
#532=FILL_AREA_STYLE('',(#543));
#533=FILL_AREA_STYLE('',(#544));
#534=FILL_AREA_STYLE('',(#545));
#535=FILL_AREA_STYLE('',(#546));
#536=FILL_AREA_STYLE_COLOUR('',#547);
#537=FILL_AREA_STYLE_COLOUR('',#548);
#538=FILL_AREA_STYLE_COLOUR('',#549);
#539=FILL_AREA_STYLE_COLOUR('',#550);
#540=FILL_AREA_STYLE_COLOUR('',#551);
#541=FILL_AREA_STYLE_COLOUR('',#552);
#542=FILL_AREA_STYLE_COLOUR('',#553);
#543=FILL_AREA_STYLE_COLOUR('',#554);
#544=FILL_AREA_STYLE_COLOUR('',#555);
#545=FILL_AREA_STYLE_COLOUR('',#556);
#546=FILL_AREA_STYLE_COLOUR('',#557);
#547=COLOUR_RGB('',0.509803950786591,0.509803950786591,0.588235318660736);
#548=COLOUR_RGB('',0.509803950786591,0.509803950786591,0.588235318660736);
#549=COLOUR_RGB('',0.509803950786591,0.509803950786591,0.588235318660736);
#550=COLOUR_RGB('',0.509803950786591,0.509803950786591,0.588235318660736);
#551=COLOUR_RGB('',0.509803950786591,0.509803950786591,0.588235318660736);
#552=COLOUR_RGB('',0.509803950786591,0.509803950786591,0.588235318660736);
#553=COLOUR_RGB('',0.509803950786591,0.509803950786591,0.588235318660736);
#554=COLOUR_RGB('',0.509803950786591,0.509803950786591,0.588235318660736);
#555=COLOUR_RGB('',0.509803950786591,0.509803950786591,0.588235318660736);
#556=COLOUR_RGB('',0.509803950786591,0.509803950786591,0.588235318660736);
#557=COLOUR_RGB('',0.509803950786591,0.509803950786591,0.588235318660736);
ENDSEC;
END-ISO-10303-21;
