ISO-10303-21;
HEADER;
FILE_DESCRIPTION(('STEP AP214'),'1');
FILE_NAME(' ','  ',('TraceParts'),('TraceParts S.A.'),'XStep 1.0',' ',' ');
FILE_SCHEMA(('automotive_design'));
ENDSEC;
DATA;
#1=MECHANICAL_DESIGN_GEOMETRIC_PRESENTATION_REPRESENTATION(' ',(#10,#11,#12,#13,#14,#15,#16,#17,#18,#19,#20,#21,#22,#23,#24,#25,#26,#27,#28,#29,#30,#31,#32,#33,#34,#35,#36,#37,#38,#39,#40,#41,#42,#43,#44,#45,#46,#47,#48,#49,#50,#51,#52),#6);
#2=PRODUCT_DEFINITION_CONTEXT('',#53,'design');
#3=APPLICATION_PROTOCOL_DEFINITION('INTERNATIONAL STANDARD','automotive_design',1994,#53);
#4=PRODUCT_CATEGORY_RELATIONSHIP('NONE','NONE',#54,#55);
#5=SHAPE_DEFINITION_REPRESENTATION(#56,#57);
#6= (GEOMETRIC_REPRESENTATION_CONTEXT(3)GLOBAL_UNCERTAINTY_ASSIGNED_CONTEXT((#60))GLOBAL_UNIT_ASSIGNED_CONTEXT((#62,#63,#64))REPRESENTATION_CONTEXT('NONE','WORKSPACE'));
#10=STYLED_ITEM('',(#66),#67);
#11=STYLED_ITEM('',(#68),#69);
#12=STYLED_ITEM('',(#70),#71);
#13=STYLED_ITEM('',(#72),#73);
#14=STYLED_ITEM('',(#74),#75);
#15=STYLED_ITEM('',(#76),#77);
#16=STYLED_ITEM('',(#78),#79);
#17=STYLED_ITEM('',(#80),#81);
#18=STYLED_ITEM('',(#82),#83);
#19=STYLED_ITEM('',(#84),#85);
#20=STYLED_ITEM('',(#86),#87);
#21=STYLED_ITEM('',(#88),#89);
#22=STYLED_ITEM('',(#90),#91);
#23=STYLED_ITEM('',(#92),#93);
#24=STYLED_ITEM('',(#94),#95);
#25=STYLED_ITEM('',(#96),#97);
#26=STYLED_ITEM('',(#98),#99);
#27=STYLED_ITEM('',(#100),#101);
#28=STYLED_ITEM('',(#102),#103);
#29=STYLED_ITEM('',(#104),#105);
#30=STYLED_ITEM('',(#106),#107);
#31=STYLED_ITEM('',(#108),#109);
#32=STYLED_ITEM('',(#110),#111);
#33=STYLED_ITEM('',(#112),#113);
#34=STYLED_ITEM('',(#114),#115);
#35=STYLED_ITEM('',(#116),#117);
#36=STYLED_ITEM('',(#118),#119);
#37=STYLED_ITEM('',(#120),#121);
#38=STYLED_ITEM('',(#122),#123);
#39=STYLED_ITEM('',(#124),#125);
#40=STYLED_ITEM('',(#126),#127);
#41=STYLED_ITEM('',(#128),#129);
#42=STYLED_ITEM('',(#130),#131);
#43=STYLED_ITEM('',(#132),#133);
#44=STYLED_ITEM('',(#134),#135);
#45=STYLED_ITEM('',(#136),#137);
#46=STYLED_ITEM('',(#138),#139);
#47=STYLED_ITEM('',(#140),#141);
#48=STYLED_ITEM('',(#142),#143);
#49=STYLED_ITEM('',(#144),#145);
#50=STYLED_ITEM('',(#146),#147);
#51=STYLED_ITEM('',(#148),#149);
#52=STYLED_ITEM('',(#150),#151);
#53=APPLICATION_CONTEXT(' ');
#54=PRODUCT_CATEGORY('part','NONE');
#55=PRODUCT_RELATED_PRODUCT_CATEGORY('detail',' ',(#152));
#56=PRODUCT_DEFINITION_SHAPE('NONE','NONE',#153);
#57=ADVANCED_BREP_SHAPE_REPRESENTATION('1',(#69,#154),#6);
#60=UNCERTAINTY_MEASURE_WITH_UNIT(LENGTH_MEASURE(1.0E-006),#62,'','');
#62= (CONVERSION_BASED_UNIT('MILLIMETRE',#157)LENGTH_UNIT()NAMED_UNIT(#160));
#63= (NAMED_UNIT(#162)PLANE_ANGLE_UNIT()SI_UNIT($,.RADIAN.));
#64= (NAMED_UNIT(#162)SOLID_ANGLE_UNIT()SI_UNIT($,.STERADIAN.));
#66=PRESENTATION_STYLE_ASSIGNMENT((#168));
#67=EDGE_CURVE('',#147,#151,#169,.T.);
#68=PRESENTATION_STYLE_ASSIGNMENT((#170));
#69=MANIFOLD_SOLID_BREP('1',#171);
#70=PRESENTATION_STYLE_ASSIGNMENT((#172));
#71=VERTEX_POINT('',#173);
#72=PRESENTATION_STYLE_ASSIGNMENT((#174));
#73=EDGE_CURVE('',#149,#145,#175,.T.);
#74=PRESENTATION_STYLE_ASSIGNMENT((#176));
#75=EDGE_CURVE('',#111,#81,#177,.T.);
#76=PRESENTATION_STYLE_ASSIGNMENT((#178));
#77=EDGE_CURVE('',#125,#123,#179,.T.);
#78=PRESENTATION_STYLE_ASSIGNMENT((#180));
#79=ADVANCED_FACE('',(#181),#182,.T.);
#80=PRESENTATION_STYLE_ASSIGNMENT((#183));
#81=VERTEX_POINT('',#184);
#82=PRESENTATION_STYLE_ASSIGNMENT((#185));
#83=EDGE_CURVE('',#81,#111,#186,.T.);
#84=PRESENTATION_STYLE_ASSIGNMENT((#187));
#85=EDGE_CURVE('',#111,#119,#188,.T.);
#86=PRESENTATION_STYLE_ASSIGNMENT((#189));
#87=EDGE_CURVE('',#71,#141,#190,.T.);
#88=PRESENTATION_STYLE_ASSIGNMENT((#191));
#89=EDGE_CURVE('',#151,#81,#192,.T.);
#90=PRESENTATION_STYLE_ASSIGNMENT((#193));
#91=EDGE_CURVE('',#123,#125,#194,.T.);
#92=PRESENTATION_STYLE_ASSIGNMENT((#195));
#93=ADVANCED_FACE('',(#196),#197,.T.);
#94=PRESENTATION_STYLE_ASSIGNMENT((#198));
#95=EDGE_CURVE('',#141,#71,#199,.T.);
#96=PRESENTATION_STYLE_ASSIGNMENT((#200));
#97=EDGE_CURVE('',#147,#129,#201,.T.);
#98=PRESENTATION_STYLE_ASSIGNMENT((#202));
#99=ADVANCED_FACE('',(#203),#204,.F.);
#100=PRESENTATION_STYLE_ASSIGNMENT((#205));
#101=EDGE_CURVE('',#123,#149,#206,.T.);
#102=PRESENTATION_STYLE_ASSIGNMENT((#207));
#103=ADVANCED_FACE('',(#208,#209),#210,.T.);
#104=PRESENTATION_STYLE_ASSIGNMENT((#211));
#105=EDGE_CURVE('',#119,#151,#212,.T.);
#106=PRESENTATION_STYLE_ASSIGNMENT((#213));
#107=EDGE_CURVE('',#145,#149,#214,.T.);
#108=PRESENTATION_STYLE_ASSIGNMENT((#215));
#109=ADVANCED_FACE('',(#216),#217,.T.);
#110=PRESENTATION_STYLE_ASSIGNMENT((#218));
#111=VERTEX_POINT('',#219);
#112=PRESENTATION_STYLE_ASSIGNMENT((#220));
#113=EDGE_CURVE('',#71,#123,#221,.T.);
#114=PRESENTATION_STYLE_ASSIGNMENT((#222));
#115=EDGE_CURVE('',#119,#129,#223,.T.);
#116=PRESENTATION_STYLE_ASSIGNMENT((#224));
#117=ADVANCED_FACE('',(#225),#226,.T.);
#118=PRESENTATION_STYLE_ASSIGNMENT((#227));
#119=VERTEX_POINT('',#228);
#120=PRESENTATION_STYLE_ASSIGNMENT((#229));
#121=EDGE_CURVE('',#129,#147,#230,.T.);
#122=PRESENTATION_STYLE_ASSIGNMENT((#231));
#123=VERTEX_POINT('',#232);
#124=PRESENTATION_STYLE_ASSIGNMENT((#233));
#125=VERTEX_POINT('',#234);
#126=PRESENTATION_STYLE_ASSIGNMENT((#235));
#127=EDGE_CURVE('',#151,#119,#236,.T.);
#128=PRESENTATION_STYLE_ASSIGNMENT((#237));
#129=VERTEX_POINT('',#238);
#130=PRESENTATION_STYLE_ASSIGNMENT((#239));
#131=ADVANCED_FACE('',(#240),#241,.F.);
#132=PRESENTATION_STYLE_ASSIGNMENT((#242));
#133=ADVANCED_FACE('',(#243,#244),#245,.T.);
#134=PRESENTATION_STYLE_ASSIGNMENT((#246));
#135=ADVANCED_FACE('',(#247),#248,.F.);
#136=PRESENTATION_STYLE_ASSIGNMENT((#249));
#137=ADVANCED_FACE('',(#250),#251,.F.);
#138=PRESENTATION_STYLE_ASSIGNMENT((#252));
#139=EDGE_CURVE('',#145,#125,#253,.T.);
#140=PRESENTATION_STYLE_ASSIGNMENT((#254));
#141=VERTEX_POINT('',#255);
#142=PRESENTATION_STYLE_ASSIGNMENT((#256));
#143=EDGE_CURVE('',#125,#141,#257,.T.);
#144=PRESENTATION_STYLE_ASSIGNMENT((#258));
#145=VERTEX_POINT('',#259);
#146=PRESENTATION_STYLE_ASSIGNMENT((#260));
#147=VERTEX_POINT('',#261);
#148=PRESENTATION_STYLE_ASSIGNMENT((#262));
#149=VERTEX_POINT('',#263);
#150=PRESENTATION_STYLE_ASSIGNMENT((#264));
#151=VERTEX_POINT('',#265);
#152=PRODUCT('1','1','PART-1-DESC',(#266));
#153=PRODUCT_DEFINITION('NONE','NONE',#267,#2);
#154=AXIS2_PLACEMENT_3D('',#268,#269,#270);
#157=LENGTH_MEASURE_WITH_UNIT(LENGTH_MEASURE(1.0),#271);
#160=DIMENSIONAL_EXPONENTS(1.0,0.0,0.0,0.0,0.0,0.0,0.0);
#162=DIMENSIONAL_EXPONENTS(0.0,0.0,0.0,0.0,0.0,0.0,0.0);
#168=CURVE_STYLE('',#272,POSITIVE_LENGTH_MEASURE(1.0E-006),#273);
#169=CIRCLE('',#274,41.0000000000001);
#170=SURFACE_STYLE_USAGE(.BOTH.,#275);
#171=CLOSED_SHELL('',(#137,#79,#131,#109,#117,#99,#133,#93,#103,#135));
#172=POINT_STYLE(' ',#276,POSITIVE_LENGTH_MEASURE(1.0E-006),#277);
#173=CARTESIAN_POINT('',(-16.3,6.07863972606587E-015,11.2));
#174=CURVE_STYLE('',#278,POSITIVE_LENGTH_MEASURE(1.0E-006),#279);
#175=CIRCLE('',#280,15.5);
#176=CURVE_STYLE('',#281,POSITIVE_LENGTH_MEASURE(1.0E-006),#282);
#177=CIRCLE('',#283,28.0);
#178=CURVE_STYLE('',#284,POSITIVE_LENGTH_MEASURE(1.0E-006),#285);
#179=CIRCLE('',#286,15.5);
#180=SURFACE_STYLE_USAGE(.BOTH.,#287);
#181=FACE_OUTER_BOUND('',#288,.T.);
#182=CYLINDRICAL_SURFACE('',#289,28.0);
#183=POINT_STYLE(' ',#290,POSITIVE_LENGTH_MEASURE(1.0E-006),#291);
#184=CARTESIAN_POINT('',(28.0000000000001,1.61699563350188E-014,11.2));
#185=CURVE_STYLE('',#292,POSITIVE_LENGTH_MEASURE(1.0E-006),#293);
#186=CIRCLE('',#294,28.0);
#187=CURVE_STYLE('',#295,POSITIVE_LENGTH_MEASURE(1.0E-006),#296);
#188=LINE('',#297,#298);
#189=CURVE_STYLE('',#299,POSITIVE_LENGTH_MEASURE(1.0E-006),#300);
#190=CIRCLE('',#301,16.3);
#191=CURVE_STYLE('',#302,POSITIVE_LENGTH_MEASURE(1.0E-006),#303);
#192=LINE('',#304,#305);
#193=CURVE_STYLE('',#306,POSITIVE_LENGTH_MEASURE(1.0E-006),#307);
#194=CIRCLE('',#308,15.5);
#195=SURFACE_STYLE_USAGE(.BOTH.,#309);
#196=FACE_OUTER_BOUND('',#310,.T.);
#197=CYLINDRICAL_SURFACE('',#311,28.0);
#198=CURVE_STYLE('',#312,POSITIVE_LENGTH_MEASURE(1.0E-006),#313);
#199=CIRCLE('',#314,16.3);
#200=CURVE_STYLE('',#315,POSITIVE_LENGTH_MEASURE(1.0E-006),#316);
#201=CIRCLE('',#317,16.4620969014004);
#202=SURFACE_STYLE_USAGE(.BOTH.,#318);
#203=FACE_OUTER_BOUND('',#319,.T.);
#204=CONICAL_SURFACE('',#320,15.9,0.785398163397448);
#205=CURVE_STYLE('',#321,POSITIVE_LENGTH_MEASURE(1.0E-006),#322);
#206=LINE('',#323,#324);
#207=SURFACE_STYLE_USAGE(.BOTH.,#325);
#208=FACE_OUTER_BOUND('',#326,.T.);
#209=FACE_BOUND('',#327,.T.);
#210=PLANE('',#328);
#211=CURVE_STYLE('',#329,POSITIVE_LENGTH_MEASURE(1.0E-006),#330);
#212=CIRCLE('',#331,28.0);
#213=CURVE_STYLE('',#332,POSITIVE_LENGTH_MEASURE(1.0E-006),#333);
#214=CIRCLE('',#334,15.5);
#215=SURFACE_STYLE_USAGE(.BOTH.,#335);
#216=FACE_OUTER_BOUND('',#336,.T.);
#217=SPHERICAL_SURFACE('',#337,41.0000000000001);
#218=POINT_STYLE(' ',#338,POSITIVE_LENGTH_MEASURE(1.0E-006),#339);
#219=CARTESIAN_POINT('',(-28.0,4.64585029209369E-015,11.2));
#220=CURVE_STYLE('',#340,POSITIVE_LENGTH_MEASURE(1.0E-006),#341);
#221=LINE('',#342,#343);
#222=CURVE_STYLE('',#344,POSITIVE_LENGTH_MEASURE(1.0E-006),#345);
#223=CIRCLE('',#346,41.0000000000001);
#224=SURFACE_STYLE_USAGE(.BOTH.,#347);
#225=FACE_OUTER_BOUND('',#348,.T.);
#226=SPHERICAL_SURFACE('',#349,41.0000000000001);
#227=POINT_STYLE(' ',#350,POSITIVE_LENGTH_MEASURE(1.0E-006),#351);
#228=CARTESIAN_POINT('',(-28.0,4.42542114840566E-015,7.59999999999994));
#229=CURVE_STYLE('',#352,POSITIVE_LENGTH_MEASURE(1.0E-006),#353);
#230=CIRCLE('',#354,16.4620969014004);
#231=POINT_STYLE(' ',#355,POSITIVE_LENGTH_MEASURE(1.0E-006),#356);
#232=CARTESIAN_POINT('',(-15.5,6.12762398021876E-015,10.3999999999999));
#233=POINT_STYLE(' ',#357,POSITIVE_LENGTH_MEASURE(1.0E-006),#358);
#234=CARTESIAN_POINT('',(15.5000000000001,1.25560240795624E-014,10.3999999999999));
#235=CURVE_STYLE('',#359,POSITIVE_LENGTH_MEASURE(1.0E-006),#360);
#236=CIRCLE('',#361,28.0);
#237=POINT_STYLE(' ',#362,POSITIVE_LENGTH_MEASURE(1.0E-006),#363);
#238=CARTESIAN_POINT('',(-16.4620969014002,5.37300967838637E-015,-2.8421709430404E-014));
#239=SURFACE_STYLE_USAGE(.BOTH.,#364);
#240=FACE_OUTER_BOUND('',#365,.T.);
#241=CONICAL_SURFACE('',#366,15.9,0.785398163397448);
#242=SURFACE_STYLE_USAGE(.BOTH.,#367);
#243=FACE_OUTER_BOUND('',#368,.T.);
#244=FACE_BOUND('',#369,.T.);
#245=PLANE('',#370);
#246=SURFACE_STYLE_USAGE(.BOTH.,#371);
#247=FACE_OUTER_BOUND('',#372,.T.);
#248=CYLINDRICAL_SURFACE('',#373,15.5);
#249=SURFACE_STYLE_USAGE(.BOTH.,#374);
#250=FACE_OUTER_BOUND('',#375,.T.);
#251=CYLINDRICAL_SURFACE('',#376,15.5);
#252=CURVE_STYLE('',#377,POSITIVE_LENGTH_MEASURE(1.0E-006),#378);
#253=LINE('',#379,#380);
#254=POINT_STYLE(' ',#381,POSITIVE_LENGTH_MEASURE(1.0E-006),#382);
#255=CARTESIAN_POINT('',(16.3000000000001,1.27873157439116E-014,11.2));
#256=CURVE_STYLE('',#383,POSITIVE_LENGTH_MEASURE(1.0E-006),#384);
#257=LINE('',#385,#386);
#258=POINT_STYLE(' ',#387,POSITIVE_LENGTH_MEASURE(1.0E-006),#388);
#259=CARTESIAN_POINT('',(15.5000000000001,1.25560240795623E-014,-2.8421709430404E-014));
#260=POINT_STYLE(' ',#389,POSITIVE_LENGTH_MEASURE(1.0E-006),#390);
#261=CARTESIAN_POINT('',(16.4620969014003,1.3720082090972E-014,-2.8421709430404E-014));
#262=POINT_STYLE(' ',#391,POSITIVE_LENGTH_MEASURE(1.0E-006),#392);
#263=CARTESIAN_POINT('',(-15.5,5.49082867623113E-015,-2.8421709430404E-014));
#264=POINT_STYLE(' ',#393,POSITIVE_LENGTH_MEASURE(1.0E-006),#394);
#265=CARTESIAN_POINT('',(28.0000000000001,1.65459599798384E-014,7.59999999999988));
#266=PRODUCT_CONTEXT('',#53,'mechanical');
#267=PRODUCT_DEFINITION_FORMATION_WITH_SPECIFIED_SOURCE(' ','NONE',#152,.NOT_KNOWN.);
#268=CARTESIAN_POINT('',(0.0,0.0,0.0));
#269=DIRECTION('',(0.0,0.0,1.0));
#270=DIRECTION('',(1.0,0.0,0.0));
#271= (NAMED_UNIT(#160)LENGTH_UNIT()SI_UNIT(.MILLI.,.METRE.));
#272=DRAUGHTING_PRE_DEFINED_CURVE_FONT('continuous');
#273=COLOUR_RGB('',0.509803950786591,0.509803950786591,0.588235318660736);
#274=AXIS2_PLACEMENT_3D('',#396,#397,#398);
#275=SURFACE_SIDE_STYLE('',(#399));
#276=PRE_DEFINED_MARKER('');
#277=COLOUR_RGB('',0.509803950786591,0.509803950786591,0.588235318660736);
#278=DRAUGHTING_PRE_DEFINED_CURVE_FONT('continuous');
#279=COLOUR_RGB('',0.509803950786591,0.509803950786591,0.588235318660736);
#280=AXIS2_PLACEMENT_3D('',#400,#401,#402);
#281=DRAUGHTING_PRE_DEFINED_CURVE_FONT('continuous');
#282=COLOUR_RGB('',0.509803950786591,0.509803950786591,0.588235318660736);
#283=AXIS2_PLACEMENT_3D('',#403,#404,#405);
#284=DRAUGHTING_PRE_DEFINED_CURVE_FONT('continuous');
#285=COLOUR_RGB('',0.509803950786591,0.509803950786591,0.588235318660736);
#286=AXIS2_PLACEMENT_3D('',#406,#407,#408);
#287=SURFACE_SIDE_STYLE('',(#409));
#288=EDGE_LOOP('',(#410,#411,#412,#413));
#289=AXIS2_PLACEMENT_3D('',#414,#415,#416);
#290=PRE_DEFINED_MARKER('');
#291=COLOUR_RGB('',0.509803950786591,0.509803950786591,0.588235318660736);
#292=DRAUGHTING_PRE_DEFINED_CURVE_FONT('continuous');
#293=COLOUR_RGB('',0.509803950786591,0.509803950786591,0.588235318660736);
#294=AXIS2_PLACEMENT_3D('',#417,#418,#419);
#295=DRAUGHTING_PRE_DEFINED_CURVE_FONT('continuous');
#296=COLOUR_RGB('',0.509803950786591,0.509803950786591,0.588235318660736);
#297=CARTESIAN_POINT('',(-28.0,-2.0460169426104E-017,9.39999999999992));
#298=VECTOR('',#420,1.0);
#299=DRAUGHTING_PRE_DEFINED_CURVE_FONT('continuous');
#300=COLOUR_RGB('',0.509803950786591,0.509803950786591,0.588235318660736);
#301=AXIS2_PLACEMENT_3D('',#421,#422,#423);
#302=DRAUGHTING_PRE_DEFINED_CURVE_FONT('continuous');
#303=COLOUR_RGB('',0.509803950786591,0.509803950786591,0.588235318660736);
#304=CARTESIAN_POINT('',(28.0000000000001,1.61699563350188E-014,9.39999999999992));
#305=VECTOR('',#424,1.0);
#306=DRAUGHTING_PRE_DEFINED_CURVE_FONT('continuous');
#307=COLOUR_RGB('',0.509803950786591,0.509803950786591,0.588235318660736);
#308=AXIS2_PLACEMENT_3D('',#425,#426,#427);
#309=SURFACE_SIDE_STYLE('',(#428));
#310=EDGE_LOOP('',(#429,#430,#431,#432));
#311=AXIS2_PLACEMENT_3D('',#433,#434,#435);
#312=DRAUGHTING_PRE_DEFINED_CURVE_FONT('continuous');
#313=COLOUR_RGB('',0.509803950786591,0.509803950786591,0.588235318660736);
#314=AXIS2_PLACEMENT_3D('',#436,#437,#438);
#315=DRAUGHTING_PRE_DEFINED_CURVE_FONT('continuous');
#316=COLOUR_RGB('',0.509803950786591,0.509803950786591,0.588235318660736);
#317=AXIS2_PLACEMENT_3D('',#439,#440,#441);
#318=SURFACE_SIDE_STYLE('',(#442));
#319=EDGE_LOOP('',(#443,#444,#445,#446));
#320=AXIS2_PLACEMENT_3D('',#447,#448,#449);
#321=DRAUGHTING_PRE_DEFINED_CURVE_FONT('continuous');
#322=COLOUR_RGB('',0.509803950786591,0.509803950786591,0.588235318660736);
#323=CARTESIAN_POINT('',(-15.5,3.59347208603034E-015,5.19999999999996));
#324=VECTOR('',#450,1.0);
#325=SURFACE_SIDE_STYLE('',(#451));
#326=EDGE_LOOP('',(#452,#453));
#327=EDGE_LOOP('',(#454,#455));
#328=AXIS2_PLACEMENT_3D('',#456,#457,#458);
#329=DRAUGHTING_PRE_DEFINED_CURVE_FONT('continuous');
#330=COLOUR_RGB('',0.509803950786591,0.509803950786591,0.588235318660736);
#331=AXIS2_PLACEMENT_3D('',#459,#460,#461);
#332=DRAUGHTING_PRE_DEFINED_CURVE_FONT('continuous');
#333=COLOUR_RGB('',0.509803950786591,0.509803950786591,0.588235318660736);
#334=AXIS2_PLACEMENT_3D('',#462,#463,#464);
#335=SURFACE_SIDE_STYLE('',(#465));
#336=EDGE_LOOP('',(#466,#467,#468,#469));
#337=AXIS2_PLACEMENT_3D('',#470,#471,#472);
#338=PRE_DEFINED_MARKER('');
#339=COLOUR_RGB('',0.509803950786591,0.509803950786591,0.588235318660736);
#340=DRAUGHTING_PRE_DEFINED_CURVE_FONT('continuous');
#341=COLOUR_RGB('',0.509803950786591,0.509803950786591,0.588235318660736);
#342=CARTESIAN_POINT('',(-15.9,3.47782625385574E-015,10.8));
#343=VECTOR('',#473,1.0);
#344=DRAUGHTING_PRE_DEFINED_CURVE_FONT('continuous');
#345=COLOUR_RGB('',0.509803950786591,0.509803950786591,0.588235318660736);
#346=AXIS2_PLACEMENT_3D('',#474,#475,#476);
#347=SURFACE_SIDE_STYLE('',(#477));
#348=EDGE_LOOP('',(#478,#479,#480,#481));
#349=AXIS2_PLACEMENT_3D('',#482,#483,#484);
#350=PRE_DEFINED_MARKER('');
#351=COLOUR_RGB('',0.509803950786591,0.509803950786591,0.588235318660736);
#352=DRAUGHTING_PRE_DEFINED_CURVE_FONT('continuous');
#353=COLOUR_RGB('',0.509803950786591,0.509803950786591,0.588235318660736);
#354=AXIS2_PLACEMENT_3D('',#485,#486,#487);
#355=PRE_DEFINED_MARKER('');
#356=COLOUR_RGB('',0.509803950786591,0.509803950786591,0.588235318660736);
#357=PRE_DEFINED_MARKER('');
#358=COLOUR_RGB('',0.509803950786591,0.509803950786591,0.588235318660736);
#359=DRAUGHTING_PRE_DEFINED_CURVE_FONT('continuous');
#360=COLOUR_RGB('',0.509803950786591,0.509803950786591,0.588235318660736);
#361=AXIS2_PLACEMENT_3D('',#488,#489,#490);
#362=PRE_DEFINED_MARKER('');
#363=COLOUR_RGB('',0.509803950786591,0.509803950786591,0.588235318660736);
#364=SURFACE_SIDE_STYLE('',(#491));
#365=EDGE_LOOP('',(#492,#493,#494,#495));
#366=AXIS2_PLACEMENT_3D('',#496,#497,#498);
#367=SURFACE_SIDE_STYLE('',(#499));
#368=EDGE_LOOP('',(#500,#501));
#369=EDGE_LOOP('',(#502,#503));
#370=AXIS2_PLACEMENT_3D('',#504,#505,#506);
#371=SURFACE_SIDE_STYLE('',(#507));
#372=EDGE_LOOP('',(#508,#509,#510,#511));
#373=AXIS2_PLACEMENT_3D('',#512,#513,#514);
#374=SURFACE_SIDE_STYLE('',(#515));
#375=EDGE_LOOP('',(#516,#517,#518,#519));
#376=AXIS2_PLACEMENT_3D('',#520,#521,#522);
#377=DRAUGHTING_PRE_DEFINED_CURVE_FONT('continuous');
#378=COLOUR_RGB('',0.509803950786591,0.509803950786591,0.588235318660736);
#379=CARTESIAN_POINT('',(15.5000000000001,1.25560240795623E-014,5.19999999999996));
#380=VECTOR('',#523,1.0);
#381=PRE_DEFINED_MARKER('');
#382=COLOUR_RGB('',0.509803950786591,0.509803950786591,0.588235318660736);
#383=DRAUGHTING_PRE_DEFINED_CURVE_FONT('continuous');
#384=COLOUR_RGB('',0.509803950786591,0.509803950786591,0.588235318660736);
#385=CARTESIAN_POINT('',(15.9000000000001,1.2671669911737E-014,10.8));
#386=VECTOR('',#524,1.0);
#387=PRE_DEFINED_MARKER('');
#388=COLOUR_RGB('',0.509803950786591,0.509803950786591,0.588235318660736);
#389=PRE_DEFINED_MARKER('');
#390=COLOUR_RGB('',0.509803950786591,0.509803950786591,0.588235318660736);
#391=PRE_DEFINED_MARKER('');
#392=COLOUR_RGB('',0.509803950786591,0.509803950786591,0.588235318660736);
#393=PRE_DEFINED_MARKER('');
#394=COLOUR_RGB('',0.509803950786591,0.509803950786591,0.588235318660736);
#396=CARTESIAN_POINT('',(-4.2632564145606E-014,9.6881643984331E-015,37.5499582637439));
#397=DIRECTION('',(2.44921270764475E-016,-1.0,0.0));
#398=DIRECTION('',(-0.0,0.0,1.0));
#399=SURFACE_STYLE_FILL_AREA(#525);
#400=CARTESIAN_POINT('',(2.8421709430404E-014,8.07474808279635E-015,-2.8421709430404E-014));
#401=DIRECTION('',(-0.0,0.0,-1.0));
#402=DIRECTION('',(-1.0,-1.66653945054278E-016,0.0));
#403=CARTESIAN_POINT('',(2.8421709430404E-014,8.07474808279635E-015,11.2));
#404=DIRECTION('',(-0.0,0.0,-1.0));
#405=DIRECTION('',(-1.0,-1.66653945054278E-016,0.0));
#406=CARTESIAN_POINT('',(2.8421709430404E-014,8.07474808279635E-015,10.3999999999999));
#407=DIRECTION('',(-0.0,0.0,-1.0));
#408=DIRECTION('',(-1.0,-1.66653945054278E-016,0.0));
#409=SURFACE_STYLE_FILL_AREA(#526);
#410=ORIENTED_EDGE('',*,*,#85,.F.);
#411=ORIENTED_EDGE('',*,*,#75,.T.);
#412=ORIENTED_EDGE('',*,*,#89,.F.);
#413=ORIENTED_EDGE('',*,*,#127,.T.);
#414=CARTESIAN_POINT('',(2.8421709430404E-014,8.07474808279635E-015,5.59999999999997));
#415=DIRECTION('',(0.0,-0.0,1.0));
#416=DIRECTION('',(-1.0,-1.66653945054278E-016,0.0));
#417=CARTESIAN_POINT('',(2.8421709430404E-014,8.07474808279635E-015,11.2));
#418=DIRECTION('',(-0.0,0.0,-1.0));
#419=DIRECTION('',(-1.0,-1.66653945054278E-016,0.0));
#420=DIRECTION('',(0.0,0.0,-1.0));
#421=CARTESIAN_POINT('',(2.8421709430404E-014,8.07474808279635E-015,11.2));
#422=DIRECTION('',(-0.0,0.0,-1.0));
#423=DIRECTION('',(-1.0,-1.66653945054278E-016,0.0));
#424=DIRECTION('',(-0.0,-0.0,1.0));
#425=CARTESIAN_POINT('',(2.8421709430404E-014,8.07474808279635E-015,10.3999999999999));
#426=DIRECTION('',(-0.0,0.0,-1.0));
#427=DIRECTION('',(-1.0,-1.66653945054278E-016,0.0));
#428=SURFACE_STYLE_FILL_AREA(#527);
#429=ORIENTED_EDGE('',*,*,#85,.T.);
#430=ORIENTED_EDGE('',*,*,#105,.T.);
#431=ORIENTED_EDGE('',*,*,#89,.T.);
#432=ORIENTED_EDGE('',*,*,#83,.T.);
#433=CARTESIAN_POINT('',(2.8421709430404E-014,8.07474808279635E-015,5.59999999999997));
#434=DIRECTION('',(0.0,-0.0,1.0));
#435=DIRECTION('',(-1.0,-1.66653945054278E-016,0.0));
#436=CARTESIAN_POINT('',(2.8421709430404E-014,8.07474808279635E-015,11.2));
#437=DIRECTION('',(-0.0,0.0,-1.0));
#438=DIRECTION('',(-1.0,-1.66653945054278E-016,0.0));
#439=CARTESIAN_POINT('',(-4.2632564145606E-014,9.6881643984331E-015,-2.8421709430404E-014));
#440=DIRECTION('',(0.0,0.0,-1.0));
#441=DIRECTION('',(0.0,-1.0,0.0));
#442=SURFACE_STYLE_FILL_AREA(#528);
#443=ORIENTED_EDGE('',*,*,#113,.T.);
#444=ORIENTED_EDGE('',*,*,#91,.T.);
#445=ORIENTED_EDGE('',*,*,#143,.T.);
#446=ORIENTED_EDGE('',*,*,#87,.F.);
#447=CARTESIAN_POINT('',(2.8421709430404E-014,8.07474808279635E-015,10.8));
#448=DIRECTION('',(0.0,-0.0,1.0));
#449=DIRECTION('',(-1.0,-1.66653945054278E-016,0.0));
#450=DIRECTION('',(0.0,0.0,-1.0));
#451=SURFACE_STYLE_FILL_AREA(#529);
#452=ORIENTED_EDGE('',*,*,#121,.T.);
#453=ORIENTED_EDGE('',*,*,#97,.T.);
#454=ORIENTED_EDGE('',*,*,#73,.F.);
#455=ORIENTED_EDGE('',*,*,#107,.F.);
#456=CARTESIAN_POINT('',(-21.75,4.72544970509214E-015,-2.8421709430404E-014));
#457=DIRECTION('',(0.0,0.0,-1.0));
#458=DIRECTION('',(1.0,1.22460635382238E-016,0.0));
#459=CARTESIAN_POINT('',(2.8421709430404E-014,8.07474808279635E-015,7.59999999999988));
#460=DIRECTION('',(0.0,0.0,1.0));
#461=DIRECTION('',(-1.0,-1.66653945054278E-016,0.0));
#462=CARTESIAN_POINT('',(2.8421709430404E-014,8.07474808279635E-015,-2.8421709430404E-014));
#463=DIRECTION('',(-0.0,0.0,-1.0));
#464=DIRECTION('',(-1.0,-1.66653945054278E-016,0.0));
#465=SURFACE_STYLE_FILL_AREA(#530);
#466=ORIENTED_EDGE('',*,*,#67,.F.);
#467=ORIENTED_EDGE('',*,*,#121,.F.);
#468=ORIENTED_EDGE('',*,*,#115,.F.);
#469=ORIENTED_EDGE('',*,*,#127,.F.);
#470=CARTESIAN_POINT('',(-4.2632564145606E-014,9.6881643984331E-015,37.5499582637439));
#471=DIRECTION('',(0.0,0.0,-1.0));
#472=DIRECTION('',(1.0,1.22460635382238E-016,0.0));
#473=DIRECTION('',(0.707106781186548,2.04434880366564E-016,-0.707106781186547));
#474=CARTESIAN_POINT('',(-4.2632564145606E-014,9.6881643984331E-015,37.5499582637439));
#475=DIRECTION('',(2.44921270764475E-016,-1.0,0.0));
#476=DIRECTION('',(-0.0,0.0,1.0));
#477=SURFACE_STYLE_FILL_AREA(#531);
#478=ORIENTED_EDGE('',*,*,#67,.T.);
#479=ORIENTED_EDGE('',*,*,#105,.F.);
#480=ORIENTED_EDGE('',*,*,#115,.T.);
#481=ORIENTED_EDGE('',*,*,#97,.F.);
#482=CARTESIAN_POINT('',(-4.2632564145606E-014,9.6881643984331E-015,37.5499582637439));
#483=DIRECTION('',(0.0,0.0,-1.0));
#484=DIRECTION('',(1.0,1.22460635382238E-016,0.0));
#485=CARTESIAN_POINT('',(-4.2632564145606E-014,9.6881643984331E-015,-2.8421709430404E-014));
#486=DIRECTION('',(0.0,0.0,-1.0));
#487=DIRECTION('',(0.0,-1.0,0.0));
#488=CARTESIAN_POINT('',(2.8421709430404E-014,8.07474808279635E-015,7.59999999999988));
#489=DIRECTION('',(0.0,0.0,1.0));
#490=DIRECTION('',(-1.0,-1.66653945054278E-016,0.0));
#491=SURFACE_STYLE_FILL_AREA(#532);
#492=ORIENTED_EDGE('',*,*,#113,.F.);
#493=ORIENTED_EDGE('',*,*,#95,.F.);
#494=ORIENTED_EDGE('',*,*,#143,.F.);
#495=ORIENTED_EDGE('',*,*,#77,.T.);
#496=CARTESIAN_POINT('',(2.8421709430404E-014,8.07474808279635E-015,10.8));
#497=DIRECTION('',(0.0,-0.0,1.0));
#498=DIRECTION('',(-1.0,-1.66653945054278E-016,0.0));
#499=SURFACE_STYLE_FILL_AREA(#533);
#500=ORIENTED_EDGE('',*,*,#75,.F.);
#501=ORIENTED_EDGE('',*,*,#83,.F.);
#502=ORIENTED_EDGE('',*,*,#87,.T.);
#503=ORIENTED_EDGE('',*,*,#95,.T.);
#504=CARTESIAN_POINT('',(-22.15,5.36224500907978E-015,11.2));
#505=DIRECTION('',(0.0,0.0,1.0));
#506=DIRECTION('',(-1.0,-1.22460635382238E-016,0.0));
#507=SURFACE_STYLE_FILL_AREA(#534);
#508=ORIENTED_EDGE('',*,*,#101,.T.);
#509=ORIENTED_EDGE('',*,*,#73,.T.);
#510=ORIENTED_EDGE('',*,*,#139,.T.);
#511=ORIENTED_EDGE('',*,*,#91,.F.);
#512=CARTESIAN_POINT('',(2.8421709430404E-014,8.07474808279635E-015,5.19999999999996));
#513=DIRECTION('',(0.0,-0.0,1.0));
#514=DIRECTION('',(-1.0,-1.66653945054278E-016,0.0));
#515=SURFACE_STYLE_FILL_AREA(#535);
#516=ORIENTED_EDGE('',*,*,#101,.F.);
#517=ORIENTED_EDGE('',*,*,#77,.F.);
#518=ORIENTED_EDGE('',*,*,#139,.F.);
#519=ORIENTED_EDGE('',*,*,#107,.T.);
#520=CARTESIAN_POINT('',(2.8421709430404E-014,8.07474808279635E-015,5.19999999999996));
#521=DIRECTION('',(0.0,-0.0,1.0));
#522=DIRECTION('',(-1.0,-1.66653945054278E-016,0.0));
#523=DIRECTION('',(0.0,0.0,1.0));
#524=DIRECTION('',(0.707106781186548,2.04434880366564E-016,0.707106781186547));
#525=FILL_AREA_STYLE('',(#536));
#526=FILL_AREA_STYLE('',(#537));
#527=FILL_AREA_STYLE('',(#538));
#528=FILL_AREA_STYLE('',(#539));
#529=FILL_AREA_STYLE('',(#540));
#530=FILL_AREA_STYLE('',(#541));
#531=FILL_AREA_STYLE('',(#542));
#532=FILL_AREA_STYLE('',(#543));
#533=FILL_AREA_STYLE('',(#544));
#534=FILL_AREA_STYLE('',(#545));
#535=FILL_AREA_STYLE('',(#546));
#536=FILL_AREA_STYLE_COLOUR('',#547);
#537=FILL_AREA_STYLE_COLOUR('',#548);
#538=FILL_AREA_STYLE_COLOUR('',#549);
#539=FILL_AREA_STYLE_COLOUR('',#550);
#540=FILL_AREA_STYLE_COLOUR('',#551);
#541=FILL_AREA_STYLE_COLOUR('',#552);
#542=FILL_AREA_STYLE_COLOUR('',#553);
#543=FILL_AREA_STYLE_COLOUR('',#554);
#544=FILL_AREA_STYLE_COLOUR('',#555);
#545=FILL_AREA_STYLE_COLOUR('',#556);
#546=FILL_AREA_STYLE_COLOUR('',#557);
#547=COLOUR_RGB('',0.509803950786591,0.509803950786591,0.588235318660736);
#548=COLOUR_RGB('',0.509803950786591,0.509803950786591,0.588235318660736);
#549=COLOUR_RGB('',0.509803950786591,0.509803950786591,0.588235318660736);
#550=COLOUR_RGB('',0.509803950786591,0.509803950786591,0.588235318660736);
#551=COLOUR_RGB('',0.509803950786591,0.509803950786591,0.588235318660736);
#552=COLOUR_RGB('',0.509803950786591,0.509803950786591,0.588235318660736);
#553=COLOUR_RGB('',0.509803950786591,0.509803950786591,0.588235318660736);
#554=COLOUR_RGB('',0.509803950786591,0.509803950786591,0.588235318660736);
#555=COLOUR_RGB('',0.509803950786591,0.509803950786591,0.588235318660736);
#556=COLOUR_RGB('',0.509803950786591,0.509803950786591,0.588235318660736);
#557=COLOUR_RGB('',0.509803950786591,0.509803950786591,0.588235318660736);
ENDSEC;
END-ISO-10303-21;
