ISO-10303-21;
HEADER;
FILE_DESCRIPTION(('STEP AP214'),'1');
FILE_NAME(' ','  ',('TraceParts'),('TraceParts S.A.'),'XStep 1.0',' ',' ');
FILE_SCHEMA(('automotive_design'));
ENDSEC;
DATA;
#1=MECHANICAL_DESIGN_GEOMETRIC_PRESENTATION_REPRESENTATION(' ',(#10,#11,#12,#13,#14,#15,#16,#17,#18,#19,#20,#21,#22,#23,#24,#25,#26,#27,#28,#29,#30,#31,#32,#33,#34,#35,#36,#37,#38,#39,#40,#41,#42,#43,#44,#45,#46,#47,#48,#49,#50,#51,#52),#6);
#2=PRODUCT_DEFINITION_CONTEXT('',#53,'design');
#3=APPLICATION_PROTOCOL_DEFINITION('INTERNATIONAL STANDARD','automotive_design',1994,#53);
#4=PRODUCT_CATEGORY_RELATIONSHIP('NONE','NONE',#54,#55);
#5=SHAPE_DEFINITION_REPRESENTATION(#56,#57);
#6= (GEOMETRIC_REPRESENTATION_CONTEXT(3)GLOBAL_UNCERTAINTY_ASSIGNED_CONTEXT((#60))GLOBAL_UNIT_ASSIGNED_CONTEXT((#62,#63,#64))REPRESENTATION_CONTEXT('NONE','WORKSPACE'));
#10=STYLED_ITEM('',(#66),#67);
#11=STYLED_ITEM('',(#68),#69);
#12=STYLED_ITEM('',(#70),#71);
#13=STYLED_ITEM('',(#72),#73);
#14=STYLED_ITEM('',(#74),#75);
#15=STYLED_ITEM('',(#76),#77);
#16=STYLED_ITEM('',(#78),#79);
#17=STYLED_ITEM('',(#80),#81);
#18=STYLED_ITEM('',(#82),#83);
#19=STYLED_ITEM('',(#84),#85);
#20=STYLED_ITEM('',(#86),#87);
#21=STYLED_ITEM('',(#88),#89);
#22=STYLED_ITEM('',(#90),#91);
#23=STYLED_ITEM('',(#92),#93);
#24=STYLED_ITEM('',(#94),#95);
#25=STYLED_ITEM('',(#96),#97);
#26=STYLED_ITEM('',(#98),#99);
#27=STYLED_ITEM('',(#100),#101);
#28=STYLED_ITEM('',(#102),#103);
#29=STYLED_ITEM('',(#104),#105);
#30=STYLED_ITEM('',(#106),#107);
#31=STYLED_ITEM('',(#108),#109);
#32=STYLED_ITEM('',(#110),#111);
#33=STYLED_ITEM('',(#112),#113);
#34=STYLED_ITEM('',(#114),#115);
#35=STYLED_ITEM('',(#116),#117);
#36=STYLED_ITEM('',(#118),#119);
#37=STYLED_ITEM('',(#120),#121);
#38=STYLED_ITEM('',(#122),#123);
#39=STYLED_ITEM('',(#124),#125);
#40=STYLED_ITEM('',(#126),#127);
#41=STYLED_ITEM('',(#128),#129);
#42=STYLED_ITEM('',(#130),#131);
#43=STYLED_ITEM('',(#132),#133);
#44=STYLED_ITEM('',(#134),#135);
#45=STYLED_ITEM('',(#136),#137);
#46=STYLED_ITEM('',(#138),#139);
#47=STYLED_ITEM('',(#140),#141);
#48=STYLED_ITEM('',(#142),#143);
#49=STYLED_ITEM('',(#144),#145);
#50=STYLED_ITEM('',(#146),#147);
#51=STYLED_ITEM('',(#148),#149);
#52=STYLED_ITEM('',(#150),#151);
#53=APPLICATION_CONTEXT(' ');
#54=PRODUCT_CATEGORY('part','NONE');
#55=PRODUCT_RELATED_PRODUCT_CATEGORY('detail',' ',(#152));
#56=PRODUCT_DEFINITION_SHAPE('NONE','NONE',#153);
#57=ADVANCED_BREP_SHAPE_REPRESENTATION('1',(#103,#154),#6);
#60=UNCERTAINTY_MEASURE_WITH_UNIT(LENGTH_MEASURE(1.0E-006),#62,'','');
#62= (CONVERSION_BASED_UNIT('MILLIMETRE',#157)LENGTH_UNIT()NAMED_UNIT(#160));
#63= (NAMED_UNIT(#162)PLANE_ANGLE_UNIT()SI_UNIT($,.RADIAN.));
#64= (NAMED_UNIT(#162)SOLID_ANGLE_UNIT()SI_UNIT($,.STERADIAN.));
#66=PRESENTATION_STYLE_ASSIGNMENT((#168));
#67=VERTEX_POINT('',#169);
#68=PRESENTATION_STYLE_ASSIGNMENT((#170));
#69=EDGE_CURVE('',#105,#67,#171,.T.);
#70=PRESENTATION_STYLE_ASSIGNMENT((#172));
#71=EDGE_CURVE('',#85,#123,#173,.T.);
#72=PRESENTATION_STYLE_ASSIGNMENT((#174));
#73=VERTEX_POINT('',#175);
#74=PRESENTATION_STYLE_ASSIGNMENT((#176));
#75=ADVANCED_FACE('',(#177),#178,.F.);
#76=PRESENTATION_STYLE_ASSIGNMENT((#179));
#77=ADVANCED_FACE('',(#180,#181),#182,.T.);
#78=PRESENTATION_STYLE_ASSIGNMENT((#183));
#79=ADVANCED_FACE('',(#184),#185,.T.);
#80=PRESENTATION_STYLE_ASSIGNMENT((#186));
#81=EDGE_CURVE('',#89,#139,#187,.T.);
#82=PRESENTATION_STYLE_ASSIGNMENT((#188));
#83=EDGE_CURVE('',#143,#73,#189,.T.);
#84=PRESENTATION_STYLE_ASSIGNMENT((#190));
#85=VERTEX_POINT('',#191);
#86=PRESENTATION_STYLE_ASSIGNMENT((#192));
#87=EDGE_CURVE('',#89,#67,#193,.T.);
#88=PRESENTATION_STYLE_ASSIGNMENT((#194));
#89=VERTEX_POINT('',#195);
#90=PRESENTATION_STYLE_ASSIGNMENT((#196));
#91=ADVANCED_FACE('',(#197),#198,.T.);
#92=PRESENTATION_STYLE_ASSIGNMENT((#199));
#93=ADVANCED_FACE('',(#200,#201),#202,.T.);
#94=PRESENTATION_STYLE_ASSIGNMENT((#203));
#95=EDGE_CURVE('',#147,#127,#204,.T.);
#96=PRESENTATION_STYLE_ASSIGNMENT((#205));
#97=EDGE_CURVE('',#123,#115,#206,.T.);
#98=PRESENTATION_STYLE_ASSIGNMENT((#207));
#99=EDGE_CURVE('',#123,#85,#208,.T.);
#100=PRESENTATION_STYLE_ASSIGNMENT((#209));
#101=EDGE_CURVE('',#145,#115,#210,.T.);
#102=PRESENTATION_STYLE_ASSIGNMENT((#211));
#103=MANIFOLD_SOLID_BREP('1',#212);
#104=PRESENTATION_STYLE_ASSIGNMENT((#213));
#105=VERTEX_POINT('',#214);
#106=PRESENTATION_STYLE_ASSIGNMENT((#215));
#107=EDGE_CURVE('',#115,#127,#216,.T.);
#108=PRESENTATION_STYLE_ASSIGNMENT((#217));
#109=EDGE_CURVE('',#73,#143,#218,.T.);
#110=PRESENTATION_STYLE_ASSIGNMENT((#219));
#111=EDGE_CURVE('',#115,#145,#220,.T.);
#112=PRESENTATION_STYLE_ASSIGNMENT((#221));
#113=ADVANCED_FACE('',(#222),#223,.T.);
#114=PRESENTATION_STYLE_ASSIGNMENT((#224));
#115=VERTEX_POINT('',#225);
#116=PRESENTATION_STYLE_ASSIGNMENT((#226));
#117=ADVANCED_FACE('',(#227),#228,.T.);
#118=PRESENTATION_STYLE_ASSIGNMENT((#229));
#119=ADVANCED_FACE('',(#230),#231,.F.);
#120=PRESENTATION_STYLE_ASSIGNMENT((#232));
#121=EDGE_CURVE('',#127,#147,#233,.T.);
#122=PRESENTATION_STYLE_ASSIGNMENT((#234));
#123=VERTEX_POINT('',#235);
#124=PRESENTATION_STYLE_ASSIGNMENT((#236));
#125=EDGE_CURVE('',#145,#85,#237,.T.);
#126=PRESENTATION_STYLE_ASSIGNMENT((#238));
#127=VERTEX_POINT('',#239);
#128=PRESENTATION_STYLE_ASSIGNMENT((#240));
#129=EDGE_CURVE('',#143,#89,#241,.T.);
#130=PRESENTATION_STYLE_ASSIGNMENT((#242));
#131=EDGE_CURVE('',#67,#73,#243,.T.);
#132=PRESENTATION_STYLE_ASSIGNMENT((#244));
#133=EDGE_CURVE('',#67,#89,#245,.T.);
#134=PRESENTATION_STYLE_ASSIGNMENT((#246));
#135=EDGE_CURVE('',#147,#145,#247,.T.);
#136=PRESENTATION_STYLE_ASSIGNMENT((#248));
#137=ADVANCED_FACE('',(#249),#250,.F.);
#138=PRESENTATION_STYLE_ASSIGNMENT((#251));
#139=VERTEX_POINT('',#252);
#140=PRESENTATION_STYLE_ASSIGNMENT((#253));
#141=ADVANCED_FACE('',(#254),#255,.F.);
#142=PRESENTATION_STYLE_ASSIGNMENT((#256));
#143=VERTEX_POINT('',#257);
#144=PRESENTATION_STYLE_ASSIGNMENT((#258));
#145=VERTEX_POINT('',#259);
#146=PRESENTATION_STYLE_ASSIGNMENT((#260));
#147=VERTEX_POINT('',#261);
#148=PRESENTATION_STYLE_ASSIGNMENT((#262));
#149=EDGE_CURVE('',#105,#139,#263,.T.);
#150=PRESENTATION_STYLE_ASSIGNMENT((#264));
#151=EDGE_CURVE('',#139,#105,#265,.T.);
#152=PRODUCT('1','1','PART-1-DESC',(#266));
#153=PRODUCT_DEFINITION('NONE','NONE',#267,#2);
#154=AXIS2_PLACEMENT_3D('',#268,#269,#270);
#157=LENGTH_MEASURE_WITH_UNIT(LENGTH_MEASURE(1.0),#271);
#160=DIMENSIONAL_EXPONENTS(1.0,0.0,0.0,0.0,0.0,0.0,0.0);
#162=DIMENSIONAL_EXPONENTS(0.0,0.0,0.0,0.0,0.0,0.0,0.0);
#168=POINT_STYLE(' ',#272,POSITIVE_LENGTH_MEASURE(1.0E-006),#273);
#169=CARTESIAN_POINT('',(12.5000000000001,1.09030314417744E-014,7.39999999999995));
#170=CURVE_STYLE('',#274,POSITIVE_LENGTH_MEASURE(1.0E-006),#275);
#171=LINE('',#276,#277);
#172=CURVE_STYLE('',#278,POSITIVE_LENGTH_MEASURE(1.0E-006),#279);
#173=CIRCLE('',#280,22.0);
#174=POINT_STYLE(' ',#281,POSITIVE_LENGTH_MEASURE(1.0E-006),#282);
#175=CARTESIAN_POINT('',(13.3000000000001,1.11310664607358E-014,8.19999999999996));
#176=SURFACE_STYLE_USAGE(.BOTH.,#283);
#177=FACE_OUTER_BOUND('',#284,.T.);
#178=CYLINDRICAL_SURFACE('',#285,12.5);
#179=SURFACE_STYLE_USAGE(.BOTH.,#286);
#180=FACE_OUTER_BOUND('',#287,.T.);
#181=FACE_BOUND('',#288,.T.);
#182=PLANE('',#289);
#183=SURFACE_STYLE_USAGE(.BOTH.,#290);
#184=FACE_OUTER_BOUND('',#291,.T.);
#185=SPHERICAL_SURFACE('',#292,32.0000000000001);
#186=CURVE_STYLE('',#293,POSITIVE_LENGTH_MEASURE(1.0E-006),#294);
#187=LINE('',#295,#296);
#188=CURVE_STYLE('',#297,POSITIVE_LENGTH_MEASURE(1.0E-006),#298);
#189=CIRCLE('',#299,13.3);
#190=POINT_STYLE(' ',#300,POSITIVE_LENGTH_MEASURE(1.0E-006),#301);
#191=CARTESIAN_POINT('',(22.0000000000001,1.36109472919408E-014,8.19999999999996));
#192=CURVE_STYLE('',#302,POSITIVE_LENGTH_MEASURE(1.0E-006),#303);
#193=CIRCLE('',#304,12.5);
#194=POINT_STYLE(' ',#305,POSITIVE_LENGTH_MEASURE(1.0E-006),#306);
#195=CARTESIAN_POINT('',(-12.5,5.76024207407205E-015,7.39999999999995));
#196=SURFACE_STYLE_USAGE(.BOTH.,#307);
#197=FACE_OUTER_BOUND('',#308,.T.);
#198=CYLINDRICAL_SURFACE('',#309,22.0);
#199=SURFACE_STYLE_USAGE(.BOTH.,#310);
#200=FACE_OUTER_BOUND('',#311,.T.);
#201=FACE_BOUND('',#312,.T.);
#202=PLANE('',#313);
#203=CURVE_STYLE('',#314,POSITIVE_LENGTH_MEASURE(1.0E-006),#315);
#204=CIRCLE('',#316,13.4462024045442);
#205=CURVE_STYLE('',#317,POSITIVE_LENGTH_MEASURE(1.0E-006),#318);
#206=LINE('',#319,#320);
#207=CURVE_STYLE('',#321,POSITIVE_LENGTH_MEASURE(1.0E-006),#322);
#208=CIRCLE('',#323,22.0);
#209=CURVE_STYLE('',#324,POSITIVE_LENGTH_MEASURE(1.0E-006),#325);
#210=CIRCLE('',#326,22.0);
#211=SURFACE_STYLE_USAGE(.BOTH.,#327);
#212=CLOSED_SHELL('',(#75,#91,#137,#79,#117,#141,#93,#113,#77,#119));
#213=POINT_STYLE(' ',#328,POSITIVE_LENGTH_MEASURE(1.0E-006),#329);
#214=CARTESIAN_POINT('',(12.5000000000001,1.09030314417744E-014,-2.8421709430404E-014));
#215=CURVE_STYLE('',#330,POSITIVE_LENGTH_MEASURE(1.0E-006),#331);
#216=CIRCLE('',#332,32.0000000000001);
#217=CURVE_STYLE('',#333,POSITIVE_LENGTH_MEASURE(1.0E-006),#334);
#218=CIRCLE('',#335,13.3);
#219=CURVE_STYLE('',#336,POSITIVE_LENGTH_MEASURE(1.0E-006),#337);
#220=CIRCLE('',#338,22.0);
#221=SURFACE_STYLE_USAGE(.BOTH.,#339);
#222=FACE_OUTER_BOUND('',#340,.T.);
#223=CYLINDRICAL_SURFACE('',#341,22.0);
#224=POINT_STYLE(' ',#342,POSITIVE_LENGTH_MEASURE(1.0E-006),#343);
#225=CARTESIAN_POINT('',(-21.9999999999999,4.49889752963501E-015,5.79999999999997));
#226=SURFACE_STYLE_USAGE(.BOTH.,#344);
#227=FACE_OUTER_BOUND('',#345,.T.);
#228=SPHERICAL_SURFACE('',#346,32.0000000000001);
#229=SURFACE_STYLE_USAGE(.BOTH.,#347);
#230=FACE_OUTER_BOUND('',#348,.T.);
#231=CYLINDRICAL_SURFACE('',#349,12.5);
#232=CURVE_STYLE('',#350,POSITIVE_LENGTH_MEASURE(1.0E-006),#351);
#233=CIRCLE('',#352,13.4462024045442);
#234=POINT_STYLE(' ',#353,POSITIVE_LENGTH_MEASURE(1.0E-006),#354);
#235=CARTESIAN_POINT('',(-22.0,4.64585029209369E-015,8.19999999999996));
#236=CURVE_STYLE('',#355,POSITIVE_LENGTH_MEASURE(1.0E-006),#356);
#237=LINE('',#357,#358);
#238=POINT_STYLE(' ',#359,POSITIVE_LENGTH_MEASURE(1.0E-006),#360);
#239=CARTESIAN_POINT('',(-13.4462024045439,5.19126517549712E-015,-4.2632564145606E-014));
#240=CURVE_STYLE('',#361,POSITIVE_LENGTH_MEASURE(1.0E-006),#362);
#241=LINE('',#363,#364);
#242=CURVE_STYLE('',#365,POSITIVE_LENGTH_MEASURE(1.0E-006),#366);
#243=LINE('',#367,#368);
#244=CURVE_STYLE('',#369,POSITIVE_LENGTH_MEASURE(1.0E-006),#370);
#245=CIRCLE('',#371,12.5);
#246=CURVE_STYLE('',#372,POSITIVE_LENGTH_MEASURE(1.0E-006),#373);
#247=CIRCLE('',#374,32.0000000000001);
#248=SURFACE_STYLE_USAGE(.BOTH.,#375);
#249=FACE_OUTER_BOUND('',#376,.T.);
#250=CONICAL_SURFACE('',#377,12.9,0.785398163397448);
#251=POINT_STYLE(' ',#378,POSITIVE_LENGTH_MEASURE(1.0E-006),#379);
#252=CARTESIAN_POINT('',(-12.5,5.30713772315777E-015,-2.8421709430404E-014));
#253=SURFACE_STYLE_USAGE(.BOTH.,#380);
#254=FACE_OUTER_BOUND('',#381,.T.);
#255=CONICAL_SURFACE('',#382,12.9,0.785398163397448);
#256=POINT_STYLE(' ',#383,POSITIVE_LENGTH_MEASURE(1.0E-006),#384);
#257=CARTESIAN_POINT('',(-13.3,5.71125781991915E-015,8.19999999999996));
#258=POINT_STYLE(' ',#385,POSITIVE_LENGTH_MEASURE(1.0E-006),#386);
#259=CARTESIAN_POINT('',(22.0000000000001,1.40041634690668E-014,5.79999999999993));
#260=POINT_STYLE(' ',#387,POSITIVE_LENGTH_MEASURE(1.0E-006),#388);
#261=CARTESIAN_POINT('',(13.4462024045444,1.19091564921257E-014,-2.8421709430404E-014));
#262=CURVE_STYLE('',#389,POSITIVE_LENGTH_MEASURE(1.0E-006),#390);
#263=CIRCLE('',#391,12.5);
#264=CURVE_STYLE('',#392,POSITIVE_LENGTH_MEASURE(1.0E-006),#393);
#265=CIRCLE('',#394,12.5);
#266=PRODUCT_CONTEXT('',#53,'mechanical');
#267=PRODUCT_DEFINITION_FORMATION_WITH_SPECIFIED_SOURCE(' ','NONE',#152,.NOT_KNOWN.);
#268=CARTESIAN_POINT('',(0.0,0.0,0.0));
#269=DIRECTION('',(0.0,0.0,1.0));
#270=DIRECTION('',(1.0,0.0,0.0));
#271= (NAMED_UNIT(#160)LENGTH_UNIT()SI_UNIT(.MILLI.,.METRE.));
#272=PRE_DEFINED_MARKER('');
#273=COLOUR_RGB('',0.509803950786591,0.509803950786591,0.588235318660736);
#274=DRAUGHTING_PRE_DEFINED_CURVE_FONT('continuous');
#275=COLOUR_RGB('',0.509803950786591,0.509803950786591,0.588235318660736);
#276=CARTESIAN_POINT('',(12.5000000000001,1.09030314417744E-014,3.69999999999996));
#277=VECTOR('',#396,1.0);
#278=DRAUGHTING_PRE_DEFINED_CURVE_FONT('continuous');
#279=COLOUR_RGB('',0.509803950786591,0.509803950786591,0.588235318660736);
#280=AXIS2_PLACEMENT_3D('',#397,#398,#399);
#281=PRE_DEFINED_MARKER('');
#282=COLOUR_RGB('',0.509803950786591,0.509803950786591,0.588235318660736);
#283=SURFACE_SIDE_STYLE('',(#400));
#284=EDGE_LOOP('',(#401,#402,#403,#404));
#285=AXIS2_PLACEMENT_3D('',#405,#406,#407);
#286=SURFACE_SIDE_STYLE('',(#408));
#287=EDGE_LOOP('',(#409,#410));
#288=EDGE_LOOP('',(#411,#412));
#289=AXIS2_PLACEMENT_3D('',#413,#414,#415);
#290=SURFACE_SIDE_STYLE('',(#416));
#291=EDGE_LOOP('',(#417,#418,#419,#420));
#292=AXIS2_PLACEMENT_3D('',#421,#422,#423);
#293=DRAUGHTING_PRE_DEFINED_CURVE_FONT('continuous');
#294=COLOUR_RGB('',0.509803950786591,0.509803950786591,0.588235318660736);
#295=CARTESIAN_POINT('',(-12.5,3.77693709923142E-015,3.69999999999996));
#296=VECTOR('',#424,1.0);
#297=DRAUGHTING_PRE_DEFINED_CURVE_FONT('continuous');
#298=COLOUR_RGB('',0.509803950786591,0.509803950786591,0.588235318660736);
#299=AXIS2_PLACEMENT_3D('',#425,#426,#427);
#300=PRE_DEFINED_MARKER('');
#301=COLOUR_RGB('',0.509803950786591,0.509803950786591,0.588235318660736);
#302=DRAUGHTING_PRE_DEFINED_CURVE_FONT('continuous');
#303=COLOUR_RGB('',0.509803950786591,0.509803950786591,0.588235318660736);
#304=AXIS2_PLACEMENT_3D('',#428,#429,#430);
#305=PRE_DEFINED_MARKER('');
#306=COLOUR_RGB('',0.509803950786591,0.509803950786591,0.588235318660736);
#307=SURFACE_SIDE_STYLE('',(#431));
#308=EDGE_LOOP('',(#432,#433,#434,#435));
#309=AXIS2_PLACEMENT_3D('',#436,#437,#438);
#310=SURFACE_SIDE_STYLE('',(#439));
#311=EDGE_LOOP('',(#440,#441));
#312=EDGE_LOOP('',(#442,#443));
#313=AXIS2_PLACEMENT_3D('',#444,#445,#446);
#314=DRAUGHTING_PRE_DEFINED_CURVE_FONT('continuous');
#315=COLOUR_RGB('',0.509803950786591,0.509803950786591,0.588235318660736);
#316=AXIS2_PLACEMENT_3D('',#447,#448,#449);
#317=DRAUGHTING_PRE_DEFINED_CURVE_FONT('continuous');
#318=COLOUR_RGB('',0.509803950786591,0.509803950786591,0.588235318660736);
#319=CARTESIAN_POINT('',(-22.0,1.06902124906509E-015,6.99999999999994));
#320=VECTOR('',#450,1.0);
#321=DRAUGHTING_PRE_DEFINED_CURVE_FONT('continuous');
#322=COLOUR_RGB('',0.509803950786591,0.509803950786591,0.588235318660736);
#323=AXIS2_PLACEMENT_3D('',#451,#452,#453);
#324=DRAUGHTING_PRE_DEFINED_CURVE_FONT('continuous');
#325=COLOUR_RGB('',0.509803950786591,0.509803950786591,0.588235318660736);
#326=AXIS2_PLACEMENT_3D('',#454,#455,#456);
#327=SURFACE_SIDE_STYLE('',(#457));
#328=PRE_DEFINED_MARKER('');
#329=COLOUR_RGB('',0.509803950786591,0.509803950786591,0.588235318660736);
#330=DRAUGHTING_PRE_DEFINED_CURVE_FONT('continuous');
#331=COLOUR_RGB('',0.509803950786591,0.509803950786591,0.588235318660736);
#332=AXIS2_PLACEMENT_3D('',#458,#459,#460);
#333=DRAUGHTING_PRE_DEFINED_CURVE_FONT('continuous');
#334=COLOUR_RGB('',0.509803950786591,0.509803950786591,0.588235318660736);
#335=AXIS2_PLACEMENT_3D('',#461,#462,#463);
#336=DRAUGHTING_PRE_DEFINED_CURVE_FONT('continuous');
#337=COLOUR_RGB('',0.509803950786591,0.509803950786591,0.588235318660736);
#338=AXIS2_PLACEMENT_3D('',#464,#465,#466);
#339=SURFACE_SIDE_STYLE('',(#467));
#340=EDGE_LOOP('',(#468,#469,#470,#471));
#341=AXIS2_PLACEMENT_3D('',#472,#473,#474);
#342=PRE_DEFINED_MARKER('');
#343=COLOUR_RGB('',0.509803950786591,0.509803950786591,0.588235318660736);
#344=SURFACE_SIDE_STYLE('',(#475));
#345=EDGE_LOOP('',(#476,#477,#478,#479));
#346=AXIS2_PLACEMENT_3D('',#480,#481,#482);
#347=SURFACE_SIDE_STYLE('',(#483));
#348=EDGE_LOOP('',(#484,#485,#486,#487));
#349=AXIS2_PLACEMENT_3D('',#488,#489,#490);
#350=DRAUGHTING_PRE_DEFINED_CURVE_FONT('continuous');
#351=COLOUR_RGB('',0.509803950786591,0.509803950786591,0.588235318660736);
#352=AXIS2_PLACEMENT_3D('',#491,#492,#493);
#353=PRE_DEFINED_MARKER('');
#354=COLOUR_RGB('',0.509803950786591,0.509803950786591,0.588235318660736);
#355=DRAUGHTING_PRE_DEFINED_CURVE_FONT('continuous');
#356=COLOUR_RGB('',0.509803950786591,0.509803950786591,0.588235318660736);
#357=CARTESIAN_POINT('',(22.0000000000001,1.36109472919408E-014,6.99999999999994));
#358=VECTOR('',#494,1.0);
#359=PRE_DEFINED_MARKER('');
#360=COLOUR_RGB('',0.509803950786591,0.509803950786591,0.588235318660736);
#361=DRAUGHTING_PRE_DEFINED_CURVE_FONT('continuous');
#362=COLOUR_RGB('',0.509803950786591,0.509803950786591,0.588235318660736);
#363=CARTESIAN_POINT('',(-12.9,3.66291958975073E-015,7.79999999999995));
#364=VECTOR('',#495,1.0);
#365=DRAUGHTING_PRE_DEFINED_CURVE_FONT('continuous');
#366=COLOUR_RGB('',0.509803950786591,0.509803950786591,0.588235318660736);
#367=CARTESIAN_POINT('',(12.9000000000001,1.10170489512551E-014,7.79999999999995));
#368=VECTOR('',#496,1.0);
#369=DRAUGHTING_PRE_DEFINED_CURVE_FONT('continuous');
#370=COLOUR_RGB('',0.509803950786591,0.509803950786591,0.588235318660736);
#371=AXIS2_PLACEMENT_3D('',#497,#498,#499);
#372=DRAUGHTING_PRE_DEFINED_CURVE_FONT('continuous');
#373=COLOUR_RGB('',0.509803950786591,0.509803950786591,0.588235318660736);
#374=AXIS2_PLACEMENT_3D('',#500,#501,#502);
#375=SURFACE_SIDE_STYLE('',(#503));
#376=EDGE_LOOP('',(#504,#505,#506,#507));
#377=AXIS2_PLACEMENT_3D('',#508,#509,#510);
#378=PRE_DEFINED_MARKER('');
#379=COLOUR_RGB('',0.509803950786591,0.509803950786591,0.588235318660736);
#380=SURFACE_SIDE_STYLE('',(#511));
#381=EDGE_LOOP('',(#512,#513,#514,#515));
#382=AXIS2_PLACEMENT_3D('',#516,#517,#518);
#383=PRE_DEFINED_MARKER('');
#384=COLOUR_RGB('',0.509803950786591,0.509803950786591,0.588235318660736);
#385=PRE_DEFINED_MARKER('');
#386=COLOUR_RGB('',0.509803950786591,0.509803950786591,0.588235318660736);
#387=PRE_DEFINED_MARKER('');
#388=COLOUR_RGB('',0.509803950786591,0.509803950786591,0.588235318660736);
#389=DRAUGHTING_PRE_DEFINED_CURVE_FONT('continuous');
#390=COLOUR_RGB('',0.509803950786591,0.509803950786591,0.588235318660736);
#391=AXIS2_PLACEMENT_3D('',#519,#520,#521);
#392=DRAUGHTING_PRE_DEFINED_CURVE_FONT('continuous');
#393=COLOUR_RGB('',0.509803950786591,0.509803950786591,0.588235318660736);
#394=AXIS2_PLACEMENT_3D('',#522,#523,#524);
#396=DIRECTION('',(0.0,0.0,1.0));
#397=CARTESIAN_POINT('',(2.8421709430404E-014,7.33998427050292E-015,8.19999999999996));
#398=DIRECTION('',(-0.0,0.0,-1.0));
#399=DIRECTION('',(-1.0,-1.62583138319482E-016,0.0));
#400=SURFACE_STYLE_FILL_AREA(#525);
#401=ORIENTED_EDGE('',*,*,#81,.F.);
#402=ORIENTED_EDGE('',*,*,#133,.F.);
#403=ORIENTED_EDGE('',*,*,#69,.F.);
#404=ORIENTED_EDGE('',*,*,#149,.T.);
#405=CARTESIAN_POINT('',(2.8421709430404E-014,7.33998427050292E-015,3.69999999999996));
#406=DIRECTION('',(0.0,-0.0,1.0));
#407=DIRECTION('',(-1.0,-1.62583138319482E-016,0.0));
#408=SURFACE_STYLE_FILL_AREA(#526);
#409=ORIENTED_EDGE('',*,*,#121,.T.);
#410=ORIENTED_EDGE('',*,*,#95,.T.);
#411=ORIENTED_EDGE('',*,*,#151,.F.);
#412=ORIENTED_EDGE('',*,*,#149,.F.);
#413=CARTESIAN_POINT('',(-17.25,4.72544970509214E-015,-2.8421709430404E-014));
#414=DIRECTION('',(0.0,0.0,-1.0));
#415=DIRECTION('',(1.0,1.22460635382238E-016,0.0));
#416=SURFACE_STYLE_FILL_AREA(#527);
#417=ORIENTED_EDGE('',*,*,#135,.F.);
#418=ORIENTED_EDGE('',*,*,#121,.F.);
#419=ORIENTED_EDGE('',*,*,#107,.F.);
#420=ORIENTED_EDGE('',*,*,#101,.F.);
#421=CARTESIAN_POINT('',(1.11910480882216E-013,8.6158955122484E-015,29.0379000772444));
#422=DIRECTION('',(0.0,0.0,-1.0));
#423=DIRECTION('',(1.0,1.22460635382238E-016,0.0));
#424=DIRECTION('',(0.0,0.0,-1.0));
#425=CARTESIAN_POINT('',(2.8421709430404E-014,7.33998427050292E-015,8.19999999999996));
#426=DIRECTION('',(-0.0,0.0,-1.0));
#427=DIRECTION('',(-1.0,-1.62583138319482E-016,0.0));
#428=CARTESIAN_POINT('',(2.8421709430404E-014,7.33998427050292E-015,7.39999999999995));
#429=DIRECTION('',(-0.0,0.0,-1.0));
#430=DIRECTION('',(-1.0,-1.62583138319482E-016,0.0));
#431=SURFACE_STYLE_FILL_AREA(#528);
#432=ORIENTED_EDGE('',*,*,#97,.F.);
#433=ORIENTED_EDGE('',*,*,#99,.T.);
#434=ORIENTED_EDGE('',*,*,#125,.F.);
#435=ORIENTED_EDGE('',*,*,#101,.T.);
#436=CARTESIAN_POINT('',(2.8421709430404E-014,7.33998427050292E-015,4.09999999999997));
#437=DIRECTION('',(0.0,-0.0,1.0));
#438=DIRECTION('',(-1.0,-1.62583138319482E-016,0.0));
#439=SURFACE_STYLE_FILL_AREA(#529);
#440=ORIENTED_EDGE('',*,*,#99,.F.);
#441=ORIENTED_EDGE('',*,*,#71,.F.);
#442=ORIENTED_EDGE('',*,*,#83,.T.);
#443=ORIENTED_EDGE('',*,*,#109,.T.);
#444=CARTESIAN_POINT('',(-17.65,5.17855405600642E-015,8.19999999999996));
#445=DIRECTION('',(0.0,0.0,1.0));
#446=DIRECTION('',(-1.0,-1.22460635382238E-016,0.0));
#447=CARTESIAN_POINT('',(1.11910480882216E-013,8.6158955122484E-015,-2.8421709430404E-014));
#448=DIRECTION('',(0.0,0.0,-1.0));
#449=DIRECTION('',(0.0,-1.0,0.0));
#450=DIRECTION('',(0.0,0.0,-1.0));
#451=CARTESIAN_POINT('',(2.8421709430404E-014,7.33998427050292E-015,8.19999999999996));
#452=DIRECTION('',(-0.0,0.0,-1.0));
#453=DIRECTION('',(-1.0,-1.62583138319482E-016,0.0));
#454=CARTESIAN_POINT('',(2.8421709430404E-014,7.33998427050292E-015,5.79999999999993));
#455=DIRECTION('',(0.0,0.0,1.0));
#456=DIRECTION('',(-1.0,-1.62583138319482E-016,0.0));
#457=SURFACE_STYLE_FILL_AREA(#530);
#458=CARTESIAN_POINT('',(1.11910480882216E-013,8.6158955122484E-015,29.0379000772444));
#459=DIRECTION('',(2.44921270764475E-016,-1.0,0.0));
#460=DIRECTION('',(-0.0,0.0,1.0));
#461=CARTESIAN_POINT('',(2.8421709430404E-014,7.33998427050292E-015,8.19999999999996));
#462=DIRECTION('',(-0.0,0.0,-1.0));
#463=DIRECTION('',(-1.0,-1.62583138319482E-016,0.0));
#464=CARTESIAN_POINT('',(2.8421709430404E-014,7.33998427050292E-015,5.79999999999993));
#465=DIRECTION('',(0.0,0.0,1.0));
#466=DIRECTION('',(-1.0,-1.62583138319482E-016,0.0));
#467=SURFACE_STYLE_FILL_AREA(#531);
#468=ORIENTED_EDGE('',*,*,#97,.T.);
#469=ORIENTED_EDGE('',*,*,#111,.T.);
#470=ORIENTED_EDGE('',*,*,#125,.T.);
#471=ORIENTED_EDGE('',*,*,#71,.T.);
#472=CARTESIAN_POINT('',(2.8421709430404E-014,7.33998427050292E-015,4.09999999999997));
#473=DIRECTION('',(0.0,-0.0,1.0));
#474=DIRECTION('',(-1.0,-1.62583138319482E-016,0.0));
#475=SURFACE_STYLE_FILL_AREA(#532);
#476=ORIENTED_EDGE('',*,*,#135,.T.);
#477=ORIENTED_EDGE('',*,*,#111,.F.);
#478=ORIENTED_EDGE('',*,*,#107,.T.);
#479=ORIENTED_EDGE('',*,*,#95,.F.);
#480=CARTESIAN_POINT('',(1.11910480882216E-013,8.6158955122484E-015,29.0379000772444));
#481=DIRECTION('',(0.0,0.0,-1.0));
#482=DIRECTION('',(1.0,1.22460635382238E-016,0.0));
#483=SURFACE_STYLE_FILL_AREA(#533);
#484=ORIENTED_EDGE('',*,*,#81,.T.);
#485=ORIENTED_EDGE('',*,*,#151,.T.);
#486=ORIENTED_EDGE('',*,*,#69,.T.);
#487=ORIENTED_EDGE('',*,*,#87,.F.);
#488=CARTESIAN_POINT('',(2.8421709430404E-014,7.33998427050292E-015,3.69999999999996));
#489=DIRECTION('',(0.0,-0.0,1.0));
#490=DIRECTION('',(-1.0,-1.62583138319482E-016,0.0));
#491=CARTESIAN_POINT('',(1.11910480882216E-013,8.6158955122484E-015,-2.8421709430404E-014));
#492=DIRECTION('',(0.0,0.0,-1.0));
#493=DIRECTION('',(0.0,-1.0,0.0));
#494=DIRECTION('',(-0.0,-0.0,1.0));
#495=DIRECTION('',(0.707106781186548,2.01556385319489E-016,-0.707106781186548));
#496=DIRECTION('',(0.707106781186548,2.01556385319489E-016,0.707106781186548));
#497=CARTESIAN_POINT('',(2.8421709430404E-014,7.33998427050292E-015,7.39999999999995));
#498=DIRECTION('',(-0.0,0.0,-1.0));
#499=DIRECTION('',(-1.0,-1.62583138319482E-016,0.0));
#500=CARTESIAN_POINT('',(1.11910480882216E-013,8.6158955122484E-015,29.0379000772444));
#501=DIRECTION('',(2.44921270764475E-016,-1.0,0.0));
#502=DIRECTION('',(-0.0,0.0,1.0));
#503=SURFACE_STYLE_FILL_AREA(#534);
#504=ORIENTED_EDGE('',*,*,#129,.F.);
#505=ORIENTED_EDGE('',*,*,#109,.F.);
#506=ORIENTED_EDGE('',*,*,#131,.F.);
#507=ORIENTED_EDGE('',*,*,#133,.T.);
#508=CARTESIAN_POINT('',(2.8421709430404E-014,7.33998427050292E-015,7.79999999999995));
#509=DIRECTION('',(0.0,-0.0,1.0));
#510=DIRECTION('',(-1.0,-1.62583138319482E-016,0.0));
#511=SURFACE_STYLE_FILL_AREA(#535);
#512=ORIENTED_EDGE('',*,*,#129,.T.);
#513=ORIENTED_EDGE('',*,*,#87,.T.);
#514=ORIENTED_EDGE('',*,*,#131,.T.);
#515=ORIENTED_EDGE('',*,*,#83,.F.);
#516=CARTESIAN_POINT('',(2.8421709430404E-014,7.33998427050292E-015,7.79999999999995));
#517=DIRECTION('',(0.0,-0.0,1.0));
#518=DIRECTION('',(-1.0,-1.62583138319482E-016,0.0));
#519=CARTESIAN_POINT('',(2.8421709430404E-014,7.33998427050292E-015,-2.8421709430404E-014));
#520=DIRECTION('',(-0.0,0.0,-1.0));
#521=DIRECTION('',(-1.0,-1.62583138319482E-016,0.0));
#522=CARTESIAN_POINT('',(2.8421709430404E-014,7.33998427050292E-015,-2.8421709430404E-014));
#523=DIRECTION('',(-0.0,0.0,-1.0));
#524=DIRECTION('',(-1.0,-1.62583138319482E-016,0.0));
#525=FILL_AREA_STYLE('',(#536));
#526=FILL_AREA_STYLE('',(#537));
#527=FILL_AREA_STYLE('',(#538));
#528=FILL_AREA_STYLE('',(#539));
#529=FILL_AREA_STYLE('',(#540));
#530=FILL_AREA_STYLE('',(#541));
#531=FILL_AREA_STYLE('',(#542));
#532=FILL_AREA_STYLE('',(#543));
#533=FILL_AREA_STYLE('',(#544));
#534=FILL_AREA_STYLE('',(#545));
#535=FILL_AREA_STYLE('',(#546));
#536=FILL_AREA_STYLE_COLOUR('',#547);
#537=FILL_AREA_STYLE_COLOUR('',#548);
#538=FILL_AREA_STYLE_COLOUR('',#549);
#539=FILL_AREA_STYLE_COLOUR('',#550);
#540=FILL_AREA_STYLE_COLOUR('',#551);
#541=FILL_AREA_STYLE_COLOUR('',#552);
#542=FILL_AREA_STYLE_COLOUR('',#553);
#543=FILL_AREA_STYLE_COLOUR('',#554);
#544=FILL_AREA_STYLE_COLOUR('',#555);
#545=FILL_AREA_STYLE_COLOUR('',#556);
#546=FILL_AREA_STYLE_COLOUR('',#557);
#547=COLOUR_RGB('',0.509803950786591,0.509803950786591,0.588235318660736);
#548=COLOUR_RGB('',0.509803950786591,0.509803950786591,0.588235318660736);
#549=COLOUR_RGB('',0.509803950786591,0.509803950786591,0.588235318660736);
#550=COLOUR_RGB('',0.509803950786591,0.509803950786591,0.588235318660736);
#551=COLOUR_RGB('',0.509803950786591,0.509803950786591,0.588235318660736);
#552=COLOUR_RGB('',0.509803950786591,0.509803950786591,0.588235318660736);
#553=COLOUR_RGB('',0.509803950786591,0.509803950786591,0.588235318660736);
#554=COLOUR_RGB('',0.509803950786591,0.509803950786591,0.588235318660736);
#555=COLOUR_RGB('',0.509803950786591,0.509803950786591,0.588235318660736);
#556=COLOUR_RGB('',0.509803950786591,0.509803950786591,0.588235318660736);
#557=COLOUR_RGB('',0.509803950786591,0.509803950786591,0.588235318660736);
ENDSEC;
END-ISO-10303-21;
