ISO-10303-21;
HEADER;
FILE_DESCRIPTION(('STEP AP214'),'1');
FILE_NAME(' ','  ',('TraceParts'),('TraceParts S.A.'),'XStep 1.0',' ',' ');
FILE_SCHEMA(('automotive_design'));
ENDSEC;
DATA;
#1=MECHANICAL_DESIGN_GEOMETRIC_PRESENTATION_REPRESENTATION(' ',(#10,#11,#12,#13,#14,#15,#16,#17,#18,#19,#20,#21,#22,#23,#24,#25,#26,#27,#28,#29,#30,#31,#32,#33,#34,#35,#36,#37,#38,#39,#40,#41,#42,#43,#44,#45,#46,#47,#48,#49,#50,#51,#52),#6);
#2=PRODUCT_DEFINITION_CONTEXT('',#53,'design');
#3=APPLICATION_PROTOCOL_DEFINITION('INTERNATIONAL STANDARD','automotive_design',1994,#53);
#4=PRODUCT_CATEGORY_RELATIONSHIP('NONE','NONE',#54,#55);
#5=SHAPE_DEFINITION_REPRESENTATION(#56,#57);
#6= (GEOMETRIC_REPRESENTATION_CONTEXT(3)GLOBAL_UNCERTAINTY_ASSIGNED_CONTEXT((#60))GLOBAL_UNIT_ASSIGNED_CONTEXT((#62,#63,#64))REPRESENTATION_CONTEXT('NONE','WORKSPACE'));
#10=STYLED_ITEM('',(#66),#67);
#11=STYLED_ITEM('',(#68),#69);
#12=STYLED_ITEM('',(#70),#71);
#13=STYLED_ITEM('',(#72),#73);
#14=STYLED_ITEM('',(#74),#75);
#15=STYLED_ITEM('',(#76),#77);
#16=STYLED_ITEM('',(#78),#79);
#17=STYLED_ITEM('',(#80),#81);
#18=STYLED_ITEM('',(#82),#83);
#19=STYLED_ITEM('',(#84),#85);
#20=STYLED_ITEM('',(#86),#87);
#21=STYLED_ITEM('',(#88),#89);
#22=STYLED_ITEM('',(#90),#91);
#23=STYLED_ITEM('',(#92),#93);
#24=STYLED_ITEM('',(#94),#95);
#25=STYLED_ITEM('',(#96),#97);
#26=STYLED_ITEM('',(#98),#99);
#27=STYLED_ITEM('',(#100),#101);
#28=STYLED_ITEM('',(#102),#103);
#29=STYLED_ITEM('',(#104),#105);
#30=STYLED_ITEM('',(#106),#107);
#31=STYLED_ITEM('',(#108),#109);
#32=STYLED_ITEM('',(#110),#111);
#33=STYLED_ITEM('',(#112),#113);
#34=STYLED_ITEM('',(#114),#115);
#35=STYLED_ITEM('',(#116),#117);
#36=STYLED_ITEM('',(#118),#119);
#37=STYLED_ITEM('',(#120),#121);
#38=STYLED_ITEM('',(#122),#123);
#39=STYLED_ITEM('',(#124),#125);
#40=STYLED_ITEM('',(#126),#127);
#41=STYLED_ITEM('',(#128),#129);
#42=STYLED_ITEM('',(#130),#131);
#43=STYLED_ITEM('',(#132),#133);
#44=STYLED_ITEM('',(#134),#135);
#45=STYLED_ITEM('',(#136),#137);
#46=STYLED_ITEM('',(#138),#139);
#47=STYLED_ITEM('',(#140),#141);
#48=STYLED_ITEM('',(#142),#143);
#49=STYLED_ITEM('',(#144),#145);
#50=STYLED_ITEM('',(#146),#147);
#51=STYLED_ITEM('',(#148),#149);
#52=STYLED_ITEM('',(#150),#151);
#53=APPLICATION_CONTEXT(' ');
#54=PRODUCT_CATEGORY('part','NONE');
#55=PRODUCT_RELATED_PRODUCT_CATEGORY('detail',' ',(#152));
#56=PRODUCT_DEFINITION_SHAPE('NONE','NONE',#153);
#57=ADVANCED_BREP_SHAPE_REPRESENTATION('1',(#97,#154),#6);
#60=UNCERTAINTY_MEASURE_WITH_UNIT(LENGTH_MEASURE(1.0E-006),#62,'','');
#62= (CONVERSION_BASED_UNIT('MILLIMETRE',#157)LENGTH_UNIT()NAMED_UNIT(#160));
#63= (NAMED_UNIT(#162)PLANE_ANGLE_UNIT()SI_UNIT($,.RADIAN.));
#64= (NAMED_UNIT(#162)SOLID_ANGLE_UNIT()SI_UNIT($,.STERADIAN.));
#66=PRESENTATION_STYLE_ASSIGNMENT((#168));
#67=EDGE_CURVE('',#77,#117,#169,.T.);
#68=PRESENTATION_STYLE_ASSIGNMENT((#170));
#69=EDGE_CURVE('',#109,#73,#171,.T.);
#70=PRESENTATION_STYLE_ASSIGNMENT((#172));
#71=EDGE_CURVE('',#81,#109,#173,.T.);
#72=PRESENTATION_STYLE_ASSIGNMENT((#174));
#73=VERTEX_POINT('',#175);
#74=PRESENTATION_STYLE_ASSIGNMENT((#176));
#75=EDGE_CURVE('',#145,#81,#177,.T.);
#76=PRESENTATION_STYLE_ASSIGNMENT((#178));
#77=VERTEX_POINT('',#179);
#78=PRESENTATION_STYLE_ASSIGNMENT((#180));
#79=EDGE_CURVE('',#105,#117,#181,.T.);
#80=PRESENTATION_STYLE_ASSIGNMENT((#182));
#81=VERTEX_POINT('',#183);
#82=PRESENTATION_STYLE_ASSIGNMENT((#184));
#83=EDGE_CURVE('',#145,#73,#185,.T.);
#84=PRESENTATION_STYLE_ASSIGNMENT((#186));
#85=EDGE_CURVE('',#89,#77,#187,.T.);
#86=PRESENTATION_STYLE_ASSIGNMENT((#188));
#87=ADVANCED_FACE('',(#189),#190,.T.);
#88=PRESENTATION_STYLE_ASSIGNMENT((#191));
#89=VERTEX_POINT('',#192);
#90=PRESENTATION_STYLE_ASSIGNMENT((#193));
#91=ADVANCED_FACE('',(#194),#195,.F.);
#92=PRESENTATION_STYLE_ASSIGNMENT((#196));
#93=EDGE_CURVE('',#147,#121,#197,.T.);
#94=PRESENTATION_STYLE_ASSIGNMENT((#198));
#95=EDGE_CURVE('',#73,#145,#199,.T.);
#96=PRESENTATION_STYLE_ASSIGNMENT((#200));
#97=MANIFOLD_SOLID_BREP('1',#201);
#98=PRESENTATION_STYLE_ASSIGNMENT((#202));
#99=ADVANCED_FACE('',(#203),#204,.F.);
#100=PRESENTATION_STYLE_ASSIGNMENT((#205));
#101=EDGE_CURVE('',#73,#121,#206,.T.);
#102=PRESENTATION_STYLE_ASSIGNMENT((#207));
#103=EDGE_CURVE('',#139,#111,#208,.T.);
#104=PRESENTATION_STYLE_ASSIGNMENT((#209));
#105=VERTEX_POINT('',#210);
#106=PRESENTATION_STYLE_ASSIGNMENT((#211));
#107=ADVANCED_FACE('',(#212),#213,.T.);
#108=PRESENTATION_STYLE_ASSIGNMENT((#214));
#109=VERTEX_POINT('',#215);
#110=PRESENTATION_STYLE_ASSIGNMENT((#216));
#111=VERTEX_POINT('',#217);
#112=PRESENTATION_STYLE_ASSIGNMENT((#218));
#113=ADVANCED_FACE('',(#219,#220),#221,.T.);
#114=PRESENTATION_STYLE_ASSIGNMENT((#222));
#115=EDGE_CURVE('',#109,#81,#223,.T.);
#116=PRESENTATION_STYLE_ASSIGNMENT((#224));
#117=VERTEX_POINT('',#225);
#118=PRESENTATION_STYLE_ASSIGNMENT((#226));
#119=EDGE_CURVE('',#121,#147,#227,.T.);
#120=PRESENTATION_STYLE_ASSIGNMENT((#228));
#121=VERTEX_POINT('',#229);
#122=PRESENTATION_STYLE_ASSIGNMENT((#230));
#123=ADVANCED_FACE('',(#231),#232,.F.);
#124=PRESENTATION_STYLE_ASSIGNMENT((#233));
#125=EDGE_CURVE('',#111,#139,#234,.T.);
#126=PRESENTATION_STYLE_ASSIGNMENT((#235));
#127=ADVANCED_FACE('',(#236),#237,.T.);
#128=PRESENTATION_STYLE_ASSIGNMENT((#238));
#129=EDGE_CURVE('',#89,#111,#239,.T.);
#130=PRESENTATION_STYLE_ASSIGNMENT((#240));
#131=ADVANCED_FACE('',(#241),#242,.F.);
#132=PRESENTATION_STYLE_ASSIGNMENT((#243));
#133=EDGE_CURVE('',#139,#77,#244,.T.);
#134=PRESENTATION_STYLE_ASSIGNMENT((#245));
#135=EDGE_CURVE('',#117,#105,#246,.T.);
#136=PRESENTATION_STYLE_ASSIGNMENT((#247));
#137=EDGE_CURVE('',#147,#145,#248,.T.);
#138=PRESENTATION_STYLE_ASSIGNMENT((#249));
#139=VERTEX_POINT('',#250);
#140=PRESENTATION_STYLE_ASSIGNMENT((#251));
#141=ADVANCED_FACE('',(#252,#253),#254,.T.);
#142=PRESENTATION_STYLE_ASSIGNMENT((#255));
#143=EDGE_CURVE('',#77,#89,#256,.T.);
#144=PRESENTATION_STYLE_ASSIGNMENT((#257));
#145=VERTEX_POINT('',#258);
#146=PRESENTATION_STYLE_ASSIGNMENT((#259));
#147=VERTEX_POINT('',#260);
#148=PRESENTATION_STYLE_ASSIGNMENT((#261));
#149=ADVANCED_FACE('',(#262),#263,.T.);
#150=PRESENTATION_STYLE_ASSIGNMENT((#264));
#151=EDGE_CURVE('',#105,#89,#265,.T.);
#152=PRODUCT('1','1','PART-1-DESC',(#266));
#153=PRODUCT_DEFINITION('NONE','NONE',#267,#2);
#154=AXIS2_PLACEMENT_3D('',#268,#269,#270);
#157=LENGTH_MEASURE_WITH_UNIT(LENGTH_MEASURE(1.0),#271);
#160=DIMENSIONAL_EXPONENTS(1.0,0.0,0.0,0.0,0.0,0.0,0.0);
#162=DIMENSIONAL_EXPONENTS(0.0,0.0,0.0,0.0,0.0,0.0,0.0);
#168=CURVE_STYLE('',#272,POSITIVE_LENGTH_MEASURE(1.0E-006),#273);
#169=LINE('',#274,#275);
#170=CURVE_STYLE('',#276,POSITIVE_LENGTH_MEASURE(1.0E-006),#277);
#171=LINE('',#278,#279);
#172=CURVE_STYLE('',#280,POSITIVE_LENGTH_MEASURE(1.0E-006),#281);
#173=CIRCLE('',#282,18.0);
#174=POINT_STYLE(' ',#283,POSITIVE_LENGTH_MEASURE(1.0E-006),#284);
#175=CARTESIAN_POINT('',(-17.9999999999999,4.52338965671145E-015,4.29999999999997));
#176=CURVE_STYLE('',#285,POSITIVE_LENGTH_MEASURE(1.0E-006),#286);
#177=LINE('',#287,#288);
#178=POINT_STYLE(' ',#289,POSITIVE_LENGTH_MEASURE(1.0E-006),#290);
#179=CARTESIAN_POINT('',(10.5000000000001,9.80712925636861E-015,5.80000000000001));
#180=CURVE_STYLE('',#291,POSITIVE_LENGTH_MEASURE(1.0E-006),#292);
#181=CIRCLE('',#293,11.0);
#182=POINT_STYLE(' ',#294,POSITIVE_LENGTH_MEASURE(1.0E-006),#295);
#183=CARTESIAN_POINT('',(18.0000000000001,1.19192632045076E-014,6.30000000000001));
#184=CURVE_STYLE('',#296,POSITIVE_LENGTH_MEASURE(1.0E-006),#297);
#185=CIRCLE('',#298,18.0);
#186=CURVE_STYLE('',#299,POSITIVE_LENGTH_MEASURE(1.0E-006),#300);
#187=CIRCLE('',#301,10.5);
#188=SURFACE_STYLE_USAGE(.BOTH.,#302);
#189=FACE_OUTER_BOUND('',#303,.T.);
#190=SPHERICAL_SURFACE('',#304,27.0000000000003);
#191=POINT_STYLE(' ',#305,POSITIVE_LENGTH_MEASURE(1.0E-006),#306);
#192=CARTESIAN_POINT('',(-10.5,5.53368989861491E-015,5.80000000000001));
#193=SURFACE_STYLE_USAGE(.BOTH.,#307);
#194=FACE_OUTER_BOUND('',#308,.T.);
#195=CYLINDRICAL_SURFACE('',#309,10.5);
#196=CURVE_STYLE('',#310,POSITIVE_LENGTH_MEASURE(1.0E-006),#311);
#197=CIRCLE('',#312,11.5081857189362);
#198=CURVE_STYLE('',#313,POSITIVE_LENGTH_MEASURE(1.0E-006),#314);
#199=CIRCLE('',#315,18.0);
#200=SURFACE_STYLE_USAGE(.BOTH.,#316);
#201=CLOSED_SHELL('',(#123,#149,#131,#87,#107,#99,#141,#127,#113,#91));
#202=SURFACE_STYLE_USAGE(.BOTH.,#317);
#203=FACE_OUTER_BOUND('',#318,.T.);
#204=CONICAL_SURFACE('',#319,10.75,0.785398163397448);
#205=CURVE_STYLE('',#320,POSITIVE_LENGTH_MEASURE(1.0E-006),#321);
#206=CIRCLE('',#322,27.0000000000003);
#207=CURVE_STYLE('',#323,POSITIVE_LENGTH_MEASURE(1.0E-006),#324);
#208=CIRCLE('',#325,10.5);
#209=POINT_STYLE(' ',#326,POSITIVE_LENGTH_MEASURE(1.0E-006),#327);
#210=CARTESIAN_POINT('',(-11.0,5.50307473976935E-015,6.30000000000001));
#211=SURFACE_STYLE_USAGE(.BOTH.,#328);
#212=FACE_OUTER_BOUND('',#329,.T.);
#213=SPHERICAL_SURFACE('',#330,27.0000000000003);
#214=POINT_STYLE(' ',#331,POSITIVE_LENGTH_MEASURE(1.0E-006),#332);
#215=CARTESIAN_POINT('',(-18.0,4.64585029209369E-015,6.30000000000001));
#216=POINT_STYLE(' ',#333,POSITIVE_LENGTH_MEASURE(1.0E-006),#334);
#217=CARTESIAN_POINT('',(-10.5,5.17855405600642E-015,-2.8421709430404E-014));
#218=SURFACE_STYLE_USAGE(.BOTH.,#335);
#219=FACE_OUTER_BOUND('',#336,.T.);
#220=FACE_BOUND('',#337,.T.);
#221=PLANE('',#338);
#222=CURVE_STYLE('',#339,POSITIVE_LENGTH_MEASURE(1.0E-006),#340);
#223=CIRCLE('',#341,18.0);
#224=POINT_STYLE(' ',#342,POSITIVE_LENGTH_MEASURE(1.0E-006),#343);
#225=CARTESIAN_POINT('',(11.0000000000001,9.94793818624454E-015,6.30000000000001));
#226=CURVE_STYLE('',#344,POSITIVE_LENGTH_MEASURE(1.0E-006),#345);
#227=CIRCLE('',#346,11.5081857189362);
#228=POINT_STYLE(' ',#347,POSITIVE_LENGTH_MEASURE(1.0E-006),#348);
#229=CARTESIAN_POINT('',(-11.5081857189356,5.05509099228226E-015,-4.2632564145606E-014));
#230=SURFACE_STYLE_USAGE(.BOTH.,#349);
#231=FACE_OUTER_BOUND('',#350,.T.);
#232=CYLINDRICAL_SURFACE('',#351,10.5);
#233=CURVE_STYLE('',#352,POSITIVE_LENGTH_MEASURE(1.0E-006),#353);
#234=CIRCLE('',#354,10.5);
#235=SURFACE_STYLE_USAGE(.BOTH.,#355);
#236=FACE_OUTER_BOUND('',#356,.T.);
#237=CYLINDRICAL_SURFACE('',#357,18.0);
#238=CURVE_STYLE('',#358,POSITIVE_LENGTH_MEASURE(1.0E-006),#359);
#239=LINE('',#360,#361);
#240=SURFACE_STYLE_USAGE(.BOTH.,#362);
#241=FACE_OUTER_BOUND('',#363,.T.);
#242=CONICAL_SURFACE('',#364,10.75,0.785398163397448);
#243=CURVE_STYLE('',#365,POSITIVE_LENGTH_MEASURE(1.0E-006),#366);
#244=LINE('',#367,#368);
#245=CURVE_STYLE('',#369,POSITIVE_LENGTH_MEASURE(1.0E-006),#370);
#246=CIRCLE('',#371,11.0);
#247=CURVE_STYLE('',#372,POSITIVE_LENGTH_MEASURE(1.0E-006),#373);
#248=CIRCLE('',#374,27.0000000000003);
#249=POINT_STYLE(' ',#375,POSITIVE_LENGTH_MEASURE(1.0E-006),#376);
#250=CARTESIAN_POINT('',(10.5000000000001,9.80712925636861E-015,-2.8421709430404E-014));
#251=SURFACE_STYLE_USAGE(.BOTH.,#377);
#252=FACE_OUTER_BOUND('',#378,.T.);
#253=FACE_BOUND('',#379,.T.);
#254=PLANE('',#380);
#255=CURVE_STYLE('',#381,POSITIVE_LENGTH_MEASURE(1.0E-006),#382);
#256=CIRCLE('',#383,10.5);
#257=POINT_STYLE(' ',#384,POSITIVE_LENGTH_MEASURE(1.0E-006),#385);
#258=CARTESIAN_POINT('',(18.0000000000001,1.23685003411235E-014,4.29999999999984));
#259=POINT_STYLE(' ',#386,POSITIVE_LENGTH_MEASURE(1.0E-006),#387);
#260=CARTESIAN_POINT('',(11.5081857189363,1.07785169378384E-014,-1.4210854715202E-014));
#261=SURFACE_STYLE_USAGE(.BOTH.,#388);
#262=FACE_OUTER_BOUND('',#389,.T.);
#263=CYLINDRICAL_SURFACE('',#390,18.0);
#264=CURVE_STYLE('',#391,POSITIVE_LENGTH_MEASURE(1.0E-006),#392);
#265=LINE('',#393,#394);
#266=PRODUCT_CONTEXT('',#53,'mechanical');
#267=PRODUCT_DEFINITION_FORMATION_WITH_SPECIFIED_SOURCE(' ','NONE',#152,.NOT_KNOWN.);
#268=CARTESIAN_POINT('',(0.0,0.0,0.0));
#269=DIRECTION('',(0.0,0.0,1.0));
#270=DIRECTION('',(1.0,0.0,0.0));
#271= (NAMED_UNIT(#160)LENGTH_UNIT()SI_UNIT(.MILLI.,.METRE.));
#272=DRAUGHTING_PRE_DEFINED_CURVE_FONT('continuous');
#273=COLOUR_RGB('',0.509803950786591,0.509803950786591,0.588235318660736);
#274=CARTESIAN_POINT('',(10.7500000000001,9.87753372130658E-015,6.05000000000001));
#275=VECTOR('',#396,1.0);
#276=DRAUGHTING_PRE_DEFINED_CURVE_FONT('continuous');
#277=COLOUR_RGB('',0.509803950786591,0.509803950786591,0.588235318660736);
#278=CARTESIAN_POINT('',(-18.0,1.78102025344031E-015,5.29999999999993));
#279=VECTOR('',#397,1.0);
#280=DRAUGHTING_PRE_DEFINED_CURVE_FONT('continuous');
#281=COLOUR_RGB('',0.509803950786591,0.509803950786591,0.588235318660736);
#282=AXIS2_PLACEMENT_3D('',#398,#399,#400);
#283=PRE_DEFINED_MARKER('');
#284=COLOUR_RGB('',0.509803950786591,0.509803950786591,0.588235318660736);
#285=DRAUGHTING_PRE_DEFINED_CURVE_FONT('continuous');
#286=COLOUR_RGB('',0.509803950786591,0.509803950786591,0.588235318660736);
#287=CARTESIAN_POINT('',(18.0000000000001,1.19192632045076E-014,5.29999999999993));
#288=VECTOR('',#401,1.0);
#289=PRE_DEFINED_MARKER('');
#290=COLOUR_RGB('',0.509803950786591,0.509803950786591,0.588235318660736);
#291=DRAUGHTING_PRE_DEFINED_CURVE_FONT('continuous');
#292=COLOUR_RGB('',0.509803950786591,0.509803950786591,0.588235318660736);
#293=AXIS2_PLACEMENT_3D('',#402,#403,#404);
#294=PRE_DEFINED_MARKER('');
#295=COLOUR_RGB('',0.509803950786591,0.509803950786591,0.588235318660736);
#296=DRAUGHTING_PRE_DEFINED_CURVE_FONT('continuous');
#297=COLOUR_RGB('',0.509803950786591,0.509803950786591,0.588235318660736);
#298=AXIS2_PLACEMENT_3D('',#405,#406,#407);
#299=DRAUGHTING_PRE_DEFINED_CURVE_FONT('continuous');
#300=COLOUR_RGB('',0.509803950786591,0.509803950786591,0.588235318660736);
#301=AXIS2_PLACEMENT_3D('',#408,#409,#410);
#302=SURFACE_SIDE_STYLE('',(#411));
#303=EDGE_LOOP('',(#412,#413,#414,#415));
#304=AXIS2_PLACEMENT_3D('',#416,#417,#418);
#305=PRE_DEFINED_MARKER('');
#306=COLOUR_RGB('',0.509803950786591,0.509803950786591,0.588235318660736);
#307=SURFACE_SIDE_STYLE('',(#419));
#308=EDGE_LOOP('',(#420,#421,#422,#423));
#309=AXIS2_PLACEMENT_3D('',#424,#425,#426);
#310=DRAUGHTING_PRE_DEFINED_CURVE_FONT('continuous');
#311=COLOUR_RGB('',0.509803950786591,0.509803950786591,0.588235318660736);
#312=AXIS2_PLACEMENT_3D('',#427,#428,#429);
#313=DRAUGHTING_PRE_DEFINED_CURVE_FONT('continuous');
#314=COLOUR_RGB('',0.509803950786591,0.509803950786591,0.588235318660736);
#315=AXIS2_PLACEMENT_3D('',#430,#431,#432);
#316=SURFACE_SIDE_STYLE('',(#433));
#317=SURFACE_SIDE_STYLE('',(#434));
#318=EDGE_LOOP('',(#435,#436,#437,#438));
#319=AXIS2_PLACEMENT_3D('',#439,#440,#441);
#320=DRAUGHTING_PRE_DEFINED_CURVE_FONT('continuous');
#321=COLOUR_RGB('',0.509803950786591,0.509803950786591,0.588235318660736);
#322=AXIS2_PLACEMENT_3D('',#442,#443,#444);
#323=DRAUGHTING_PRE_DEFINED_CURVE_FONT('continuous');
#324=COLOUR_RGB('',0.509803950786591,0.509803950786591,0.588235318660736);
#325=AXIS2_PLACEMENT_3D('',#445,#446,#447);
#326=PRE_DEFINED_MARKER('');
#327=COLOUR_RGB('',0.509803950786591,0.509803950786591,0.588235318660736);
#328=SURFACE_SIDE_STYLE('',(#448));
#329=EDGE_LOOP('',(#449,#450,#451,#452));
#330=AXIS2_PLACEMENT_3D('',#453,#454,#455);
#331=PRE_DEFINED_MARKER('');
#332=COLOUR_RGB('',0.509803950786591,0.509803950786591,0.588235318660736);
#333=PRE_DEFINED_MARKER('');
#334=COLOUR_RGB('',0.509803950786591,0.509803950786591,0.588235318660736);
#335=SURFACE_SIDE_STYLE('',(#456));
#336=EDGE_LOOP('',(#457,#458));
#337=EDGE_LOOP('',(#459,#460));
#338=AXIS2_PLACEMENT_3D('',#461,#462,#463);
#339=DRAUGHTING_PRE_DEFINED_CURVE_FONT('continuous');
#340=COLOUR_RGB('',0.509803950786591,0.509803950786591,0.588235318660736);
#341=AXIS2_PLACEMENT_3D('',#464,#465,#466);
#342=PRE_DEFINED_MARKER('');
#343=COLOUR_RGB('',0.509803950786591,0.509803950786591,0.588235318660736);
#344=DRAUGHTING_PRE_DEFINED_CURVE_FONT('continuous');
#345=COLOUR_RGB('',0.509803950786591,0.509803950786591,0.588235318660736);
#346=AXIS2_PLACEMENT_3D('',#467,#468,#469);
#347=PRE_DEFINED_MARKER('');
#348=COLOUR_RGB('',0.509803950786591,0.509803950786591,0.588235318660736);
#349=SURFACE_SIDE_STYLE('',(#470));
#350=EDGE_LOOP('',(#471,#472,#473,#474));
#351=AXIS2_PLACEMENT_3D('',#475,#476,#477);
#352=DRAUGHTING_PRE_DEFINED_CURVE_FONT('continuous');
#353=COLOUR_RGB('',0.509803950786591,0.509803950786591,0.588235318660736);
#354=AXIS2_PLACEMENT_3D('',#478,#479,#480);
#355=SURFACE_SIDE_STYLE('',(#481));
#356=EDGE_LOOP('',(#482,#483,#484,#485));
#357=AXIS2_PLACEMENT_3D('',#486,#487,#488);
#358=DRAUGHTING_PRE_DEFINED_CURVE_FONT('continuous');
#359=COLOUR_RGB('',0.509803950786591,0.509803950786591,0.588235318660736);
#360=CARTESIAN_POINT('',(-10.5,3.89315420157933E-015,2.89999999999999));
#361=VECTOR('',#489,1.0);
#362=SURFACE_SIDE_STYLE('',(#490));
#363=EDGE_LOOP('',(#491,#492,#493,#494));
#364=AXIS2_PLACEMENT_3D('',#495,#496,#497);
#365=DRAUGHTING_PRE_DEFINED_CURVE_FONT('continuous');
#366=COLOUR_RGB('',0.509803950786591,0.509803950786591,0.588235318660736);
#367=CARTESIAN_POINT('',(10.5000000000001,9.80712925636861E-015,2.89999999999999));
#368=VECTOR('',#498,1.0);
#369=DRAUGHTING_PRE_DEFINED_CURVE_FONT('continuous');
#370=COLOUR_RGB('',0.509803950786591,0.509803950786591,0.588235318660736);
#371=AXIS2_PLACEMENT_3D('',#499,#500,#501);
#372=DRAUGHTING_PRE_DEFINED_CURVE_FONT('continuous');
#373=COLOUR_RGB('',0.509803950786591,0.509803950786591,0.588235318660736);
#374=AXIS2_PLACEMENT_3D('',#502,#503,#504);
#375=PRE_DEFINED_MARKER('');
#376=COLOUR_RGB('',0.509803950786591,0.509803950786591,0.588235318660736);
#377=SURFACE_SIDE_STYLE('',(#505));
#378=EDGE_LOOP('',(#506,#507));
#379=EDGE_LOOP('',(#508,#509));
#380=AXIS2_PLACEMENT_3D('',#510,#511,#512);
#381=DRAUGHTING_PRE_DEFINED_CURVE_FONT('continuous');
#382=COLOUR_RGB('',0.509803950786591,0.509803950786591,0.588235318660736);
#383=AXIS2_PLACEMENT_3D('',#513,#514,#515);
#384=PRE_DEFINED_MARKER('');
#385=COLOUR_RGB('',0.509803950786591,0.509803950786591,0.588235318660736);
#386=PRE_DEFINED_MARKER('');
#387=COLOUR_RGB('',0.509803950786591,0.509803950786591,0.588235318660736);
#388=SURFACE_SIDE_STYLE('',(#516));
#389=EDGE_LOOP('',(#517,#518,#519,#520));
#390=AXIS2_PLACEMENT_3D('',#521,#522,#523);
#391=DRAUGHTING_PRE_DEFINED_CURVE_FONT('continuous');
#392=COLOUR_RGB('',0.509803950786591,0.509803950786591,0.588235318660736);
#393=CARTESIAN_POINT('',(-10.75,3.82274973664136E-015,6.05000000000001));
#394=VECTOR('',#524,1.0);
#396=DIRECTION('',(0.707106781186548,1.99133898333789E-016,0.707106781186547));
#397=DIRECTION('',(0.0,0.0,-1.0));
#398=CARTESIAN_POINT('',(2.8421709430404E-014,6.85014172897397E-015,6.30000000000001));
#399=DIRECTION('',(-0.0,0.0,-1.0));
#400=DIRECTION('',(-1.0,-1.59157224369632E-016,0.0));
#401=DIRECTION('',(-0.0,-0.0,1.0));
#402=CARTESIAN_POINT('',(2.8421709430404E-014,6.85014172897397E-015,6.30000000000001));
#403=DIRECTION('',(-0.0,0.0,-1.0));
#404=DIRECTION('',(-1.0,-1.59157224369632E-016,0.0));
#405=CARTESIAN_POINT('',(2.8421709430404E-014,6.85014172897397E-015,4.29999999999984));
#406=DIRECTION('',(0.0,0.0,1.0));
#407=DIRECTION('',(-1.0,-1.59157224369632E-016,0.0));
#408=CARTESIAN_POINT('',(2.8421709430404E-014,6.85014172897397E-015,5.80000000000001));
#409=DIRECTION('',(-0.0,0.0,-1.0));
#410=DIRECTION('',(-1.0,-1.59157224369632E-016,0.0));
#411=SURFACE_STYLE_FILL_AREA(#525);
#412=ORIENTED_EDGE('',*,*,#137,.F.);
#413=ORIENTED_EDGE('',*,*,#119,.F.);
#414=ORIENTED_EDGE('',*,*,#101,.F.);
#415=ORIENTED_EDGE('',*,*,#83,.F.);
#416=CARTESIAN_POINT('',(1.58095758706622E-013,7.95991746736301E-015,24.4246117974983));
#417=DIRECTION('',(0.0,0.0,-1.0));
#418=DIRECTION('',(1.0,1.22460635382238E-016,0.0));
#419=SURFACE_STYLE_FILL_AREA(#526);
#420=ORIENTED_EDGE('',*,*,#129,.T.);
#421=ORIENTED_EDGE('',*,*,#125,.T.);
#422=ORIENTED_EDGE('',*,*,#133,.T.);
#423=ORIENTED_EDGE('',*,*,#85,.F.);
#424=CARTESIAN_POINT('',(2.8421709430404E-014,6.85014172897397E-015,2.89999999999999));
#425=DIRECTION('',(0.0,-0.0,1.0));
#426=DIRECTION('',(-1.0,-1.59157224369632E-016,0.0));
#427=CARTESIAN_POINT('',(1.58095758706622E-013,7.95991746736301E-015,-1.4210854715202E-014));
#428=DIRECTION('',(0.0,0.0,-1.0));
#429=DIRECTION('',(0.0,-1.0,0.0));
#430=CARTESIAN_POINT('',(2.8421709430404E-014,6.85014172897397E-015,4.29999999999984));
#431=DIRECTION('',(0.0,0.0,1.0));
#432=DIRECTION('',(-1.0,-1.59157224369632E-016,0.0));
#433=SURFACE_STYLE_FILL_AREA(#527);
#434=SURFACE_STYLE_FILL_AREA(#528);
#435=ORIENTED_EDGE('',*,*,#151,.T.);
#436=ORIENTED_EDGE('',*,*,#85,.T.);
#437=ORIENTED_EDGE('',*,*,#67,.T.);
#438=ORIENTED_EDGE('',*,*,#79,.F.);
#439=CARTESIAN_POINT('',(2.8421709430404E-014,6.85014172897397E-015,6.05000000000001));
#440=DIRECTION('',(0.0,-0.0,1.0));
#441=DIRECTION('',(-1.0,-1.59157224369632E-016,0.0));
#442=CARTESIAN_POINT('',(1.58095758706622E-013,7.95991746736301E-015,24.4246117974983));
#443=DIRECTION('',(2.44921270764476E-016,-1.0,0.0));
#444=DIRECTION('',(-0.0,0.0,1.0));
#445=CARTESIAN_POINT('',(2.8421709430404E-014,6.85014172897397E-015,-2.8421709430404E-014));
#446=DIRECTION('',(-0.0,0.0,-1.0));
#447=DIRECTION('',(-1.0,-1.59157224369632E-016,0.0));
#448=SURFACE_STYLE_FILL_AREA(#529);
#449=ORIENTED_EDGE('',*,*,#137,.T.);
#450=ORIENTED_EDGE('',*,*,#95,.F.);
#451=ORIENTED_EDGE('',*,*,#101,.T.);
#452=ORIENTED_EDGE('',*,*,#93,.F.);
#453=CARTESIAN_POINT('',(1.58095758706622E-013,7.95991746736301E-015,24.4246117974983));
#454=DIRECTION('',(0.0,0.0,-1.0));
#455=DIRECTION('',(1.0,1.22460635382238E-016,0.0));
#456=SURFACE_STYLE_FILL_AREA(#530);
#457=ORIENTED_EDGE('',*,*,#119,.T.);
#458=ORIENTED_EDGE('',*,*,#93,.T.);
#459=ORIENTED_EDGE('',*,*,#125,.F.);
#460=ORIENTED_EDGE('',*,*,#103,.F.);
#461=CARTESIAN_POINT('',(-14.25,4.71932667332303E-015,-1.4210854715202E-014));
#462=DIRECTION('',(0.0,0.0,-1.0));
#463=DIRECTION('',(1.0,1.22460635382238E-016,0.0));
#464=CARTESIAN_POINT('',(2.8421709430404E-014,6.85014172897397E-015,6.30000000000001));
#465=DIRECTION('',(-0.0,0.0,-1.0));
#466=DIRECTION('',(-1.0,-1.59157224369632E-016,0.0));
#467=CARTESIAN_POINT('',(1.58095758706622E-013,7.95991746736301E-015,-1.4210854715202E-014));
#468=DIRECTION('',(0.0,0.0,-1.0));
#469=DIRECTION('',(0.0,-1.0,0.0));
#470=SURFACE_STYLE_FILL_AREA(#531);
#471=ORIENTED_EDGE('',*,*,#129,.F.);
#472=ORIENTED_EDGE('',*,*,#143,.F.);
#473=ORIENTED_EDGE('',*,*,#133,.F.);
#474=ORIENTED_EDGE('',*,*,#103,.T.);
#475=CARTESIAN_POINT('',(2.8421709430404E-014,6.85014172897397E-015,2.89999999999999));
#476=DIRECTION('',(0.0,-0.0,1.0));
#477=DIRECTION('',(-1.0,-1.59157224369632E-016,0.0));
#478=CARTESIAN_POINT('',(2.8421709430404E-014,6.85014172897397E-015,-2.8421709430404E-014));
#479=DIRECTION('',(-0.0,0.0,-1.0));
#480=DIRECTION('',(-1.0,-1.59157224369632E-016,0.0));
#481=SURFACE_STYLE_FILL_AREA(#532);
#482=ORIENTED_EDGE('',*,*,#69,.T.);
#483=ORIENTED_EDGE('',*,*,#95,.T.);
#484=ORIENTED_EDGE('',*,*,#75,.T.);
#485=ORIENTED_EDGE('',*,*,#71,.T.);
#486=CARTESIAN_POINT('',(2.8421709430404E-014,6.85014172897397E-015,3.15000000000001));
#487=DIRECTION('',(0.0,-0.0,1.0));
#488=DIRECTION('',(-1.0,-1.59157224369632E-016,0.0));
#489=DIRECTION('',(0.0,0.0,-1.0));
#490=SURFACE_STYLE_FILL_AREA(#533);
#491=ORIENTED_EDGE('',*,*,#151,.F.);
#492=ORIENTED_EDGE('',*,*,#135,.F.);
#493=ORIENTED_EDGE('',*,*,#67,.F.);
#494=ORIENTED_EDGE('',*,*,#143,.T.);
#495=CARTESIAN_POINT('',(2.8421709430404E-014,6.85014172897397E-015,6.05000000000001));
#496=DIRECTION('',(0.0,-0.0,1.0));
#497=DIRECTION('',(-1.0,-1.59157224369632E-016,0.0));
#498=DIRECTION('',(0.0,0.0,1.0));
#499=CARTESIAN_POINT('',(2.8421709430404E-014,6.85014172897397E-015,6.30000000000001));
#500=DIRECTION('',(-0.0,0.0,-1.0));
#501=DIRECTION('',(-1.0,-1.59157224369632E-016,0.0));
#502=CARTESIAN_POINT('',(1.58095758706622E-013,7.95991746736301E-015,24.4246117974983));
#503=DIRECTION('',(2.44921270764476E-016,-1.0,0.0));
#504=DIRECTION('',(-0.0,0.0,1.0));
#505=SURFACE_STYLE_FILL_AREA(#534);
#506=ORIENTED_EDGE('',*,*,#115,.F.);
#507=ORIENTED_EDGE('',*,*,#71,.F.);
#508=ORIENTED_EDGE('',*,*,#79,.T.);
#509=ORIENTED_EDGE('',*,*,#135,.T.);
#510=CARTESIAN_POINT('',(-14.5,5.07446251593152E-015,6.30000000000001));
#511=DIRECTION('',(0.0,0.0,1.0));
#512=DIRECTION('',(-1.0,-1.22460635382238E-016,0.0));
#513=CARTESIAN_POINT('',(2.8421709430404E-014,6.85014172897397E-015,5.80000000000001));
#514=DIRECTION('',(-0.0,0.0,-1.0));
#515=DIRECTION('',(-1.0,-1.59157224369632E-016,0.0));
#516=SURFACE_STYLE_FILL_AREA(#535);
#517=ORIENTED_EDGE('',*,*,#69,.F.);
#518=ORIENTED_EDGE('',*,*,#115,.T.);
#519=ORIENTED_EDGE('',*,*,#75,.F.);
#520=ORIENTED_EDGE('',*,*,#83,.T.);
#521=CARTESIAN_POINT('',(2.8421709430404E-014,6.85014172897397E-015,3.15000000000001));
#522=DIRECTION('',(0.0,-0.0,1.0));
#523=DIRECTION('',(-1.0,-1.59157224369632E-016,0.0));
#524=DIRECTION('',(0.707106781186548,1.99133898333789E-016,-0.707106781186547));
#525=FILL_AREA_STYLE('',(#536));
#526=FILL_AREA_STYLE('',(#537));
#527=FILL_AREA_STYLE('',(#538));
#528=FILL_AREA_STYLE('',(#539));
#529=FILL_AREA_STYLE('',(#540));
#530=FILL_AREA_STYLE('',(#541));
#531=FILL_AREA_STYLE('',(#542));
#532=FILL_AREA_STYLE('',(#543));
#533=FILL_AREA_STYLE('',(#544));
#534=FILL_AREA_STYLE('',(#545));
#535=FILL_AREA_STYLE('',(#546));
#536=FILL_AREA_STYLE_COLOUR('',#547);
#537=FILL_AREA_STYLE_COLOUR('',#548);
#538=FILL_AREA_STYLE_COLOUR('',#549);
#539=FILL_AREA_STYLE_COLOUR('',#550);
#540=FILL_AREA_STYLE_COLOUR('',#551);
#541=FILL_AREA_STYLE_COLOUR('',#552);
#542=FILL_AREA_STYLE_COLOUR('',#553);
#543=FILL_AREA_STYLE_COLOUR('',#554);
#544=FILL_AREA_STYLE_COLOUR('',#555);
#545=FILL_AREA_STYLE_COLOUR('',#556);
#546=FILL_AREA_STYLE_COLOUR('',#557);
#547=COLOUR_RGB('',0.509803950786591,0.509803950786591,0.588235318660736);
#548=COLOUR_RGB('',0.509803950786591,0.509803950786591,0.588235318660736);
#549=COLOUR_RGB('',0.509803950786591,0.509803950786591,0.588235318660736);
#550=COLOUR_RGB('',0.509803950786591,0.509803950786591,0.588235318660736);
#551=COLOUR_RGB('',0.509803950786591,0.509803950786591,0.588235318660736);
#552=COLOUR_RGB('',0.509803950786591,0.509803950786591,0.588235318660736);
#553=COLOUR_RGB('',0.509803950786591,0.509803950786591,0.588235318660736);
#554=COLOUR_RGB('',0.509803950786591,0.509803950786591,0.588235318660736);
#555=COLOUR_RGB('',0.509803950786591,0.509803950786591,0.588235318660736);
#556=COLOUR_RGB('',0.509803950786591,0.509803950786591,0.588235318660736);
#557=COLOUR_RGB('',0.509803950786591,0.509803950786591,0.588235318660736);
ENDSEC;
END-ISO-10303-21;
