ISO-10303-21;
HEADER;
FILE_DESCRIPTION(('STEP AP214'),'1');
FILE_NAME(' ','  ',('TraceParts'),('TraceParts S.A.'),'XStep 1.0',' ',' ');
FILE_SCHEMA(('automotive_design'));
ENDSEC;
DATA;
#1=MECHANICAL_DESIGN_GEOMETRIC_PRESENTATION_REPRESENTATION(' ',(#10,#11,#12,#13,#14,#15,#16,#17,#18,#19,#20,#21,#22,#23,#24,#25,#26,#27,#28,#29,#30,#31,#32,#33,#34,#35,#36,#37,#38,#39,#40,#41,#42,#43,#44,#45,#46,#47,#48,#49,#50,#51,#52),#6);
#2=PRODUCT_DEFINITION_CONTEXT('',#53,'design');
#3=APPLICATION_PROTOCOL_DEFINITION('INTERNATIONAL STANDARD','automotive_design',1994,#53);
#4=PRODUCT_CATEGORY_RELATIONSHIP('NONE','NONE',#54,#55);
#5=SHAPE_DEFINITION_REPRESENTATION(#56,#57);
#6= (GEOMETRIC_REPRESENTATION_CONTEXT(3)GLOBAL_UNCERTAINTY_ASSIGNED_CONTEXT((#60))GLOBAL_UNIT_ASSIGNED_CONTEXT((#62,#63,#64))REPRESENTATION_CONTEXT('NONE','WORKSPACE'));
#10=STYLED_ITEM('',(#66),#67);
#11=STYLED_ITEM('',(#68),#69);
#12=STYLED_ITEM('',(#70),#71);
#13=STYLED_ITEM('',(#72),#73);
#14=STYLED_ITEM('',(#74),#75);
#15=STYLED_ITEM('',(#76),#77);
#16=STYLED_ITEM('',(#78),#79);
#17=STYLED_ITEM('',(#80),#81);
#18=STYLED_ITEM('',(#82),#83);
#19=STYLED_ITEM('',(#84),#85);
#20=STYLED_ITEM('',(#86),#87);
#21=STYLED_ITEM('',(#88),#89);
#22=STYLED_ITEM('',(#90),#91);
#23=STYLED_ITEM('',(#92),#93);
#24=STYLED_ITEM('',(#94),#95);
#25=STYLED_ITEM('',(#96),#97);
#26=STYLED_ITEM('',(#98),#99);
#27=STYLED_ITEM('',(#100),#101);
#28=STYLED_ITEM('',(#102),#103);
#29=STYLED_ITEM('',(#104),#105);
#30=STYLED_ITEM('',(#106),#107);
#31=STYLED_ITEM('',(#108),#109);
#32=STYLED_ITEM('',(#110),#111);
#33=STYLED_ITEM('',(#112),#113);
#34=STYLED_ITEM('',(#114),#115);
#35=STYLED_ITEM('',(#116),#117);
#36=STYLED_ITEM('',(#118),#119);
#37=STYLED_ITEM('',(#120),#121);
#38=STYLED_ITEM('',(#122),#123);
#39=STYLED_ITEM('',(#124),#125);
#40=STYLED_ITEM('',(#126),#127);
#41=STYLED_ITEM('',(#128),#129);
#42=STYLED_ITEM('',(#130),#131);
#43=STYLED_ITEM('',(#132),#133);
#44=STYLED_ITEM('',(#134),#135);
#45=STYLED_ITEM('',(#136),#137);
#46=STYLED_ITEM('',(#138),#139);
#47=STYLED_ITEM('',(#140),#141);
#48=STYLED_ITEM('',(#142),#143);
#49=STYLED_ITEM('',(#144),#145);
#50=STYLED_ITEM('',(#146),#147);
#51=STYLED_ITEM('',(#148),#149);
#52=STYLED_ITEM('',(#150),#151);
#53=APPLICATION_CONTEXT(' ');
#54=PRODUCT_CATEGORY('part','NONE');
#55=PRODUCT_RELATED_PRODUCT_CATEGORY('detail',' ',(#152));
#56=PRODUCT_DEFINITION_SHAPE('NONE','NONE',#153);
#57=ADVANCED_BREP_SHAPE_REPRESENTATION('1',(#115,#154),#6);
#60=UNCERTAINTY_MEASURE_WITH_UNIT(LENGTH_MEASURE(1.0E-006),#62,'','');
#62= (CONVERSION_BASED_UNIT('MILLIMETRE',#157)LENGTH_UNIT()NAMED_UNIT(#160));
#63= (NAMED_UNIT(#162)PLANE_ANGLE_UNIT()SI_UNIT($,.RADIAN.));
#64= (NAMED_UNIT(#162)SOLID_ANGLE_UNIT()SI_UNIT($,.STERADIAN.));
#66=PRESENTATION_STYLE_ASSIGNMENT((#168));
#67=EDGE_CURVE('',#79,#121,#169,.T.);
#68=PRESENTATION_STYLE_ASSIGNMENT((#170));
#69=EDGE_CURVE('',#135,#113,#171,.T.);
#70=PRESENTATION_STYLE_ASSIGNMENT((#172));
#71=ADVANCED_FACE('',(#173),#174,.T.);
#72=PRESENTATION_STYLE_ASSIGNMENT((#175));
#73=EDGE_CURVE('',#87,#135,#176,.T.);
#74=PRESENTATION_STYLE_ASSIGNMENT((#177));
#75=ADVANCED_FACE('',(#178),#179,.F.);
#76=PRESENTATION_STYLE_ASSIGNMENT((#180));
#77=VERTEX_POINT('',#181);
#78=PRESENTATION_STYLE_ASSIGNMENT((#182));
#79=VERTEX_POINT('',#183);
#80=PRESENTATION_STYLE_ASSIGNMENT((#184));
#81=EDGE_CURVE('',#117,#129,#185,.T.);
#82=PRESENTATION_STYLE_ASSIGNMENT((#186));
#83=ADVANCED_FACE('',(#187),#188,.T.);
#84=PRESENTATION_STYLE_ASSIGNMENT((#189));
#85=ADVANCED_FACE('',(#190),#191,.T.);
#86=PRESENTATION_STYLE_ASSIGNMENT((#192));
#87=VERTEX_POINT('',#193);
#88=PRESENTATION_STYLE_ASSIGNMENT((#194));
#89=EDGE_CURVE('',#135,#87,#195,.T.);
#90=PRESENTATION_STYLE_ASSIGNMENT((#196));
#91=EDGE_CURVE('',#147,#137,#197,.T.);
#92=PRESENTATION_STYLE_ASSIGNMENT((#198));
#93=EDGE_CURVE('',#117,#107,#199,.T.);
#94=PRESENTATION_STYLE_ASSIGNMENT((#200));
#95=ADVANCED_FACE('',(#201),#202,.F.);
#96=PRESENTATION_STYLE_ASSIGNMENT((#203));
#97=EDGE_CURVE('',#129,#79,#204,.T.);
#98=PRESENTATION_STYLE_ASSIGNMENT((#205));
#99=EDGE_CURVE('',#119,#113,#206,.T.);
#100=PRESENTATION_STYLE_ASSIGNMENT((#207));
#101=EDGE_CURVE('',#129,#117,#208,.T.);
#102=PRESENTATION_STYLE_ASSIGNMENT((#209));
#103=EDGE_CURVE('',#77,#107,#210,.T.);
#104=PRESENTATION_STYLE_ASSIGNMENT((#211));
#105=ADVANCED_FACE('',(#212),#213,.F.);
#106=PRESENTATION_STYLE_ASSIGNMENT((#214));
#107=VERTEX_POINT('',#215);
#108=PRESENTATION_STYLE_ASSIGNMENT((#216));
#109=EDGE_CURVE('',#107,#77,#217,.T.);
#110=PRESENTATION_STYLE_ASSIGNMENT((#218));
#111=EDGE_CURVE('',#113,#119,#219,.T.);
#112=PRESENTATION_STYLE_ASSIGNMENT((#220));
#113=VERTEX_POINT('',#221);
#114=PRESENTATION_STYLE_ASSIGNMENT((#222));
#115=MANIFOLD_SOLID_BREP('1',#223);
#116=PRESENTATION_STYLE_ASSIGNMENT((#224));
#117=VERTEX_POINT('',#225);
#118=PRESENTATION_STYLE_ASSIGNMENT((#226));
#119=VERTEX_POINT('',#227);
#120=PRESENTATION_STYLE_ASSIGNMENT((#228));
#121=VERTEX_POINT('',#229);
#122=PRESENTATION_STYLE_ASSIGNMENT((#230));
#123=EDGE_CURVE('',#113,#137,#231,.T.);
#124=PRESENTATION_STYLE_ASSIGNMENT((#232));
#125=ADVANCED_FACE('',(#233,#234),#235,.T.);
#126=PRESENTATION_STYLE_ASSIGNMENT((#236));
#127=ADVANCED_FACE('',(#237),#238,.T.);
#128=PRESENTATION_STYLE_ASSIGNMENT((#239));
#129=VERTEX_POINT('',#240);
#130=PRESENTATION_STYLE_ASSIGNMENT((#241));
#131=ADVANCED_FACE('',(#242,#243),#244,.T.);
#132=PRESENTATION_STYLE_ASSIGNMENT((#245));
#133=EDGE_CURVE('',#137,#147,#246,.T.);
#134=PRESENTATION_STYLE_ASSIGNMENT((#247));
#135=VERTEX_POINT('',#248);
#136=PRESENTATION_STYLE_ASSIGNMENT((#249));
#137=VERTEX_POINT('',#250);
#138=PRESENTATION_STYLE_ASSIGNMENT((#251));
#139=EDGE_CURVE('',#121,#79,#252,.T.);
#140=PRESENTATION_STYLE_ASSIGNMENT((#253));
#141=ADVANCED_FACE('',(#254),#255,.F.);
#142=PRESENTATION_STYLE_ASSIGNMENT((#256));
#143=EDGE_CURVE('',#121,#117,#257,.T.);
#144=PRESENTATION_STYLE_ASSIGNMENT((#258));
#145=EDGE_CURVE('',#147,#119,#259,.T.);
#146=PRESENTATION_STYLE_ASSIGNMENT((#260));
#147=VERTEX_POINT('',#261);
#148=PRESENTATION_STYLE_ASSIGNMENT((#262));
#149=EDGE_CURVE('',#77,#129,#263,.T.);
#150=PRESENTATION_STYLE_ASSIGNMENT((#264));
#151=EDGE_CURVE('',#119,#87,#265,.T.);
#152=PRODUCT('1','1','PART-1-DESC',(#266));
#153=PRODUCT_DEFINITION('NONE','NONE',#267,#2);
#154=AXIS2_PLACEMENT_3D('',#268,#269,#270);
#157=LENGTH_MEASURE_WITH_UNIT(LENGTH_MEASURE(1.0),#271);
#160=DIMENSIONAL_EXPONENTS(1.0,0.0,0.0,0.0,0.0,0.0,0.0);
#162=DIMENSIONAL_EXPONENTS(0.0,0.0,0.0,0.0,0.0,0.0,0.0);
#168=CURVE_STYLE('',#272,POSITIVE_LENGTH_MEASURE(1.0E-006),#273);
#169=CIRCLE('',#274,8.50000000000003);
#170=CURVE_STYLE('',#275,POSITIVE_LENGTH_MEASURE(1.0E-006),#276);
#171=LINE('',#277,#278);
#172=SURFACE_STYLE_USAGE(.BOTH.,#279);
#173=FACE_OUTER_BOUND('',#280,.T.);
#174=SPHERICAL_SURFACE('',#281,21.9999999999999);
#175=CURVE_STYLE('',#282,POSITIVE_LENGTH_MEASURE(1.0E-006),#283);
#176=CIRCLE('',#284,15.0);
#177=SURFACE_STYLE_USAGE(.BOTH.,#285);
#178=FACE_OUTER_BOUND('',#286,.T.);
#179=CYLINDRICAL_SURFACE('',#287,8.50000000000003);
#180=POINT_STYLE(' ',#288,POSITIVE_LENGTH_MEASURE(1.0E-006),#289);
#181=CARTESIAN_POINT('',(-9.0,5.38061410438711E-015,5.30000000000001));
#182=POINT_STYLE(' ',#290,POSITIVE_LENGTH_MEASURE(1.0E-006),#291);
#183=CARTESIAN_POINT('',(-8.5,5.1173237383153E-015,-2.8421709430404E-014));
#184=CURVE_STYLE('',#292,POSITIVE_LENGTH_MEASURE(1.0E-006),#293);
#185=CIRCLE('',#294,8.50000000000003);
#186=SURFACE_STYLE_USAGE(.BOTH.,#295);
#187=FACE_OUTER_BOUND('',#296,.T.);
#188=CYLINDRICAL_SURFACE('',#297,15.0);
#189=SURFACE_STYLE_USAGE(.BOTH.,#298);
#190=FACE_OUTER_BOUND('',#299,.T.);
#191=SPHERICAL_SURFACE('',#300,21.9999999999999);
#192=POINT_STYLE(' ',#301,POSITIVE_LENGTH_MEASURE(1.0E-006),#302);
#193=CARTESIAN_POINT('',(15.0000000000001,1.07286244960014E-014,5.30000000000001));
#194=CURVE_STYLE('',#303,POSITIVE_LENGTH_MEASURE(1.0E-006),#304);
#195=CIRCLE('',#305,15.0);
#196=CURVE_STYLE('',#306,POSITIVE_LENGTH_MEASURE(1.0E-006),#307);
#197=CIRCLE('',#308,8.9583583587927);
#198=CURVE_STYLE('',#309,POSITIVE_LENGTH_MEASURE(1.0E-006),#310);
#199=LINE('',#311,#312);
#200=SURFACE_STYLE_USAGE(.BOTH.,#313);
#201=FACE_OUTER_BOUND('',#314,.T.);
#202=CYLINDRICAL_SURFACE('',#315,8.50000000000003);
#203=CURVE_STYLE('',#316,POSITIVE_LENGTH_MEASURE(1.0E-006),#317);
#204=LINE('',#318,#319);
#205=CURVE_STYLE('',#320,POSITIVE_LENGTH_MEASURE(1.0E-006),#321);
#206=CIRCLE('',#322,15.0);
#207=CURVE_STYLE('',#323,POSITIVE_LENGTH_MEASURE(1.0E-006),#324);
#208=CIRCLE('',#325,8.50000000000003);
#209=CURVE_STYLE('',#326,POSITIVE_LENGTH_MEASURE(1.0E-006),#327);
#210=CIRCLE('',#328,9.00000000000003);
#211=SURFACE_STYLE_USAGE(.BOTH.,#329);
#212=FACE_OUTER_BOUND('',#330,.T.);
#213=CONICAL_SURFACE('',#331,8.75000000000003,0.785398163397448);
#214=POINT_STYLE(' ',#332,POSITIVE_LENGTH_MEASURE(1.0E-006),#333);
#215=CARTESIAN_POINT('',(9.00000000000006,9.03027862673172E-015,5.30000000000001));
#216=CURVE_STYLE('',#334,POSITIVE_LENGTH_MEASURE(1.0E-006),#335);
#217=CIRCLE('',#336,9.00000000000003);
#218=CURVE_STYLE('',#337,POSITIVE_LENGTH_MEASURE(1.0E-006),#338);
#219=CIRCLE('',#339,15.0);
#220=POINT_STYLE(' ',#340,POSITIVE_LENGTH_MEASURE(1.0E-006),#341);
#221=CARTESIAN_POINT('',(-14.9999999999999,4.56625087909524E-015,4.00000000000001));
#222=SURFACE_STYLE_USAGE(.BOTH.,#342);
#223=CLOSED_SHELL('',(#95,#127,#141,#85,#71,#105,#131,#83,#125,#75));
#224=POINT_STYLE(' ',#343,POSITIVE_LENGTH_MEASURE(1.0E-006),#344);
#225=CARTESIAN_POINT('',(8.50000000000006,8.88874980429259E-015,4.80000000000001));
#226=POINT_STYLE(' ',#345,POSITIVE_LENGTH_MEASURE(1.0E-006),#346);
#227=CARTESIAN_POINT('',(15.0000000000001,1.1062388177052E-014,4.00000000000001));
#228=POINT_STYLE(' ',#347,POSITIVE_LENGTH_MEASURE(1.0E-006),#348);
#229=CARTESIAN_POINT('',(8.50000000000006,8.88874980429259E-015,-2.8421709430404E-014));
#230=CURVE_STYLE('',#349,POSITIVE_LENGTH_MEASURE(1.0E-006),#350);
#231=CIRCLE('',#351,21.9999999999999);
#232=SURFACE_STYLE_USAGE(.BOTH.,#352);
#233=FACE_OUTER_BOUND('',#353,.T.);
#234=FACE_BOUND('',#354,.T.);
#235=PLANE('',#355);
#236=SURFACE_STYLE_USAGE(.BOTH.,#356);
#237=FACE_OUTER_BOUND('',#357,.T.);
#238=CYLINDRICAL_SURFACE('',#358,15.0);
#239=POINT_STYLE(' ',#359,POSITIVE_LENGTH_MEASURE(1.0E-006),#360);
#240=CARTESIAN_POINT('',(-8.5,5.41122926323267E-015,4.80000000000001));
#241=SURFACE_STYLE_USAGE(.BOTH.,#361);
#242=FACE_OUTER_BOUND('',#362,.T.);
#243=FACE_BOUND('',#363,.T.);
#244=PLANE('',#364);
#245=CURVE_STYLE('',#365,POSITIVE_LENGTH_MEASURE(1.0E-006),#366);
#246=CIRCLE('',#367,8.9583583587927);
#247=POINT_STYLE(' ',#368,POSITIVE_LENGTH_MEASURE(1.0E-006),#369);
#248=CARTESIAN_POINT('',(-15.0,4.64585029209369E-015,5.30000000000001));
#249=POINT_STYLE(' ',#370,POSITIVE_LENGTH_MEASURE(1.0E-006),#371);
#250=CARTESIAN_POINT('',(-8.95835835879261,5.0611928824648E-015,-1.77635683940025E-014));
#251=CURVE_STYLE('',#372,POSITIVE_LENGTH_MEASURE(1.0E-006),#373);
#252=CIRCLE('',#374,8.50000000000003);
#253=SURFACE_STYLE_USAGE(.BOTH.,#375);
#254=FACE_OUTER_BOUND('',#376,.T.);
#255=CONICAL_SURFACE('',#377,8.75000000000003,0.785398163397448);
#256=CURVE_STYLE('',#378,POSITIVE_LENGTH_MEASURE(1.0E-006),#379);
#257=LINE('',#380,#381);
#258=CURVE_STYLE('',#382,POSITIVE_LENGTH_MEASURE(1.0E-006),#383);
#259=CIRCLE('',#384,21.9999999999999);
#260=POINT_STYLE(' ',#385,POSITIVE_LENGTH_MEASURE(1.0E-006),#386);
#261=CARTESIAN_POINT('',(8.95835835879269,9.58266162878392E-015,-1.4210854715202E-014));
#262=CURVE_STYLE('',#387,POSITIVE_LENGTH_MEASURE(1.0E-006),#388);
#263=LINE('',#389,#390);
#264=CURVE_STYLE('',#391,POSITIVE_LENGTH_MEASURE(1.0E-006),#392);
#265=LINE('',#393,#394);
#266=PRODUCT_CONTEXT('',#53,'mechanical');
#267=PRODUCT_DEFINITION_FORMATION_WITH_SPECIFIED_SOURCE(' ','NONE',#152,.NOT_KNOWN.);
#268=CARTESIAN_POINT('',(0.0,0.0,0.0));
#269=DIRECTION('',(0.0,0.0,1.0));
#270=DIRECTION('',(1.0,0.0,0.0));
#271= (NAMED_UNIT(#160)LENGTH_UNIT()SI_UNIT(.MILLI.,.METRE.));
#272=DRAUGHTING_PRE_DEFINED_CURVE_FONT('continuous');
#273=COLOUR_RGB('',0.509803950786591,0.509803950786591,0.588235318660736);
#274=AXIS2_PLACEMENT_3D('',#396,#397,#398);
#275=DRAUGHTING_PRE_DEFINED_CURVE_FONT('continuous');
#276=COLOUR_RGB('',0.509803950786591,0.509803950786591,0.588235318660736);
#277=CARTESIAN_POINT('',(-15.0,2.23689514965315E-015,4.65000000000001));
#278=VECTOR('',#399,1.0);
#279=SURFACE_SIDE_STYLE('',(#400));
#280=EDGE_LOOP('',(#401,#402,#403,#404));
#281=AXIS2_PLACEMENT_3D('',#405,#406,#407);
#282=DRAUGHTING_PRE_DEFINED_CURVE_FONT('continuous');
#283=COLOUR_RGB('',0.509803950786591,0.509803950786591,0.588235318660736);
#284=AXIS2_PLACEMENT_3D('',#408,#409,#410);
#285=SURFACE_SIDE_STYLE('',(#411));
#286=EDGE_LOOP('',(#412,#413,#414,#415));
#287=AXIS2_PLACEMENT_3D('',#416,#417,#418);
#288=PRE_DEFINED_MARKER('');
#289=COLOUR_RGB('',0.509803950786591,0.509803950786591,0.588235318660736);
#290=PRE_DEFINED_MARKER('');
#291=COLOUR_RGB('',0.509803950786591,0.509803950786591,0.588235318660736);
#292=DRAUGHTING_PRE_DEFINED_CURVE_FONT('continuous');
#293=COLOUR_RGB('',0.509803950786591,0.509803950786591,0.588235318660736);
#294=AXIS2_PLACEMENT_3D('',#419,#420,#421);
#295=SURFACE_SIDE_STYLE('',(#422));
#296=EDGE_LOOP('',(#423,#424,#425,#426));
#297=AXIS2_PLACEMENT_3D('',#427,#428,#429);
#298=SURFACE_SIDE_STYLE('',(#430));
#299=EDGE_LOOP('',(#431,#432,#433,#434));
#300=AXIS2_PLACEMENT_3D('',#435,#436,#437);
#301=PRE_DEFINED_MARKER('');
#302=COLOUR_RGB('',0.509803950786591,0.509803950786591,0.588235318660736);
#303=DRAUGHTING_PRE_DEFINED_CURVE_FONT('continuous');
#304=COLOUR_RGB('',0.509803950786591,0.509803950786591,0.588235318660736);
#305=AXIS2_PLACEMENT_3D('',#438,#439,#440);
#306=DRAUGHTING_PRE_DEFINED_CURVE_FONT('continuous');
#307=COLOUR_RGB('',0.509803950786591,0.509803950786591,0.588235318660736);
#308=AXIS2_PLACEMENT_3D('',#441,#442,#443);
#309=DRAUGHTING_PRE_DEFINED_CURVE_FONT('continuous');
#310=COLOUR_RGB('',0.509803950786591,0.509803950786591,0.588235318660736);
#311=CARTESIAN_POINT('',(8.75000000000006,8.95951421551215E-015,5.05000000000001));
#312=VECTOR('',#444,1.0);
#313=SURFACE_SIDE_STYLE('',(#445));
#314=EDGE_LOOP('',(#446,#447,#448,#449));
#315=AXIS2_PLACEMENT_3D('',#450,#451,#452);
#316=DRAUGHTING_PRE_DEFINED_CURVE_FONT('continuous');
#317=COLOUR_RGB('',0.509803950786591,0.509803950786591,0.588235318660736);
#318=CARTESIAN_POINT('',(-8.5,4.07676984136193E-015,2.39999999999999));
#319=VECTOR('',#453,1.0);
#320=DRAUGHTING_PRE_DEFINED_CURVE_FONT('continuous');
#321=COLOUR_RGB('',0.509803950786591,0.509803950786591,0.588235318660736);
#322=AXIS2_PLACEMENT_3D('',#454,#455,#456);
#323=DRAUGHTING_PRE_DEFINED_CURVE_FONT('continuous');
#324=COLOUR_RGB('',0.509803950786591,0.509803950786591,0.588235318660736);
#325=AXIS2_PLACEMENT_3D('',#457,#458,#459);
#326=DRAUGHTING_PRE_DEFINED_CURVE_FONT('continuous');
#327=COLOUR_RGB('',0.509803950786591,0.509803950786591,0.588235318660736);
#328=AXIS2_PLACEMENT_3D('',#460,#461,#462);
#329=SURFACE_SIDE_STYLE('',(#463));
#330=EDGE_LOOP('',(#464,#465,#466,#467));
#331=AXIS2_PLACEMENT_3D('',#468,#469,#470);
#332=PRE_DEFINED_MARKER('');
#333=COLOUR_RGB('',0.509803950786591,0.509803950786591,0.588235318660736);
#334=DRAUGHTING_PRE_DEFINED_CURVE_FONT('continuous');
#335=COLOUR_RGB('',0.509803950786591,0.509803950786591,0.588235318660736);
#336=AXIS2_PLACEMENT_3D('',#471,#472,#473);
#337=DRAUGHTING_PRE_DEFINED_CURVE_FONT('continuous');
#338=COLOUR_RGB('',0.509803950786591,0.509803950786591,0.588235318660736);
#339=AXIS2_PLACEMENT_3D('',#474,#475,#476);
#340=PRE_DEFINED_MARKER('');
#341=COLOUR_RGB('',0.509803950786591,0.509803950786591,0.588235318660736);
#342=SURFACE_SIDE_STYLE('',(#477));
#343=PRE_DEFINED_MARKER('');
#344=COLOUR_RGB('',0.509803950786591,0.509803950786591,0.588235318660736);
#345=PRE_DEFINED_MARKER('');
#346=COLOUR_RGB('',0.509803950786591,0.509803950786591,0.588235318660736);
#347=PRE_DEFINED_MARKER('');
#348=COLOUR_RGB('',0.509803950786591,0.509803950786591,0.588235318660736);
#349=DRAUGHTING_PRE_DEFINED_CURVE_FONT('continuous');
#350=COLOUR_RGB('',0.509803950786591,0.509803950786591,0.588235318660736);
#351=AXIS2_PLACEMENT_3D('',#478,#479,#480);
#352=SURFACE_SIDE_STYLE('',(#481));
#353=EDGE_LOOP('',(#482,#483));
#354=EDGE_LOOP('',(#484,#485));
#355=AXIS2_PLACEMENT_3D('',#486,#487,#488);
#356=SURFACE_SIDE_STYLE('',(#489));
#357=EDGE_LOOP('',(#490,#491,#492,#493));
#358=AXIS2_PLACEMENT_3D('',#494,#495,#496);
#359=PRE_DEFINED_MARKER('');
#360=COLOUR_RGB('',0.509803950786591,0.509803950786591,0.588235318660736);
#361=SURFACE_SIDE_STYLE('',(#497));
#362=EDGE_LOOP('',(#498,#499));
#363=EDGE_LOOP('',(#500,#501));
#364=AXIS2_PLACEMENT_3D('',#502,#503,#504);
#365=DRAUGHTING_PRE_DEFINED_CURVE_FONT('continuous');
#366=COLOUR_RGB('',0.509803950786591,0.509803950786591,0.588235318660736);
#367=AXIS2_PLACEMENT_3D('',#505,#506,#507);
#368=PRE_DEFINED_MARKER('');
#369=COLOUR_RGB('',0.509803950786591,0.509803950786591,0.588235318660736);
#370=PRE_DEFINED_MARKER('');
#371=COLOUR_RGB('',0.509803950786591,0.509803950786591,0.588235318660736);
#372=DRAUGHTING_PRE_DEFINED_CURVE_FONT('continuous');
#373=COLOUR_RGB('',0.509803950786591,0.509803950786591,0.588235318660736);
#374=AXIS2_PLACEMENT_3D('',#508,#509,#510);
#375=SURFACE_SIDE_STYLE('',(#511));
#376=EDGE_LOOP('',(#512,#513,#514,#515));
#377=AXIS2_PLACEMENT_3D('',#516,#517,#518);
#378=DRAUGHTING_PRE_DEFINED_CURVE_FONT('continuous');
#379=COLOUR_RGB('',0.509803950786591,0.509803950786591,0.588235318660736);
#380=CARTESIAN_POINT('',(8.50000000000006,8.88874980429259E-015,2.39999999999999));
#381=VECTOR('',#519,1.0);
#382=DRAUGHTING_PRE_DEFINED_CURVE_FONT('continuous');
#383=COLOUR_RGB('',0.509803950786591,0.509803950786591,0.588235318660736);
#384=AXIS2_PLACEMENT_3D('',#520,#521,#522);
#385=PRE_DEFINED_MARKER('');
#386=COLOUR_RGB('',0.509803950786591,0.509803950786591,0.588235318660736);
#387=DRAUGHTING_PRE_DEFINED_CURVE_FONT('continuous');
#388=COLOUR_RGB('',0.509803950786591,0.509803950786591,0.588235318660736);
#389=CARTESIAN_POINT('',(-8.75,4.00600543014236E-015,5.05000000000001));
#390=VECTOR('',#523,1.0);
#391=DRAUGHTING_PRE_DEFINED_CURVE_FONT('continuous');
#392=COLOUR_RGB('',0.509803950786591,0.509803950786591,0.588235318660736);
#393=CARTESIAN_POINT('',(15.0000000000001,1.07286244960014E-014,4.65000000000001));
#394=VECTOR('',#524,1.0);
#396=CARTESIAN_POINT('',(2.8421709430404E-014,6.48275982282726E-015,-2.8421709430404E-014));
#397=DIRECTION('',(-0.0,0.0,-1.0));
#398=DIRECTION('',(-1.0,-1.60597009496036E-016,0.0));
#399=DIRECTION('',(0.0,0.0,-1.0));
#400=SURFACE_STYLE_FILL_AREA(#525);
#401=ORIENTED_EDGE('',*,*,#145,.T.);
#402=ORIENTED_EDGE('',*,*,#111,.F.);
#403=ORIENTED_EDGE('',*,*,#123,.T.);
#404=ORIENTED_EDGE('',*,*,#91,.F.);
#405=CARTESIAN_POINT('',(-1.06581410364015E-014,7.38856911558485E-015,20.093476939431));
#406=DIRECTION('',(0.0,0.0,-1.0));
#407=DIRECTION('',(1.0,1.22460635382238E-016,0.0));
#408=CARTESIAN_POINT('',(2.8421709430404E-014,6.48275982282726E-015,5.30000000000001));
#409=DIRECTION('',(-0.0,0.0,-1.0));
#410=DIRECTION('',(-1.0,-1.60597009496036E-016,0.0));
#411=SURFACE_STYLE_FILL_AREA(#526);
#412=ORIENTED_EDGE('',*,*,#97,.T.);
#413=ORIENTED_EDGE('',*,*,#67,.T.);
#414=ORIENTED_EDGE('',*,*,#143,.T.);
#415=ORIENTED_EDGE('',*,*,#101,.F.);
#416=CARTESIAN_POINT('',(2.8421709430404E-014,6.48275982282726E-015,2.39999999999999));
#417=DIRECTION('',(0.0,-0.0,1.0));
#418=DIRECTION('',(-1.0,-1.60597009496036E-016,0.0));
#419=CARTESIAN_POINT('',(2.8421709430404E-014,6.48275982282726E-015,4.80000000000001));
#420=DIRECTION('',(-0.0,0.0,-1.0));
#421=DIRECTION('',(-1.0,-1.60597009496036E-016,0.0));
#422=SURFACE_STYLE_FILL_AREA(#527);
#423=ORIENTED_EDGE('',*,*,#69,.T.);
#424=ORIENTED_EDGE('',*,*,#111,.T.);
#425=ORIENTED_EDGE('',*,*,#151,.T.);
#426=ORIENTED_EDGE('',*,*,#73,.T.);
#427=CARTESIAN_POINT('',(2.8421709430404E-014,6.48275982282726E-015,2.65000000000001));
#428=DIRECTION('',(0.0,-0.0,1.0));
#429=DIRECTION('',(-1.0,-1.60597009496036E-016,0.0));
#430=SURFACE_STYLE_FILL_AREA(#528);
#431=ORIENTED_EDGE('',*,*,#145,.F.);
#432=ORIENTED_EDGE('',*,*,#133,.F.);
#433=ORIENTED_EDGE('',*,*,#123,.F.);
#434=ORIENTED_EDGE('',*,*,#99,.F.);
#435=CARTESIAN_POINT('',(-1.06581410364015E-014,7.38856911558485E-015,20.093476939431));
#436=DIRECTION('',(0.0,0.0,-1.0));
#437=DIRECTION('',(1.0,1.22460635382238E-016,0.0));
#438=CARTESIAN_POINT('',(2.8421709430404E-014,6.48275982282726E-015,5.30000000000001));
#439=DIRECTION('',(-0.0,0.0,-1.0));
#440=DIRECTION('',(-1.0,-1.60597009496036E-016,0.0));
#441=CARTESIAN_POINT('',(-1.06581410364015E-014,7.38856911558485E-015,-1.4210854715202E-014));
#442=DIRECTION('',(0.0,0.0,-1.0));
#443=DIRECTION('',(0.0,-1.0,0.0));
#444=DIRECTION('',(0.707106781186548,2.00151980160121E-016,0.707106781186547));
#445=SURFACE_STYLE_FILL_AREA(#529);
#446=ORIENTED_EDGE('',*,*,#97,.F.);
#447=ORIENTED_EDGE('',*,*,#81,.F.);
#448=ORIENTED_EDGE('',*,*,#143,.F.);
#449=ORIENTED_EDGE('',*,*,#139,.T.);
#450=CARTESIAN_POINT('',(2.8421709430404E-014,6.48275982282726E-015,2.39999999999999));
#451=DIRECTION('',(0.0,-0.0,1.0));
#452=DIRECTION('',(-1.0,-1.60597009496036E-016,0.0));
#453=DIRECTION('',(0.0,0.0,-1.0));
#454=CARTESIAN_POINT('',(2.8421709430404E-014,6.48275982282726E-015,4.00000000000001));
#455=DIRECTION('',(0.0,0.0,1.0));
#456=DIRECTION('',(-1.0,-1.60597009496036E-016,0.0));
#457=CARTESIAN_POINT('',(2.8421709430404E-014,6.48275982282726E-015,4.80000000000001));
#458=DIRECTION('',(-0.0,0.0,-1.0));
#459=DIRECTION('',(-1.0,-1.60597009496036E-016,0.0));
#460=CARTESIAN_POINT('',(2.8421709430404E-014,6.48275982282726E-015,5.30000000000001));
#461=DIRECTION('',(-0.0,0.0,-1.0));
#462=DIRECTION('',(-1.0,-1.60597009496036E-016,0.0));
#463=SURFACE_STYLE_FILL_AREA(#530);
#464=ORIENTED_EDGE('',*,*,#149,.T.);
#465=ORIENTED_EDGE('',*,*,#101,.T.);
#466=ORIENTED_EDGE('',*,*,#93,.T.);
#467=ORIENTED_EDGE('',*,*,#103,.F.);
#468=CARTESIAN_POINT('',(2.8421709430404E-014,6.48275982282726E-015,5.05000000000001));
#469=DIRECTION('',(0.0,-0.0,1.0));
#470=DIRECTION('',(-1.0,-1.60597009496036E-016,0.0));
#471=CARTESIAN_POINT('',(2.8421709430404E-014,6.48275982282726E-015,5.30000000000001));
#472=DIRECTION('',(-0.0,0.0,-1.0));
#473=DIRECTION('',(-1.0,-1.60597009496036E-016,0.0));
#474=CARTESIAN_POINT('',(2.8421709430404E-014,6.48275982282726E-015,4.00000000000001));
#475=DIRECTION('',(0.0,0.0,1.0));
#476=DIRECTION('',(-1.0,-1.60597009496036E-016,0.0));
#477=SURFACE_STYLE_FILL_AREA(#531);
#478=CARTESIAN_POINT('',(-1.06581410364015E-014,7.38856911558485E-015,20.093476939431));
#479=DIRECTION('',(2.44921270764475E-016,-1.0,0.0));
#480=DIRECTION('',(-0.0,0.0,1.0));
#481=SURFACE_STYLE_FILL_AREA(#532);
#482=ORIENTED_EDGE('',*,*,#133,.T.);
#483=ORIENTED_EDGE('',*,*,#91,.T.);
#484=ORIENTED_EDGE('',*,*,#67,.F.);
#485=ORIENTED_EDGE('',*,*,#139,.F.);
#486=CARTESIAN_POINT('',(-11.75,4.71932667332303E-015,-1.4210854715202E-014));
#487=DIRECTION('',(0.0,0.0,-1.0));
#488=DIRECTION('',(1.0,1.22460635382238E-016,0.0));
#489=SURFACE_STYLE_FILL_AREA(#533);
#490=ORIENTED_EDGE('',*,*,#69,.F.);
#491=ORIENTED_EDGE('',*,*,#89,.T.);
#492=ORIENTED_EDGE('',*,*,#151,.F.);
#493=ORIENTED_EDGE('',*,*,#99,.T.);
#494=CARTESIAN_POINT('',(2.8421709430404E-014,6.48275982282726E-015,2.65000000000001));
#495=DIRECTION('',(0.0,-0.0,1.0));
#496=DIRECTION('',(-1.0,-1.60597009496036E-016,0.0));
#497=SURFACE_STYLE_FILL_AREA(#534);
#498=ORIENTED_EDGE('',*,*,#89,.F.);
#499=ORIENTED_EDGE('',*,*,#73,.F.);
#500=ORIENTED_EDGE('',*,*,#103,.T.);
#501=ORIENTED_EDGE('',*,*,#109,.T.);
#502=CARTESIAN_POINT('',(-12.0,5.0132321982404E-015,5.30000000000001));
#503=DIRECTION('',(0.0,0.0,1.0));
#504=DIRECTION('',(-1.0,-1.22460635382238E-016,0.0));
#505=CARTESIAN_POINT('',(-1.06581410364015E-014,7.38856911558485E-015,-1.4210854715202E-014));
#506=DIRECTION('',(0.0,0.0,-1.0));
#507=DIRECTION('',(0.0,-1.0,0.0));
#508=CARTESIAN_POINT('',(2.8421709430404E-014,6.48275982282726E-015,-2.8421709430404E-014));
#509=DIRECTION('',(-0.0,0.0,-1.0));
#510=DIRECTION('',(-1.0,-1.60597009496036E-016,0.0));
#511=SURFACE_STYLE_FILL_AREA(#535);
#512=ORIENTED_EDGE('',*,*,#149,.F.);
#513=ORIENTED_EDGE('',*,*,#109,.F.);
#514=ORIENTED_EDGE('',*,*,#93,.F.);
#515=ORIENTED_EDGE('',*,*,#81,.T.);
#516=CARTESIAN_POINT('',(2.8421709430404E-014,6.48275982282726E-015,5.05000000000001));
#517=DIRECTION('',(0.0,-0.0,1.0));
#518=DIRECTION('',(-1.0,-1.60597009496036E-016,0.0));
#519=DIRECTION('',(0.0,0.0,1.0));
#520=CARTESIAN_POINT('',(-1.06581410364015E-014,7.38856911558485E-015,20.093476939431));
#521=DIRECTION('',(2.44921270764475E-016,-1.0,0.0));
#522=DIRECTION('',(-0.0,0.0,1.0));
#523=DIRECTION('',(0.707106781186548,2.00151980160121E-016,-0.707106781186547));
#524=DIRECTION('',(-0.0,-0.0,1.0));
#525=FILL_AREA_STYLE('',(#536));
#526=FILL_AREA_STYLE('',(#537));
#527=FILL_AREA_STYLE('',(#538));
#528=FILL_AREA_STYLE('',(#539));
#529=FILL_AREA_STYLE('',(#540));
#530=FILL_AREA_STYLE('',(#541));
#531=FILL_AREA_STYLE('',(#542));
#532=FILL_AREA_STYLE('',(#543));
#533=FILL_AREA_STYLE('',(#544));
#534=FILL_AREA_STYLE('',(#545));
#535=FILL_AREA_STYLE('',(#546));
#536=FILL_AREA_STYLE_COLOUR('',#547);
#537=FILL_AREA_STYLE_COLOUR('',#548);
#538=FILL_AREA_STYLE_COLOUR('',#549);
#539=FILL_AREA_STYLE_COLOUR('',#550);
#540=FILL_AREA_STYLE_COLOUR('',#551);
#541=FILL_AREA_STYLE_COLOUR('',#552);
#542=FILL_AREA_STYLE_COLOUR('',#553);
#543=FILL_AREA_STYLE_COLOUR('',#554);
#544=FILL_AREA_STYLE_COLOUR('',#555);
#545=FILL_AREA_STYLE_COLOUR('',#556);
#546=FILL_AREA_STYLE_COLOUR('',#557);
#547=COLOUR_RGB('',0.509803950786591,0.509803950786591,0.588235318660736);
#548=COLOUR_RGB('',0.509803950786591,0.509803950786591,0.588235318660736);
#549=COLOUR_RGB('',0.509803950786591,0.509803950786591,0.588235318660736);
#550=COLOUR_RGB('',0.509803950786591,0.509803950786591,0.588235318660736);
#551=COLOUR_RGB('',0.509803950786591,0.509803950786591,0.588235318660736);
#552=COLOUR_RGB('',0.509803950786591,0.509803950786591,0.588235318660736);
#553=COLOUR_RGB('',0.509803950786591,0.509803950786591,0.588235318660736);
#554=COLOUR_RGB('',0.509803950786591,0.509803950786591,0.588235318660736);
#555=COLOUR_RGB('',0.509803950786591,0.509803950786591,0.588235318660736);
#556=COLOUR_RGB('',0.509803950786591,0.509803950786591,0.588235318660736);
#557=COLOUR_RGB('',0.509803950786591,0.509803950786591,0.588235318660736);
ENDSEC;
END-ISO-10303-21;
