ISO-10303-21;
HEADER;
FILE_DESCRIPTION(('STEP AP214'),'1');
FILE_NAME(' ','  ',('TraceParts'),('TraceParts S.A.'),'XStep 1.0',' ',' ');
FILE_SCHEMA(('automotive_design'));
ENDSEC;
DATA;
#1=MECHANICAL_DESIGN_GEOMETRIC_PRESENTATION_REPRESENTATION(' ',(#10,#11,#12,#13,#14,#15,#16,#17,#18,#19,#20,#21,#22,#23,#24,#25,#26,#27,#28,#29,#30,#31,#32,#33,#34,#35,#36,#37,#38,#39,#40,#41,#42,#43,#44,#45,#46,#47,#48,#49,#50,#51,#52),#6);
#2=PRODUCT_DEFINITION_CONTEXT('',#53,'design');
#3=APPLICATION_PROTOCOL_DEFINITION('INTERNATIONAL STANDARD','automotive_design',1994,#53);
#4=PRODUCT_CATEGORY_RELATIONSHIP('NONE','NONE',#54,#55);
#5=SHAPE_DEFINITION_REPRESENTATION(#56,#57);
#6= (GEOMETRIC_REPRESENTATION_CONTEXT(3)GLOBAL_UNCERTAINTY_ASSIGNED_CONTEXT((#60))GLOBAL_UNIT_ASSIGNED_CONTEXT((#62,#63,#64))REPRESENTATION_CONTEXT('NONE','WORKSPACE'));
#10=STYLED_ITEM('',(#66),#67);
#11=STYLED_ITEM('',(#68),#69);
#12=STYLED_ITEM('',(#70),#71);
#13=STYLED_ITEM('',(#72),#73);
#14=STYLED_ITEM('',(#74),#75);
#15=STYLED_ITEM('',(#76),#77);
#16=STYLED_ITEM('',(#78),#79);
#17=STYLED_ITEM('',(#80),#81);
#18=STYLED_ITEM('',(#82),#83);
#19=STYLED_ITEM('',(#84),#85);
#20=STYLED_ITEM('',(#86),#87);
#21=STYLED_ITEM('',(#88),#89);
#22=STYLED_ITEM('',(#90),#91);
#23=STYLED_ITEM('',(#92),#93);
#24=STYLED_ITEM('',(#94),#95);
#25=STYLED_ITEM('',(#96),#97);
#26=STYLED_ITEM('',(#98),#99);
#27=STYLED_ITEM('',(#100),#101);
#28=STYLED_ITEM('',(#102),#103);
#29=STYLED_ITEM('',(#104),#105);
#30=STYLED_ITEM('',(#106),#107);
#31=STYLED_ITEM('',(#108),#109);
#32=STYLED_ITEM('',(#110),#111);
#33=STYLED_ITEM('',(#112),#113);
#34=STYLED_ITEM('',(#114),#115);
#35=STYLED_ITEM('',(#116),#117);
#36=STYLED_ITEM('',(#118),#119);
#37=STYLED_ITEM('',(#120),#121);
#38=STYLED_ITEM('',(#122),#123);
#39=STYLED_ITEM('',(#124),#125);
#40=STYLED_ITEM('',(#126),#127);
#41=STYLED_ITEM('',(#128),#129);
#42=STYLED_ITEM('',(#130),#131);
#43=STYLED_ITEM('',(#132),#133);
#44=STYLED_ITEM('',(#134),#135);
#45=STYLED_ITEM('',(#136),#137);
#46=STYLED_ITEM('',(#138),#139);
#47=STYLED_ITEM('',(#140),#141);
#48=STYLED_ITEM('',(#142),#143);
#49=STYLED_ITEM('',(#144),#145);
#50=STYLED_ITEM('',(#146),#147);
#51=STYLED_ITEM('',(#148),#149);
#52=STYLED_ITEM('',(#150),#151);
#53=APPLICATION_CONTEXT(' ');
#54=PRODUCT_CATEGORY('part','NONE');
#55=PRODUCT_RELATED_PRODUCT_CATEGORY('detail',' ',(#152));
#56=PRODUCT_DEFINITION_SHAPE('NONE','NONE',#153);
#57=ADVANCED_BREP_SHAPE_REPRESENTATION('1',(#117,#154),#6);
#60=UNCERTAINTY_MEASURE_WITH_UNIT(LENGTH_MEASURE(1.0E-006),#62,'','');
#62= (CONVERSION_BASED_UNIT('MILLIMETRE',#157)LENGTH_UNIT()NAMED_UNIT(#160));
#63= (NAMED_UNIT(#162)PLANE_ANGLE_UNIT()SI_UNIT($,.RADIAN.));
#64= (NAMED_UNIT(#162)SOLID_ANGLE_UNIT()SI_UNIT($,.STERADIAN.));
#66=PRESENTATION_STYLE_ASSIGNMENT((#168));
#67=VERTEX_POINT('',#169);
#68=PRESENTATION_STYLE_ASSIGNMENT((#170));
#69=VERTEX_POINT('',#171);
#70=PRESENTATION_STYLE_ASSIGNMENT((#172));
#71=EDGE_CURVE('',#115,#105,#173,.T.);
#72=PRESENTATION_STYLE_ASSIGNMENT((#174));
#73=EDGE_CURVE('',#95,#137,#175,.T.);
#74=PRESENTATION_STYLE_ASSIGNMENT((#176));
#75=EDGE_CURVE('',#137,#95,#177,.T.);
#76=PRESENTATION_STYLE_ASSIGNMENT((#178));
#77=ADVANCED_FACE('',(#179),#180,.F.);
#78=PRESENTATION_STYLE_ASSIGNMENT((#181));
#79=EDGE_CURVE('',#93,#69,#182,.T.);
#80=PRESENTATION_STYLE_ASSIGNMENT((#183));
#81=VERTEX_POINT('',#184);
#82=PRESENTATION_STYLE_ASSIGNMENT((#185));
#83=EDGE_CURVE('',#81,#107,#186,.T.);
#84=PRESENTATION_STYLE_ASSIGNMENT((#187));
#85=EDGE_CURVE('',#93,#105,#188,.T.);
#86=PRESENTATION_STYLE_ASSIGNMENT((#189));
#87=EDGE_CURVE('',#107,#67,#190,.T.);
#88=PRESENTATION_STYLE_ASSIGNMENT((#191));
#89=ADVANCED_FACE('',(#192),#193,.T.);
#90=PRESENTATION_STYLE_ASSIGNMENT((#194));
#91=ADVANCED_FACE('',(#195),#196,.F.);
#92=PRESENTATION_STYLE_ASSIGNMENT((#197));
#93=VERTEX_POINT('',#198);
#94=PRESENTATION_STYLE_ASSIGNMENT((#199));
#95=VERTEX_POINT('',#200);
#96=PRESENTATION_STYLE_ASSIGNMENT((#201));
#97=EDGE_CURVE('',#95,#93,#202,.T.);
#98=PRESENTATION_STYLE_ASSIGNMENT((#203));
#99=EDGE_CURVE('',#105,#115,#204,.T.);
#100=PRESENTATION_STYLE_ASSIGNMENT((#205));
#101=EDGE_CURVE('',#147,#81,#206,.T.);
#102=PRESENTATION_STYLE_ASSIGNMENT((#207));
#103=EDGE_CURVE('',#67,#147,#208,.T.);
#104=PRESENTATION_STYLE_ASSIGNMENT((#209));
#105=VERTEX_POINT('',#210);
#106=PRESENTATION_STYLE_ASSIGNMENT((#211));
#107=VERTEX_POINT('',#212);
#108=PRESENTATION_STYLE_ASSIGNMENT((#213));
#109=ADVANCED_FACE('',(#214),#215,.F.);
#110=PRESENTATION_STYLE_ASSIGNMENT((#216));
#111=EDGE_CURVE('',#115,#69,#217,.T.);
#112=PRESENTATION_STYLE_ASSIGNMENT((#218));
#113=EDGE_CURVE('',#131,#141,#219,.T.);
#114=PRESENTATION_STYLE_ASSIGNMENT((#220));
#115=VERTEX_POINT('',#221);
#116=PRESENTATION_STYLE_ASSIGNMENT((#222));
#117=MANIFOLD_SOLID_BREP('1',#223);
#118=PRESENTATION_STYLE_ASSIGNMENT((#224));
#119=ADVANCED_FACE('',(#225),#226,.T.);
#120=PRESENTATION_STYLE_ASSIGNMENT((#227));
#121=EDGE_CURVE('',#107,#141,#228,.T.);
#122=PRESENTATION_STYLE_ASSIGNMENT((#229));
#123=EDGE_CURVE('',#69,#93,#230,.T.);
#124=PRESENTATION_STYLE_ASSIGNMENT((#231));
#125=EDGE_CURVE('',#81,#147,#232,.T.);
#126=PRESENTATION_STYLE_ASSIGNMENT((#233));
#127=EDGE_CURVE('',#141,#131,#234,.T.);
#128=PRESENTATION_STYLE_ASSIGNMENT((#235));
#129=EDGE_CURVE('',#69,#137,#236,.T.);
#130=PRESENTATION_STYLE_ASSIGNMENT((#237));
#131=VERTEX_POINT('',#238);
#132=PRESENTATION_STYLE_ASSIGNMENT((#239));
#133=ADVANCED_FACE('',(#240),#241,.T.);
#134=PRESENTATION_STYLE_ASSIGNMENT((#242));
#135=ADVANCED_FACE('',(#243),#244,.T.);
#136=PRESENTATION_STYLE_ASSIGNMENT((#245));
#137=VERTEX_POINT('',#246);
#138=PRESENTATION_STYLE_ASSIGNMENT((#247));
#139=ADVANCED_FACE('',(#248,#249),#250,.T.);
#140=PRESENTATION_STYLE_ASSIGNMENT((#251));
#141=VERTEX_POINT('',#252);
#142=PRESENTATION_STYLE_ASSIGNMENT((#253));
#143=EDGE_CURVE('',#67,#107,#254,.T.);
#144=PRESENTATION_STYLE_ASSIGNMENT((#255));
#145=ADVANCED_FACE('',(#256,#257),#258,.T.);
#146=PRESENTATION_STYLE_ASSIGNMENT((#259));
#147=VERTEX_POINT('',#260);
#148=PRESENTATION_STYLE_ASSIGNMENT((#261));
#149=ADVANCED_FACE('',(#262),#263,.F.);
#150=PRESENTATION_STYLE_ASSIGNMENT((#264));
#151=EDGE_CURVE('',#131,#67,#265,.T.);
#152=PRODUCT('1','1','PART-1-DESC',(#266));
#153=PRODUCT_DEFINITION('NONE','NONE',#267,#2);
#154=AXIS2_PLACEMENT_3D('',#268,#269,#270);
#157=LENGTH_MEASURE_WITH_UNIT(LENGTH_MEASURE(1.0),#271);
#160=DIMENSIONAL_EXPONENTS(1.0,0.0,0.0,0.0,0.0,0.0,0.0);
#162=DIMENSIONAL_EXPONENTS(0.0,0.0,0.0,0.0,0.0,0.0,0.0);
#168=POINT_STYLE(' ',#272,POSITIVE_LENGTH_MEASURE(1.0E-006),#273);
#169=CARTESIAN_POINT('',(-4.19999999999996,5.14181586539176E-015,2.69999999999999));
#170=POINT_STYLE(' ',#274,POSITIVE_LENGTH_MEASURE(1.0E-006),#275);
#171=CARTESIAN_POINT('',(8.50000000000003,8.25051198584628E-015,2.60000000000001));
#172=CURVE_STYLE('',#276,POSITIVE_LENGTH_MEASURE(1.0E-006),#277);
#173=CIRCLE('',#278,4.63068101904531);
#174=CURVE_STYLE('',#279,POSITIVE_LENGTH_MEASURE(1.0E-006),#280);
#175=CIRCLE('',#281,8.5);
#176=CURVE_STYLE('',#282,POSITIVE_LENGTH_MEASURE(1.0E-006),#283);
#177=CIRCLE('',#284,8.5);
#178=SURFACE_STYLE_USAGE(.BOTH.,#285);
#179=FACE_OUTER_BOUND('',#286,.T.);
#180=CONICAL_SURFACE('',#287,4.44999999999999,0.785398163397448);
#181=CURVE_STYLE('',#288,POSITIVE_LENGTH_MEASURE(1.0E-006),#289);
#182=CIRCLE('',#290,8.5);
#183=POINT_STYLE(' ',#291,POSITIVE_LENGTH_MEASURE(1.0E-006),#292);
#184=CARTESIAN_POINT('',(4.20000000000002,6.91116870078003E-015,-2.8421709430404E-014));
#185=CURVE_STYLE('',#293,POSITIVE_LENGTH_MEASURE(1.0E-006),#294);
#186=LINE('',#295,#296);
#187=CURVE_STYLE('',#297,POSITIVE_LENGTH_MEASURE(1.0E-006),#298);
#188=CIRCLE('',#299,12.0);
#189=CURVE_STYLE('',#300,POSITIVE_LENGTH_MEASURE(1.0E-006),#301);
#190=CIRCLE('',#302,4.19999999999999);
#191=SURFACE_STYLE_USAGE(.BOTH.,#303);
#192=FACE_OUTER_BOUND('',#304,.T.);
#193=SPHERICAL_SURFACE('',#305,12.0);
#194=SURFACE_STYLE_USAGE(.BOTH.,#306);
#195=FACE_OUTER_BOUND('',#307,.T.);
#196=CYLINDRICAL_SURFACE('',#308,4.19999999999999);
#197=POINT_STYLE(' ',#309,POSITIVE_LENGTH_MEASURE(1.0E-006),#310);
#198=CARTESIAN_POINT('',(-8.49999999999994,4.60911210147902E-015,2.59999999999998));
#199=POINT_STYLE(' ',#311,POSITIVE_LENGTH_MEASURE(1.0E-006),#312);
#200=CARTESIAN_POINT('',(-8.49999999999997,4.64585029209369E-015,3.19999999999999));
#201=CURVE_STYLE('',#313,POSITIVE_LENGTH_MEASURE(1.0E-006),#314);
#202=LINE('',#315,#316);
#203=CURVE_STYLE('',#317,POSITIVE_LENGTH_MEASURE(1.0E-006),#318);
#204=CIRCLE('',#319,4.63068101904531);
#205=CURVE_STYLE('',#320,POSITIVE_LENGTH_MEASURE(1.0E-006),#321);
#206=CIRCLE('',#322,4.19999999999999);
#207=CURVE_STYLE('',#323,POSITIVE_LENGTH_MEASURE(1.0E-006),#324);
#208=LINE('',#325,#326);
#209=POINT_STYLE(' ',#327,POSITIVE_LENGTH_MEASURE(1.0E-006),#328);
#210=CARTESIAN_POINT('',(-4.63068101904527,4.92375253638638E-015,-1.59872115546023E-014));
#211=POINT_STYLE(' ',#329,POSITIVE_LENGTH_MEASURE(1.0E-006),#330);
#212=CARTESIAN_POINT('',(4.20000000000002,6.91116870078003E-015,2.69999999999999));
#213=SURFACE_STYLE_USAGE(.BOTH.,#331);
#214=FACE_OUTER_BOUND('',#332,.T.);
#215=CYLINDRICAL_SURFACE('',#333,4.19999999999999);
#216=CURVE_STYLE('',#334,POSITIVE_LENGTH_MEASURE(1.0E-006),#335);
#217=CIRCLE('',#336,12.0);
#218=CURVE_STYLE('',#337,POSITIVE_LENGTH_MEASURE(1.0E-006),#338);
#219=CIRCLE('',#339,4.69999999999999);
#220=POINT_STYLE(' ',#340,POSITIVE_LENGTH_MEASURE(1.0E-006),#341);
#221=CARTESIAN_POINT('',(4.63068101904534,7.30283346403776E-015,-1.4210854715202E-014));
#222=SURFACE_STYLE_USAGE(.BOTH.,#342);
#223=CLOSED_SHELL('',(#109,#119,#149,#133,#89,#77,#139,#135,#145,#91));
#224=SURFACE_STYLE_USAGE(.BOTH.,#343);
#225=FACE_OUTER_BOUND('',#344,.T.);
#226=CYLINDRICAL_SURFACE('',#345,8.5);
#227=CURVE_STYLE('',#346,POSITIVE_LENGTH_MEASURE(1.0E-006),#347);
#228=LINE('',#348,#349);
#229=CURVE_STYLE('',#350,POSITIVE_LENGTH_MEASURE(1.0E-006),#351);
#230=CIRCLE('',#352,8.5);
#231=CURVE_STYLE('',#353,POSITIVE_LENGTH_MEASURE(1.0E-006),#354);
#232=CIRCLE('',#355,4.19999999999999);
#233=CURVE_STYLE('',#356,POSITIVE_LENGTH_MEASURE(1.0E-006),#357);
#234=CIRCLE('',#358,4.69999999999999);
#235=CURVE_STYLE('',#359,POSITIVE_LENGTH_MEASURE(1.0E-006),#360);
#236=LINE('',#361,#362);
#237=POINT_STYLE(' ',#363,POSITIVE_LENGTH_MEASURE(1.0E-006),#364);
#238=CARTESIAN_POINT('',(-4.69999999999996,5.1112007065462E-015,3.19999999999999));
#239=SURFACE_STYLE_USAGE(.BOTH.,#365);
#240=FACE_OUTER_BOUND('',#366,.T.);
#241=SPHERICAL_SURFACE('',#367,12.0);
#242=SURFACE_STYLE_USAGE(.BOTH.,#368);
#243=FACE_OUTER_BOUND('',#369,.T.);
#244=CYLINDRICAL_SURFACE('',#370,8.5);
#245=POINT_STYLE(' ',#371,POSITIVE_LENGTH_MEASURE(1.0E-006),#372);
#246=CARTESIAN_POINT('',(8.50000000000003,8.1647241612873E-015,3.19999999999999));
#247=SURFACE_STYLE_USAGE(.BOTH.,#373);
#248=FACE_OUTER_BOUND('',#374,.T.);
#249=FACE_BOUND('',#375,.T.);
#250=PLANE('',#376);
#251=POINT_STYLE(' ',#377,POSITIVE_LENGTH_MEASURE(1.0E-006),#378);
#252=CARTESIAN_POINT('',(4.70000000000002,7.05693096362971E-015,3.19999999999999));
#253=CURVE_STYLE('',#379,POSITIVE_LENGTH_MEASURE(1.0E-006),#380);
#254=CIRCLE('',#381,4.19999999999999);
#255=SURFACE_STYLE_USAGE(.BOTH.,#382);
#256=FACE_OUTER_BOUND('',#383,.T.);
#257=FACE_BOUND('',#384,.T.);
#258=PLANE('',#385);
#259=POINT_STYLE(' ',#386,POSITIVE_LENGTH_MEASURE(1.0E-006),#387);
#260=CARTESIAN_POINT('',(-4.19999999999996,4.97649400762573E-015,-2.8421709430404E-014));
#261=SURFACE_STYLE_USAGE(.BOTH.,#388);
#262=FACE_OUTER_BOUND('',#389,.T.);
#263=CONICAL_SURFACE('',#390,4.44999999999999,0.785398163397448);
#264=CURVE_STYLE('',#391,POSITIVE_LENGTH_MEASURE(1.0E-006),#392);
#265=LINE('',#393,#394);
#266=PRODUCT_CONTEXT('',#53,'mechanical');
#267=PRODUCT_DEFINITION_FORMATION_WITH_SPECIFIED_SOURCE(' ','NONE',#152,.NOT_KNOWN.);
#268=CARTESIAN_POINT('',(0.0,0.0,0.0));
#269=DIRECTION('',(0.0,0.0,1.0));
#270=DIRECTION('',(1.0,0.0,0.0));
#271= (NAMED_UNIT(#160)LENGTH_UNIT()SI_UNIT(.MILLI.,.METRE.));
#272=PRE_DEFINED_MARKER('');
#273=COLOUR_RGB('',0.509803950786591,0.509803950786591,0.588235318660736);
#274=PRE_DEFINED_MARKER('');
#275=COLOUR_RGB('',0.509803950786591,0.509803950786591,0.588235318660736);
#276=DRAUGHTING_PRE_DEFINED_CURVE_FONT('continuous');
#277=COLOUR_RGB('',0.509803950786591,0.509803950786591,0.588235318660736);
#278=AXIS2_PLACEMENT_3D('',#396,#397,#398);
#279=DRAUGHTING_PRE_DEFINED_CURVE_FONT('continuous');
#280=COLOUR_RGB('',0.509803950786591,0.509803950786591,0.588235318660736);
#281=AXIS2_PLACEMENT_3D('',#399,#400,#401);
#282=DRAUGHTING_PRE_DEFINED_CURVE_FONT('continuous');
#283=COLOUR_RGB('',0.509803950786591,0.509803950786591,0.588235318660736);
#284=AXIS2_PLACEMENT_3D('',#402,#403,#404);
#285=SURFACE_SIDE_STYLE('',(#405));
#286=EDGE_LOOP('',(#406,#407,#408,#409));
#287=AXIS2_PLACEMENT_3D('',#410,#411,#412);
#288=DRAUGHTING_PRE_DEFINED_CURVE_FONT('continuous');
#289=COLOUR_RGB('',0.509803950786591,0.509803950786591,0.588235318660736);
#290=AXIS2_PLACEMENT_3D('',#413,#414,#415);
#291=PRE_DEFINED_MARKER('');
#292=COLOUR_RGB('',0.509803950786591,0.509803950786591,0.588235318660736);
#293=DRAUGHTING_PRE_DEFINED_CURVE_FONT('continuous');
#294=COLOUR_RGB('',0.509803950786591,0.509803950786591,0.588235318660736);
#295=CARTESIAN_POINT('',(4.20000000000002,6.91116870078003E-015,1.34999999999998));
#296=VECTOR('',#416,1.0);
#297=DRAUGHTING_PRE_DEFINED_CURVE_FONT('continuous');
#298=COLOUR_RGB('',0.509803950786591,0.509803950786591,0.588235318660736);
#299=AXIS2_PLACEMENT_3D('',#417,#418,#419);
#300=DRAUGHTING_PRE_DEFINED_CURVE_FONT('continuous');
#301=COLOUR_RGB('',0.509803950786591,0.509803950786591,0.588235318660736);
#302=AXIS2_PLACEMENT_3D('',#420,#421,#422);
#303=SURFACE_SIDE_STYLE('',(#423));
#304=EDGE_LOOP('',(#424,#425,#426,#427));
#305=AXIS2_PLACEMENT_3D('',#428,#429,#430);
#306=SURFACE_SIDE_STYLE('',(#431));
#307=EDGE_LOOP('',(#432,#433,#434,#435));
#308=AXIS2_PLACEMENT_3D('',#436,#437,#438);
#309=PRE_DEFINED_MARKER('');
#310=COLOUR_RGB('',0.509803950786591,0.509803950786591,0.588235318660736);
#311=PRE_DEFINED_MARKER('');
#312=COLOUR_RGB('',0.509803950786591,0.509803950786591,0.588235318660736);
#313=DRAUGHTING_PRE_DEFINED_CURVE_FONT('continuous');
#314=COLOUR_RGB('',0.509803950786591,0.509803950786591,0.588235318660736);
#315=CARTESIAN_POINT('',(-8.49999999999997,3.20880722439812E-015,2.89999999999998));
#316=VECTOR('',#439,1.0);
#317=DRAUGHTING_PRE_DEFINED_CURVE_FONT('continuous');
#318=COLOUR_RGB('',0.509803950786591,0.509803950786591,0.588235318660736);
#319=AXIS2_PLACEMENT_3D('',#440,#441,#442);
#320=DRAUGHTING_PRE_DEFINED_CURVE_FONT('continuous');
#321=COLOUR_RGB('',0.509803950786591,0.509803950786591,0.588235318660736);
#322=AXIS2_PLACEMENT_3D('',#443,#444,#445);
#323=DRAUGHTING_PRE_DEFINED_CURVE_FONT('continuous');
#324=COLOUR_RGB('',0.509803950786591,0.509803950786591,0.588235318660736);
#325=CARTESIAN_POINT('',(-4.19999999999996,4.46236268490539E-015,1.34999999999998));
#326=VECTOR('',#446,1.0);
#327=PRE_DEFINED_MARKER('');
#328=COLOUR_RGB('',0.509803950786591,0.509803950786591,0.588235318660736);
#329=PRE_DEFINED_MARKER('');
#330=COLOUR_RGB('',0.509803950786591,0.509803950786591,0.588235318660736);
#331=SURFACE_SIDE_STYLE('',(#447));
#332=EDGE_LOOP('',(#448,#449,#450,#451));
#333=AXIS2_PLACEMENT_3D('',#452,#453,#454);
#334=DRAUGHTING_PRE_DEFINED_CURVE_FONT('continuous');
#335=COLOUR_RGB('',0.509803950786591,0.509803950786591,0.588235318660736);
#336=AXIS2_PLACEMENT_3D('',#455,#456,#457);
#337=DRAUGHTING_PRE_DEFINED_CURVE_FONT('continuous');
#338=COLOUR_RGB('',0.509803950786591,0.509803950786591,0.588235318660736);
#339=AXIS2_PLACEMENT_3D('',#458,#459,#460);
#340=PRE_DEFINED_MARKER('');
#341=COLOUR_RGB('',0.509803950786591,0.509803950786591,0.588235318660736);
#342=SURFACE_SIDE_STYLE('',(#461));
#343=SURFACE_SIDE_STYLE('',(#462));
#344=EDGE_LOOP('',(#463,#464,#465,#466));
#345=AXIS2_PLACEMENT_3D('',#467,#468,#469);
#346=DRAUGHTING_PRE_DEFINED_CURVE_FONT('continuous');
#347=COLOUR_RGB('',0.509803950786591,0.509803950786591,0.588235318660736);
#348=CARTESIAN_POINT('',(4.45000000000002,6.98404983220487E-015,2.94999999999999));
#349=VECTOR('',#470,1.0);
#350=DRAUGHTING_PRE_DEFINED_CURVE_FONT('continuous');
#351=COLOUR_RGB('',0.509803950786591,0.509803950786591,0.588235318660736);
#352=AXIS2_PLACEMENT_3D('',#471,#472,#473);
#353=DRAUGHTING_PRE_DEFINED_CURVE_FONT('continuous');
#354=COLOUR_RGB('',0.509803950786591,0.509803950786591,0.588235318660736);
#355=AXIS2_PLACEMENT_3D('',#474,#475,#476);
#356=DRAUGHTING_PRE_DEFINED_CURVE_FONT('continuous');
#357=COLOUR_RGB('',0.509803950786591,0.509803950786591,0.588235318660736);
#358=AXIS2_PLACEMENT_3D('',#477,#478,#479);
#359=DRAUGHTING_PRE_DEFINED_CURVE_FONT('continuous');
#360=COLOUR_RGB('',0.509803950786591,0.509803950786591,0.588235318660736);
#361=CARTESIAN_POINT('',(8.50000000000003,8.1647241612873E-015,2.89999999999998));
#362=VECTOR('',#480,1.0);
#363=PRE_DEFINED_MARKER('');
#364=COLOUR_RGB('',0.509803950786591,0.509803950786591,0.588235318660736);
#365=SURFACE_SIDE_STYLE('',(#481));
#366=EDGE_LOOP('',(#482,#483,#484,#485));
#367=AXIS2_PLACEMENT_3D('',#486,#487,#488);
#368=SURFACE_SIDE_STYLE('',(#489));
#369=EDGE_LOOP('',(#490,#491,#492,#493));
#370=AXIS2_PLACEMENT_3D('',#494,#495,#496);
#371=PRE_DEFINED_MARKER('');
#372=COLOUR_RGB('',0.509803950786591,0.509803950786591,0.588235318660736);
#373=SURFACE_SIDE_STYLE('',(#497));
#374=EDGE_LOOP('',(#498,#499));
#375=EDGE_LOOP('',(#500,#501));
#376=AXIS2_PLACEMENT_3D('',#502,#503,#504);
#377=PRE_DEFINED_MARKER('');
#378=COLOUR_RGB('',0.509803950786591,0.509803950786591,0.588235318660736);
#379=DRAUGHTING_PRE_DEFINED_CURVE_FONT('continuous');
#380=COLOUR_RGB('',0.509803950786591,0.509803950786591,0.588235318660736);
#381=AXIS2_PLACEMENT_3D('',#505,#506,#507);
#382=SURFACE_SIDE_STYLE('',(#508));
#383=EDGE_LOOP('',(#509,#510));
#384=EDGE_LOOP('',(#511,#512));
#385=AXIS2_PLACEMENT_3D('',#513,#514,#515);
#386=PRE_DEFINED_MARKER('');
#387=COLOUR_RGB('',0.509803950786591,0.509803950786591,0.588235318660736);
#388=SURFACE_SIDE_STYLE('',(#516));
#389=EDGE_LOOP('',(#517,#518,#519,#520));
#390=AXIS2_PLACEMENT_3D('',#521,#522,#523);
#391=DRAUGHTING_PRE_DEFINED_CURVE_FONT('continuous');
#392=COLOUR_RGB('',0.509803950786591,0.509803950786591,0.588235318660736);
#393=CARTESIAN_POINT('',(-4.44999999999996,4.38948155348055E-015,2.94999999999999));
#394=VECTOR('',#524,1.0);
#396=CARTESIAN_POINT('',(3.01980662698043E-014,6.16868118434824E-015,-1.4210854715202E-014));
#397=DIRECTION('',(0.0,0.0,-1.0));
#398=DIRECTION('',(0.0,-1.0,0.0));
#399=CARTESIAN_POINT('',(2.8421709430404E-014,5.68676569284271E-015,3.19999999999999));
#400=DIRECTION('',(-0.0,0.0,-1.0));
#401=DIRECTION('',(-1.0,-1.69063890317125E-016,0.0));
#402=CARTESIAN_POINT('',(2.8421709430404E-014,5.68676569284271E-015,3.19999999999999));
#403=DIRECTION('',(-0.0,0.0,-1.0));
#404=DIRECTION('',(-1.0,-1.69063890317125E-016,0.0));
#405=SURFACE_STYLE_FILL_AREA(#525);
#406=ORIENTED_EDGE('',*,*,#151,.T.);
#407=ORIENTED_EDGE('',*,*,#143,.T.);
#408=ORIENTED_EDGE('',*,*,#121,.T.);
#409=ORIENTED_EDGE('',*,*,#113,.F.);
#410=CARTESIAN_POINT('',(2.8421709430404E-014,5.68676569284271E-015,2.94999999999999));
#411=DIRECTION('',(0.0,-0.0,1.0));
#412=DIRECTION('',(-1.0,-1.69063890317125E-016,0.0));
#413=CARTESIAN_POINT('',(2.8421709430404E-014,5.68676569284271E-015,2.60000000000001));
#414=DIRECTION('',(0.0,0.0,1.0));
#415=DIRECTION('',(-1.0,-1.69063890317125E-016,0.0));
#416=DIRECTION('',(0.0,0.0,1.0));
#417=CARTESIAN_POINT('',(3.01980662698043E-014,6.16868118434824E-015,11.0705371730487));
#418=DIRECTION('',(2.44921270764475E-016,-1.0,0.0));
#419=DIRECTION('',(-0.0,0.0,1.0));
#420=CARTESIAN_POINT('',(2.8421709430404E-014,5.68676569284271E-015,2.69999999999999));
#421=DIRECTION('',(-0.0,0.0,-1.0));
#422=DIRECTION('',(-1.0,-1.69063890317125E-016,0.0));
#423=SURFACE_STYLE_FILL_AREA(#526);
#424=ORIENTED_EDGE('',*,*,#111,.T.);
#425=ORIENTED_EDGE('',*,*,#79,.F.);
#426=ORIENTED_EDGE('',*,*,#85,.T.);
#427=ORIENTED_EDGE('',*,*,#71,.F.);
#428=CARTESIAN_POINT('',(3.01980662698043E-014,6.16868118434824E-015,11.0705371730487));
#429=DIRECTION('',(0.0,0.0,-1.0));
#430=DIRECTION('',(1.0,1.22460635382238E-016,0.0));
#431=SURFACE_STYLE_FILL_AREA(#527);
#432=ORIENTED_EDGE('',*,*,#103,.T.);
#433=ORIENTED_EDGE('',*,*,#101,.T.);
#434=ORIENTED_EDGE('',*,*,#83,.T.);
#435=ORIENTED_EDGE('',*,*,#143,.F.);
#436=CARTESIAN_POINT('',(2.8421709430404E-014,5.68676569284271E-015,1.34999999999998));
#437=DIRECTION('',(0.0,-0.0,1.0));
#438=DIRECTION('',(-1.0,-1.69063890317125E-016,0.0));
#439=DIRECTION('',(0.0,0.0,-1.0));
#440=CARTESIAN_POINT('',(3.01980662698043E-014,6.16868118434824E-015,-1.4210854715202E-014));
#441=DIRECTION('',(0.0,0.0,-1.0));
#442=DIRECTION('',(0.0,-1.0,0.0));
#443=CARTESIAN_POINT('',(2.8421709430404E-014,5.68676569284271E-015,-2.8421709430404E-014));
#444=DIRECTION('',(-0.0,0.0,-1.0));
#445=DIRECTION('',(-1.0,-1.69063890317125E-016,0.0));
#446=DIRECTION('',(0.0,0.0,-1.0));
#447=SURFACE_STYLE_FILL_AREA(#528);
#448=ORIENTED_EDGE('',*,*,#103,.F.);
#449=ORIENTED_EDGE('',*,*,#87,.F.);
#450=ORIENTED_EDGE('',*,*,#83,.F.);
#451=ORIENTED_EDGE('',*,*,#125,.T.);
#452=CARTESIAN_POINT('',(2.8421709430404E-014,5.68676569284271E-015,1.34999999999998));
#453=DIRECTION('',(0.0,-0.0,1.0));
#454=DIRECTION('',(-1.0,-1.69063890317125E-016,0.0));
#455=CARTESIAN_POINT('',(3.01980662698043E-014,6.16868118434824E-015,11.0705371730487));
#456=DIRECTION('',(2.44921270764475E-016,-1.0,0.0));
#457=DIRECTION('',(-0.0,0.0,1.0));
#458=CARTESIAN_POINT('',(2.8421709430404E-014,5.68676569284271E-015,3.19999999999999));
#459=DIRECTION('',(-0.0,0.0,-1.0));
#460=DIRECTION('',(-1.0,-1.69063890317125E-016,0.0));
#461=SURFACE_STYLE_FILL_AREA(#529);
#462=SURFACE_STYLE_FILL_AREA(#530);
#463=ORIENTED_EDGE('',*,*,#97,.F.);
#464=ORIENTED_EDGE('',*,*,#73,.T.);
#465=ORIENTED_EDGE('',*,*,#129,.F.);
#466=ORIENTED_EDGE('',*,*,#123,.T.);
#467=CARTESIAN_POINT('',(2.8421709430404E-014,5.68676569284271E-015,1.59999999999999));
#468=DIRECTION('',(0.0,-0.0,1.0));
#469=DIRECTION('',(-1.0,-1.69063890317125E-016,0.0));
#470=DIRECTION('',(0.707106781186548,2.06138969004212E-016,0.707106781186547));
#471=CARTESIAN_POINT('',(2.8421709430404E-014,5.68676569284271E-015,2.60000000000001));
#472=DIRECTION('',(0.0,0.0,1.0));
#473=DIRECTION('',(-1.0,-1.69063890317125E-016,0.0));
#474=CARTESIAN_POINT('',(2.8421709430404E-014,5.68676569284271E-015,-2.8421709430404E-014));
#475=DIRECTION('',(-0.0,0.0,-1.0));
#476=DIRECTION('',(-1.0,-1.69063890317125E-016,0.0));
#477=CARTESIAN_POINT('',(2.8421709430404E-014,5.68676569284271E-015,3.19999999999999));
#478=DIRECTION('',(-0.0,0.0,-1.0));
#479=DIRECTION('',(-1.0,-1.69063890317125E-016,0.0));
#480=DIRECTION('',(-0.0,-0.0,1.0));
#481=SURFACE_STYLE_FILL_AREA(#531);
#482=ORIENTED_EDGE('',*,*,#111,.F.);
#483=ORIENTED_EDGE('',*,*,#99,.F.);
#484=ORIENTED_EDGE('',*,*,#85,.F.);
#485=ORIENTED_EDGE('',*,*,#123,.F.);
#486=CARTESIAN_POINT('',(3.01980662698043E-014,6.16868118434824E-015,11.0705371730487));
#487=DIRECTION('',(0.0,0.0,-1.0));
#488=DIRECTION('',(1.0,1.22460635382238E-016,0.0));
#489=SURFACE_STYLE_FILL_AREA(#532);
#490=ORIENTED_EDGE('',*,*,#97,.T.);
#491=ORIENTED_EDGE('',*,*,#79,.T.);
#492=ORIENTED_EDGE('',*,*,#129,.T.);
#493=ORIENTED_EDGE('',*,*,#75,.T.);
#494=CARTESIAN_POINT('',(2.8421709430404E-014,5.68676569284271E-015,1.59999999999999));
#495=DIRECTION('',(0.0,-0.0,1.0));
#496=DIRECTION('',(-1.0,-1.69063890317125E-016,0.0));
#497=SURFACE_STYLE_FILL_AREA(#533);
#498=ORIENTED_EDGE('',*,*,#73,.F.);
#499=ORIENTED_EDGE('',*,*,#75,.F.);
#500=ORIENTED_EDGE('',*,*,#113,.T.);
#501=ORIENTED_EDGE('',*,*,#127,.T.);
#502=CARTESIAN_POINT('',(-6.59999999999997,4.87852549931994E-015,3.19999999999999));
#503=DIRECTION('',(0.0,0.0,1.0));
#504=DIRECTION('',(-1.0,-1.22460635382238E-016,0.0));
#505=CARTESIAN_POINT('',(2.8421709430404E-014,5.68676569284271E-015,2.69999999999999));
#506=DIRECTION('',(-0.0,0.0,-1.0));
#507=DIRECTION('',(-1.0,-1.69063890317125E-016,0.0));
#508=SURFACE_STYLE_FILL_AREA(#534);
#509=ORIENTED_EDGE('',*,*,#99,.T.);
#510=ORIENTED_EDGE('',*,*,#71,.T.);
#511=ORIENTED_EDGE('',*,*,#101,.F.);
#512=ORIENTED_EDGE('',*,*,#125,.F.);
#513=CARTESIAN_POINT('',(-6.34999999999997,4.71320364155392E-015,-1.4210854715202E-014));
#514=DIRECTION('',(0.0,0.0,-1.0));
#515=DIRECTION('',(1.0,1.22460635382238E-016,0.0));
#516=SURFACE_STYLE_FILL_AREA(#535);
#517=ORIENTED_EDGE('',*,*,#151,.F.);
#518=ORIENTED_EDGE('',*,*,#127,.F.);
#519=ORIENTED_EDGE('',*,*,#121,.F.);
#520=ORIENTED_EDGE('',*,*,#87,.T.);
#521=CARTESIAN_POINT('',(2.8421709430404E-014,5.68676569284271E-015,2.94999999999999));
#522=DIRECTION('',(0.0,-0.0,1.0));
#523=DIRECTION('',(-1.0,-1.69063890317125E-016,0.0));
#524=DIRECTION('',(0.707106781186548,2.06138969004212E-016,-0.707106781186547));
#525=FILL_AREA_STYLE('',(#536));
#526=FILL_AREA_STYLE('',(#537));
#527=FILL_AREA_STYLE('',(#538));
#528=FILL_AREA_STYLE('',(#539));
#529=FILL_AREA_STYLE('',(#540));
#530=FILL_AREA_STYLE('',(#541));
#531=FILL_AREA_STYLE('',(#542));
#532=FILL_AREA_STYLE('',(#543));
#533=FILL_AREA_STYLE('',(#544));
#534=FILL_AREA_STYLE('',(#545));
#535=FILL_AREA_STYLE('',(#546));
#536=FILL_AREA_STYLE_COLOUR('',#547);
#537=FILL_AREA_STYLE_COLOUR('',#548);
#538=FILL_AREA_STYLE_COLOUR('',#549);
#539=FILL_AREA_STYLE_COLOUR('',#550);
#540=FILL_AREA_STYLE_COLOUR('',#551);
#541=FILL_AREA_STYLE_COLOUR('',#552);
#542=FILL_AREA_STYLE_COLOUR('',#553);
#543=FILL_AREA_STYLE_COLOUR('',#554);
#544=FILL_AREA_STYLE_COLOUR('',#555);
#545=FILL_AREA_STYLE_COLOUR('',#556);
#546=FILL_AREA_STYLE_COLOUR('',#557);
#547=COLOUR_RGB('',0.509803950786591,0.509803950786591,0.588235318660736);
#548=COLOUR_RGB('',0.509803950786591,0.509803950786591,0.588235318660736);
#549=COLOUR_RGB('',0.509803950786591,0.509803950786591,0.588235318660736);
#550=COLOUR_RGB('',0.509803950786591,0.509803950786591,0.588235318660736);
#551=COLOUR_RGB('',0.509803950786591,0.509803950786591,0.588235318660736);
#552=COLOUR_RGB('',0.509803950786591,0.509803950786591,0.588235318660736);
#553=COLOUR_RGB('',0.509803950786591,0.509803950786591,0.588235318660736);
#554=COLOUR_RGB('',0.509803950786591,0.509803950786591,0.588235318660736);
#555=COLOUR_RGB('',0.509803950786591,0.509803950786591,0.588235318660736);
#556=COLOUR_RGB('',0.509803950786591,0.509803950786591,0.588235318660736);
#557=COLOUR_RGB('',0.509803950786591,0.509803950786591,0.588235318660736);
ENDSEC;
END-ISO-10303-21;
