ISO-10303-21;
HEADER;
FILE_DESCRIPTION(('STEP AP214'),'1');
FILE_NAME(' ','  ',('TraceParts'),('TraceParts S.A.'),'XStep 1.0',' ',' ');
FILE_SCHEMA(('automotive_design'));
ENDSEC;
DATA;
#1=MECHANICAL_DESIGN_GEOMETRIC_PRESENTATION_REPRESENTATION(' ',(#10,#11,#12,#13,#14,#15,#16,#17,#18,#19,#20,#21,#22,#23,#24,#25,#26,#27,#28,#29,#30,#31,#32,#33,#34,#35,#36,#37,#38,#39,#40,#41,#42,#43,#44,#45,#46,#47,#48,#49,#50,#51,#52),#6);
#2=PRODUCT_DEFINITION_CONTEXT('',#53,'design');
#3=APPLICATION_PROTOCOL_DEFINITION('INTERNATIONAL STANDARD','automotive_design',1994,#53);
#4=PRODUCT_CATEGORY_RELATIONSHIP('NONE','NONE',#54,#55);
#5=SHAPE_DEFINITION_REPRESENTATION(#56,#57);
#6= (GEOMETRIC_REPRESENTATION_CONTEXT(3)GLOBAL_UNCERTAINTY_ASSIGNED_CONTEXT((#60))GLOBAL_UNIT_ASSIGNED_CONTEXT((#62,#63,#64))REPRESENTATION_CONTEXT('NONE','WORKSPACE'));
#10=STYLED_ITEM('',(#66),#67);
#11=STYLED_ITEM('',(#68),#69);
#12=STYLED_ITEM('',(#70),#71);
#13=STYLED_ITEM('',(#72),#73);
#14=STYLED_ITEM('',(#74),#75);
#15=STYLED_ITEM('',(#76),#77);
#16=STYLED_ITEM('',(#78),#79);
#17=STYLED_ITEM('',(#80),#81);
#18=STYLED_ITEM('',(#82),#83);
#19=STYLED_ITEM('',(#84),#85);
#20=STYLED_ITEM('',(#86),#87);
#21=STYLED_ITEM('',(#88),#89);
#22=STYLED_ITEM('',(#90),#91);
#23=STYLED_ITEM('',(#92),#93);
#24=STYLED_ITEM('',(#94),#95);
#25=STYLED_ITEM('',(#96),#97);
#26=STYLED_ITEM('',(#98),#99);
#27=STYLED_ITEM('',(#100),#101);
#28=STYLED_ITEM('',(#102),#103);
#29=STYLED_ITEM('',(#104),#105);
#30=STYLED_ITEM('',(#106),#107);
#31=STYLED_ITEM('',(#108),#109);
#32=STYLED_ITEM('',(#110),#111);
#33=STYLED_ITEM('',(#112),#113);
#34=STYLED_ITEM('',(#114),#115);
#35=STYLED_ITEM('',(#116),#117);
#36=STYLED_ITEM('',(#118),#119);
#37=STYLED_ITEM('',(#120),#121);
#38=STYLED_ITEM('',(#122),#123);
#39=STYLED_ITEM('',(#124),#125);
#40=STYLED_ITEM('',(#126),#127);
#41=STYLED_ITEM('',(#128),#129);
#42=STYLED_ITEM('',(#130),#131);
#43=STYLED_ITEM('',(#132),#133);
#44=STYLED_ITEM('',(#134),#135);
#45=STYLED_ITEM('',(#136),#137);
#46=STYLED_ITEM('',(#138),#139);
#47=STYLED_ITEM('',(#140),#141);
#48=STYLED_ITEM('',(#142),#143);
#49=STYLED_ITEM('',(#144),#145);
#50=STYLED_ITEM('',(#146),#147);
#51=STYLED_ITEM('',(#148),#149);
#52=STYLED_ITEM('',(#150),#151);
#53=APPLICATION_CONTEXT(' ');
#54=PRODUCT_CATEGORY('part','NONE');
#55=PRODUCT_RELATED_PRODUCT_CATEGORY('detail',' ',(#152));
#56=PRODUCT_DEFINITION_SHAPE('NONE','NONE',#153);
#57=ADVANCED_BREP_SHAPE_REPRESENTATION('1',(#147,#154),#6);
#60=UNCERTAINTY_MEASURE_WITH_UNIT(LENGTH_MEASURE(1.0E-006),#62,'','');
#62= (CONVERSION_BASED_UNIT('MILLIMETRE',#157)LENGTH_UNIT()NAMED_UNIT(#160));
#63= (NAMED_UNIT(#162)PLANE_ANGLE_UNIT()SI_UNIT($,.RADIAN.));
#64= (NAMED_UNIT(#162)SOLID_ANGLE_UNIT()SI_UNIT($,.STERADIAN.));
#66=PRESENTATION_STYLE_ASSIGNMENT((#168));
#67=VERTEX_POINT('',#169);
#68=PRESENTATION_STYLE_ASSIGNMENT((#170));
#69=EDGE_CURVE('',#67,#75,#171,.T.);
#70=PRESENTATION_STYLE_ASSIGNMENT((#172));
#71=EDGE_CURVE('',#123,#103,#173,.T.);
#72=PRESENTATION_STYLE_ASSIGNMENT((#174));
#73=ADVANCED_FACE('',(#175),#176,.F.);
#74=PRESENTATION_STYLE_ASSIGNMENT((#177));
#75=VERTEX_POINT('',#178);
#76=PRESENTATION_STYLE_ASSIGNMENT((#179));
#77=VERTEX_POINT('',#180);
#78=PRESENTATION_STYLE_ASSIGNMENT((#181));
#79=ADVANCED_FACE('',(#182,#183),#184,.T.);
#80=PRESENTATION_STYLE_ASSIGNMENT((#185));
#81=EDGE_CURVE('',#75,#67,#186,.T.);
#82=PRESENTATION_STYLE_ASSIGNMENT((#187));
#83=ADVANCED_FACE('',(#188),#189,.T.);
#84=PRESENTATION_STYLE_ASSIGNMENT((#190));
#85=ADVANCED_FACE('',(#191),#192,.F.);
#86=PRESENTATION_STYLE_ASSIGNMENT((#193));
#87=EDGE_CURVE('',#143,#119,#194,.T.);
#88=PRESENTATION_STYLE_ASSIGNMENT((#195));
#89=EDGE_CURVE('',#151,#129,#196,.T.);
#90=PRESENTATION_STYLE_ASSIGNMENT((#197));
#91=EDGE_CURVE('',#103,#123,#198,.T.);
#92=PRESENTATION_STYLE_ASSIGNMENT((#199));
#93=EDGE_CURVE('',#119,#77,#200,.T.);
#94=PRESENTATION_STYLE_ASSIGNMENT((#201));
#95=EDGE_CURVE('',#149,#143,#202,.T.);
#96=PRESENTATION_STYLE_ASSIGNMENT((#203));
#97=EDGE_CURVE('',#129,#149,#204,.T.);
#98=PRESENTATION_STYLE_ASSIGNMENT((#205));
#99=ADVANCED_FACE('',(#206),#207,.T.);
#100=PRESENTATION_STYLE_ASSIGNMENT((#208));
#101=EDGE_CURVE('',#143,#149,#209,.T.);
#102=PRESENTATION_STYLE_ASSIGNMENT((#210));
#103=VERTEX_POINT('',#211);
#104=PRESENTATION_STYLE_ASSIGNMENT((#212));
#105=ADVANCED_FACE('',(#213),#214,.T.);
#106=PRESENTATION_STYLE_ASSIGNMENT((#215));
#107=EDGE_CURVE('',#77,#151,#216,.T.);
#108=PRESENTATION_STYLE_ASSIGNMENT((#217));
#109=EDGE_CURVE('',#123,#145,#218,.T.);
#110=PRESENTATION_STYLE_ASSIGNMENT((#219));
#111=EDGE_CURVE('',#103,#67,#220,.T.);
#112=PRESENTATION_STYLE_ASSIGNMENT((#221));
#113=EDGE_CURVE('',#129,#119,#222,.T.);
#114=PRESENTATION_STYLE_ASSIGNMENT((#223));
#115=EDGE_CURVE('',#151,#77,#224,.T.);
#116=PRESENTATION_STYLE_ASSIGNMENT((#225));
#117=ADVANCED_FACE('',(#226,#227),#228,.T.);
#118=PRESENTATION_STYLE_ASSIGNMENT((#229));
#119=VERTEX_POINT('',#230);
#120=PRESENTATION_STYLE_ASSIGNMENT((#231));
#121=VERTEX_POINT('',#232);
#122=PRESENTATION_STYLE_ASSIGNMENT((#233));
#123=VERTEX_POINT('',#234);
#124=PRESENTATION_STYLE_ASSIGNMENT((#235));
#125=EDGE_CURVE('',#121,#145,#236,.T.);
#126=PRESENTATION_STYLE_ASSIGNMENT((#237));
#127=ADVANCED_FACE('',(#238),#239,.T.);
#128=PRESENTATION_STYLE_ASSIGNMENT((#240));
#129=VERTEX_POINT('',#241);
#130=PRESENTATION_STYLE_ASSIGNMENT((#242));
#131=EDGE_CURVE('',#75,#123,#243,.T.);
#132=PRESENTATION_STYLE_ASSIGNMENT((#244));
#133=ADVANCED_FACE('',(#245),#246,.F.);
#134=PRESENTATION_STYLE_ASSIGNMENT((#247));
#135=EDGE_CURVE('',#145,#121,#248,.T.);
#136=PRESENTATION_STYLE_ASSIGNMENT((#249));
#137=ADVANCED_FACE('',(#250),#251,.F.);
#138=PRESENTATION_STYLE_ASSIGNMENT((#252));
#139=EDGE_CURVE('',#119,#129,#253,.T.);
#140=PRESENTATION_STYLE_ASSIGNMENT((#254));
#141=EDGE_CURVE('',#121,#103,#255,.T.);
#142=PRESENTATION_STYLE_ASSIGNMENT((#256));
#143=VERTEX_POINT('',#257);
#144=PRESENTATION_STYLE_ASSIGNMENT((#258));
#145=VERTEX_POINT('',#259);
#146=PRESENTATION_STYLE_ASSIGNMENT((#260));
#147=MANIFOLD_SOLID_BREP('1',#261);
#148=PRESENTATION_STYLE_ASSIGNMENT((#262));
#149=VERTEX_POINT('',#263);
#150=PRESENTATION_STYLE_ASSIGNMENT((#264));
#151=VERTEX_POINT('',#265);
#152=PRODUCT('1','1','PART-1-DESC',(#266));
#153=PRODUCT_DEFINITION('NONE','NONE',#267,#2);
#154=AXIS2_PLACEMENT_3D('',#268,#269,#270);
#157=LENGTH_MEASURE_WITH_UNIT(LENGTH_MEASURE(1.0),#271);
#160=DIMENSIONAL_EXPONENTS(1.0,0.0,0.0,0.0,0.0,0.0,0.0);
#162=DIMENSIONAL_EXPONENTS(0.0,0.0,0.0,0.0,0.0,0.0,0.0);
#168=POINT_STYLE(' ',#272,POSITIVE_LENGTH_MEASURE(1.0E-006),#273);
#169=CARTESIAN_POINT('',(3.50000000000003,6.39170632218097E-015,2.29999999999998));
#170=CURVE_STYLE('',#274,POSITIVE_LENGTH_MEASURE(1.0E-006),#275);
#171=CIRCLE('',#276,3.5);
#172=CURVE_STYLE('',#277,POSITIVE_LENGTH_MEASURE(1.0E-006),#278);
#173=CIRCLE('',#279,3.19999999999999);
#174=SURFACE_STYLE_USAGE(.BOTH.,#280);
#175=FACE_OUTER_BOUND('',#281,.T.);
#176=CYLINDRICAL_SURFACE('',#282,3.19999999999999);
#177=POINT_STYLE(' ',#283,POSITIVE_LENGTH_MEASURE(1.0E-006),#284);
#178=CARTESIAN_POINT('',(-3.49999999999997,4.95200188054929E-015,2.29999999999998));
#179=POINT_STYLE(' ',#285,POSITIVE_LENGTH_MEASURE(1.0E-006),#286);
#180=CARTESIAN_POINT('',(-3.46031030631653,4.81603257496631E-015,-3.01980662698043E-014));
#181=SURFACE_STYLE_USAGE(.BOTH.,#287);
#182=FACE_OUTER_BOUND('',#288,.T.);
#183=FACE_BOUND('',#289,.T.);
#184=PLANE('',#290);
#185=CURVE_STYLE('',#291,POSITIVE_LENGTH_MEASURE(1.0E-006),#292);
#186=CIRCLE('',#293,3.5);
#187=SURFACE_STYLE_USAGE(.BOTH.,#294);
#188=FACE_OUTER_BOUND('',#295,.T.);
#189=CYLINDRICAL_SURFACE('',#296,6.0);
#190=SURFACE_STYLE_USAGE(.BOTH.,#297);
#191=FACE_OUTER_BOUND('',#298,.T.);
#192=CONICAL_SURFACE('',#299,3.34999999999999,0.785398163397448);
#193=CURVE_STYLE('',#300,POSITIVE_LENGTH_MEASURE(1.0E-006),#301);
#194=LINE('',#302,#303);
#195=CURVE_STYLE('',#304,POSITIVE_LENGTH_MEASURE(1.0E-006),#305);
#196=CIRCLE('',#306,8.99999999999999);
#197=CURVE_STYLE('',#307,POSITIVE_LENGTH_MEASURE(1.0E-006),#308);
#198=CIRCLE('',#309,3.19999999999999);
#199=CURVE_STYLE('',#310,POSITIVE_LENGTH_MEASURE(1.0E-006),#311);
#200=CIRCLE('',#312,8.99999999999999);
#201=CURVE_STYLE('',#313,POSITIVE_LENGTH_MEASURE(1.0E-006),#314);
#202=CIRCLE('',#315,6.0);
#203=CURVE_STYLE('',#316,POSITIVE_LENGTH_MEASURE(1.0E-006),#317);
#204=LINE('',#318,#319);
#205=SURFACE_STYLE_USAGE(.BOTH.,#320);
#206=FACE_OUTER_BOUND('',#321,.T.);
#207=CYLINDRICAL_SURFACE('',#322,6.0);
#208=CURVE_STYLE('',#323,POSITIVE_LENGTH_MEASURE(1.0E-006),#324);
#209=CIRCLE('',#325,6.0);
#210=POINT_STYLE(' ',#326,POSITIVE_LENGTH_MEASURE(1.0E-006),#327);
#211=CARTESIAN_POINT('',(3.20000000000002,6.30504127494149E-015,1.99999999999997));
#212=SURFACE_STYLE_USAGE(.BOTH.,#328);
#213=FACE_OUTER_BOUND('',#329,.T.);
#214=SPHERICAL_SURFACE('',#330,8.99999999999999);
#215=CURVE_STYLE('',#331,POSITIVE_LENGTH_MEASURE(1.0E-006),#332);
#216=CIRCLE('',#333,3.46031030631661);
#217=CURVE_STYLE('',#334,POSITIVE_LENGTH_MEASURE(1.0E-006),#335);
#218=LINE('',#336,#337);
#219=CURVE_STYLE('',#338,POSITIVE_LENGTH_MEASURE(1.0E-006),#339);
#220=LINE('',#340,#341);
#221=CURVE_STYLE('',#342,POSITIVE_LENGTH_MEASURE(1.0E-006),#343);
#222=CIRCLE('',#344,6.0);
#223=CURVE_STYLE('',#345,POSITIVE_LENGTH_MEASURE(1.0E-006),#346);
#224=CIRCLE('',#347,3.46031030631661);
#225=SURFACE_STYLE_USAGE(.BOTH.,#348);
#226=FACE_OUTER_BOUND('',#349,.T.);
#227=FACE_BOUND('',#350,.T.);
#228=PLANE('',#351);
#229=POINT_STYLE(' ',#352,POSITIVE_LENGTH_MEASURE(1.0E-006),#353);
#230=CARTESIAN_POINT('',(-6.0,4.60298906970991E-015,1.60000000000009));
#231=POINT_STYLE(' ',#354,POSITIVE_LENGTH_MEASURE(1.0E-006),#355);
#232=CARTESIAN_POINT('',(3.20000000000002,6.30504127494149E-015,-2.8421709430404E-014));
#233=POINT_STYLE(' ',#356,POSITIVE_LENGTH_MEASURE(1.0E-006),#357);
#234=CARTESIAN_POINT('',(-3.19999999999996,4.97037097585662E-015,1.99999999999997));
#235=CURVE_STYLE('',#358,POSITIVE_LENGTH_MEASURE(1.0E-006),#359);
#236=CIRCLE('',#360,3.19999999999999);
#237=SURFACE_STYLE_USAGE(.BOTH.,#361);
#238=FACE_OUTER_BOUND('',#362,.T.);
#239=SPHERICAL_SURFACE('',#363,8.99999999999999);
#240=POINT_STYLE(' ',#364,POSITIVE_LENGTH_MEASURE(1.0E-006),#365);
#241=CARTESIAN_POINT('',(6.00000000000003,7.21802596451394E-015,1.60000000000005));
#242=CURVE_STYLE('',#366,POSITIVE_LENGTH_MEASURE(1.0E-006),#367);
#243=LINE('',#368,#369);
#244=SURFACE_STYLE_USAGE(.BOTH.,#370);
#245=FACE_OUTER_BOUND('',#371,.T.);
#246=CYLINDRICAL_SURFACE('',#372,3.19999999999999);
#247=CURVE_STYLE('',#373,POSITIVE_LENGTH_MEASURE(1.0E-006),#374);
#248=CIRCLE('',#375,3.19999999999999);
#249=SURFACE_STYLE_USAGE(.BOTH.,#376);
#250=FACE_OUTER_BOUND('',#377,.T.);
#251=CONICAL_SURFACE('',#378,3.34999999999999,0.785398163397448);
#252=CURVE_STYLE('',#379,POSITIVE_LENGTH_MEASURE(1.0E-006),#380);
#253=CIRCLE('',#381,6.0);
#254=CURVE_STYLE('',#382,POSITIVE_LENGTH_MEASURE(1.0E-006),#383);
#255=LINE('',#384,#385);
#256=POINT_STYLE(' ',#386,POSITIVE_LENGTH_MEASURE(1.0E-006),#387);
#257=CARTESIAN_POINT('',(-5.99999999999997,4.64585029209369E-015,2.29999999999998));
#258=POINT_STYLE(' ',#388,POSITIVE_LENGTH_MEASURE(1.0E-006),#389);
#259=CARTESIAN_POINT('',(-3.19999999999996,4.84791034047438E-015,-2.8421709430404E-014));
#260=SURFACE_STYLE_USAGE(.BOTH.,#390);
#261=CLOSED_SHELL('',(#133,#83,#85,#127,#105,#137,#117,#99,#79,#73));
#262=POINT_STYLE(' ',#391,POSITIVE_LENGTH_MEASURE(1.0E-006),#392);
#263=CARTESIAN_POINT('',(6.00000000000003,7.11391504917657E-015,2.29999999999998));
#264=POINT_STYLE(' ',#393,POSITIVE_LENGTH_MEASURE(1.0E-006),#394);
#265=CARTESIAN_POINT('',(3.46031030631665,6.59600193738956E-015,-2.8421709430404E-014));
#266=PRODUCT_CONTEXT('',#53,'mechanical');
#267=PRODUCT_DEFINITION_FORMATION_WITH_SPECIFIED_SOURCE(' ','NONE',#152,.NOT_KNOWN.);
#268=CARTESIAN_POINT('',(0.0,0.0,0.0));
#269=DIRECTION('',(0.0,0.0,1.0));
#270=DIRECTION('',(1.0,0.0,0.0));
#271= (NAMED_UNIT(#160)LENGTH_UNIT()SI_UNIT(.MILLI.,.METRE.));
#272=PRE_DEFINED_MARKER('');
#273=COLOUR_RGB('',0.509803950786591,0.509803950786591,0.588235318660736);
#274=DRAUGHTING_PRE_DEFINED_CURVE_FONT('continuous');
#275=COLOUR_RGB('',0.509803950786591,0.509803950786591,0.588235318660736);
#276=AXIS2_PLACEMENT_3D('',#396,#397,#398);
#277=DRAUGHTING_PRE_DEFINED_CURVE_FONT('continuous');
#278=COLOUR_RGB('',0.509803950786591,0.509803950786591,0.588235318660736);
#279=AXIS2_PLACEMENT_3D('',#399,#400,#401);
#280=SURFACE_SIDE_STYLE('',(#402));
#281=EDGE_LOOP('',(#403,#404,#405,#406));
#282=AXIS2_PLACEMENT_3D('',#407,#408,#409);
#283=PRE_DEFINED_MARKER('');
#284=COLOUR_RGB('',0.509803950786591,0.509803950786591,0.588235318660736);
#285=PRE_DEFINED_MARKER('');
#286=COLOUR_RGB('',0.509803950786591,0.509803950786591,0.588235318660736);
#287=SURFACE_SIDE_STYLE('',(#410));
#288=EDGE_LOOP('',(#411,#412));
#289=EDGE_LOOP('',(#413,#414));
#290=AXIS2_PLACEMENT_3D('',#415,#416,#417);
#291=DRAUGHTING_PRE_DEFINED_CURVE_FONT('continuous');
#292=COLOUR_RGB('',0.509803950786591,0.509803950786591,0.588235318660736);
#293=AXIS2_PLACEMENT_3D('',#418,#419,#420);
#294=SURFACE_SIDE_STYLE('',(#421));
#295=EDGE_LOOP('',(#422,#423,#424,#425));
#296=AXIS2_PLACEMENT_3D('',#426,#427,#428);
#297=SURFACE_SIDE_STYLE('',(#429));
#298=EDGE_LOOP('',(#430,#431,#432,#433));
#299=AXIS2_PLACEMENT_3D('',#434,#435,#436);
#300=DRAUGHTING_PRE_DEFINED_CURVE_FONT('continuous');
#301=COLOUR_RGB('',0.509803950786591,0.509803950786591,0.588235318660736);
#302=CARTESIAN_POINT('',(-5.99999999999997,3.64731315959766E-015,1.95000000000002));
#303=VECTOR('',#437,1.0);
#304=DRAUGHTING_PRE_DEFINED_CURVE_FONT('continuous');
#305=COLOUR_RGB('',0.509803950786591,0.509803950786591,0.588235318660736);
#306=AXIS2_PLACEMENT_3D('',#438,#439,#440);
#307=DRAUGHTING_PRE_DEFINED_CURVE_FONT('continuous');
#308=COLOUR_RGB('',0.509803950786591,0.509803950786591,0.588235318660736);
#309=AXIS2_PLACEMENT_3D('',#441,#442,#443);
#310=DRAUGHTING_PRE_DEFINED_CURVE_FONT('continuous');
#311=COLOUR_RGB('',0.509803950786591,0.509803950786591,0.588235318660736);
#312=AXIS2_PLACEMENT_3D('',#444,#445,#446);
#313=DRAUGHTING_PRE_DEFINED_CURVE_FONT('continuous');
#314=COLOUR_RGB('',0.509803950786591,0.509803950786591,0.588235318660736);
#315=AXIS2_PLACEMENT_3D('',#447,#448,#449);
#316=DRAUGHTING_PRE_DEFINED_CURVE_FONT('continuous');
#317=COLOUR_RGB('',0.509803950786591,0.509803950786591,0.588235318660736);
#318=CARTESIAN_POINT('',(6.00000000000003,7.11391504917657E-015,1.95000000000002));
#319=VECTOR('',#450,1.0);
#320=SURFACE_SIDE_STYLE('',(#451));
#321=EDGE_LOOP('',(#452,#453,#454,#455));
#322=AXIS2_PLACEMENT_3D('',#456,#457,#458);
#323=DRAUGHTING_PRE_DEFINED_CURVE_FONT('continuous');
#324=COLOUR_RGB('',0.509803950786591,0.509803950786591,0.588235318660736);
#325=AXIS2_PLACEMENT_3D('',#459,#460,#461);
#326=PRE_DEFINED_MARKER('');
#327=COLOUR_RGB('',0.509803950786591,0.509803950786591,0.588235318660736);
#328=SURFACE_SIDE_STYLE('',(#462));
#329=EDGE_LOOP('',(#463,#464,#465,#466));
#330=AXIS2_PLACEMENT_3D('',#467,#468,#469);
#331=DRAUGHTING_PRE_DEFINED_CURVE_FONT('continuous');
#332=COLOUR_RGB('',0.509803950786591,0.509803950786591,0.588235318660736);
#333=AXIS2_PLACEMENT_3D('',#470,#471,#472);
#334=DRAUGHTING_PRE_DEFINED_CURVE_FONT('continuous');
#335=COLOUR_RGB('',0.509803950786591,0.509803950786591,0.588235318660736);
#336=CARTESIAN_POINT('',(-3.19999999999996,4.45618693383275E-015,0.999999999999972));
#337=VECTOR('',#473,1.0);
#338=DRAUGHTING_PRE_DEFINED_CURVE_FONT('continuous');
#339=COLOUR_RGB('',0.509803950786591,0.509803950786591,0.588235318660736);
#340=CARTESIAN_POINT('',(3.35000000000002,6.34837379856123E-015,2.14999999999998));
#341=VECTOR('',#474,1.0);
#342=DRAUGHTING_PRE_DEFINED_CURVE_FONT('continuous');
#343=COLOUR_RGB('',0.509803950786591,0.509803950786591,0.588235318660736);
#344=AXIS2_PLACEMENT_3D('',#475,#476,#477);
#345=DRAUGHTING_PRE_DEFINED_CURVE_FONT('continuous');
#346=COLOUR_RGB('',0.509803950786591,0.509803950786591,0.588235318660736);
#347=AXIS2_PLACEMENT_3D('',#478,#479,#480);
#348=SURFACE_SIDE_STYLE('',(#481));
#349=EDGE_LOOP('',(#482,#483));
#350=EDGE_LOOP('',(#484,#485));
#351=AXIS2_PLACEMENT_3D('',#486,#487,#488);
#352=PRE_DEFINED_MARKER('');
#353=COLOUR_RGB('',0.509803950786591,0.509803950786591,0.588235318660736);
#354=PRE_DEFINED_MARKER('');
#355=COLOUR_RGB('',0.509803950786591,0.509803950786591,0.588235318660736);
#356=PRE_DEFINED_MARKER('');
#357=COLOUR_RGB('',0.509803950786591,0.509803950786591,0.588235318660736);
#358=DRAUGHTING_PRE_DEFINED_CURVE_FONT('continuous');
#359=COLOUR_RGB('',0.509803950786591,0.509803950786591,0.588235318660736);
#360=AXIS2_PLACEMENT_3D('',#489,#490,#491);
#361=SURFACE_SIDE_STYLE('',(#492));
#362=EDGE_LOOP('',(#493,#494,#495,#496));
#363=AXIS2_PLACEMENT_3D('',#497,#498,#499);
#364=PRE_DEFINED_MARKER('');
#365=COLOUR_RGB('',0.509803950786591,0.509803950786591,0.588235318660736);
#366=DRAUGHTING_PRE_DEFINED_CURVE_FONT('continuous');
#367=COLOUR_RGB('',0.509803950786591,0.509803950786591,0.588235318660736);
#368=CARTESIAN_POINT('',(-3.34999999999997,4.41285441021301E-015,2.14999999999998));
#369=VECTOR('',#500,1.0);
#370=SURFACE_SIDE_STYLE('',(#501));
#371=EDGE_LOOP('',(#502,#503,#504,#505));
#372=AXIS2_PLACEMENT_3D('',#506,#507,#508);
#373=DRAUGHTING_PRE_DEFINED_CURVE_FONT('continuous');
#374=COLOUR_RGB('',0.509803950786591,0.509803950786591,0.588235318660736);
#375=AXIS2_PLACEMENT_3D('',#509,#510,#511);
#376=SURFACE_SIDE_STYLE('',(#512));
#377=EDGE_LOOP('',(#513,#514,#515,#516));
#378=AXIS2_PLACEMENT_3D('',#517,#518,#519);
#379=DRAUGHTING_PRE_DEFINED_CURVE_FONT('continuous');
#380=COLOUR_RGB('',0.509803950786591,0.509803950786591,0.588235318660736);
#381=AXIS2_PLACEMENT_3D('',#520,#521,#522);
#382=DRAUGHTING_PRE_DEFINED_CURVE_FONT('continuous');
#383=COLOUR_RGB('',0.509803950786591,0.509803950786591,0.588235318660736);
#384=CARTESIAN_POINT('',(3.20000000000002,6.30504127494149E-015,0.999999999999972));
#385=VECTOR('',#523,1.0);
#386=PRE_DEFINED_MARKER('');
#387=COLOUR_RGB('',0.509803950786591,0.509803950786591,0.588235318660736);
#388=PRE_DEFINED_MARKER('');
#389=COLOUR_RGB('',0.509803950786591,0.509803950786591,0.588235318660736);
#390=SURFACE_SIDE_STYLE('',(#524));
#391=PRE_DEFINED_MARKER('');
#392=COLOUR_RGB('',0.509803950786591,0.509803950786591,0.588235318660736);
#393=PRE_DEFINED_MARKER('');
#394=COLOUR_RGB('',0.509803950786591,0.509803950786591,0.588235318660736);
#396=CARTESIAN_POINT('',(2.8421709430404E-014,5.38061410438712E-015,2.29999999999998));
#397=DIRECTION('',(-0.0,0.0,-1.0));
#398=DIRECTION('',(-1.0,-1.66422855416005E-016,0.0));
#399=CARTESIAN_POINT('',(2.8421709430404E-014,5.38061410438712E-015,1.99999999999997));
#400=DIRECTION('',(-0.0,0.0,-1.0));
#401=DIRECTION('',(-1.0,-1.66422855416005E-016,0.0));
#402=SURFACE_STYLE_FILL_AREA(#525);
#403=ORIENTED_EDGE('',*,*,#109,.T.);
#404=ORIENTED_EDGE('',*,*,#135,.T.);
#405=ORIENTED_EDGE('',*,*,#141,.T.);
#406=ORIENTED_EDGE('',*,*,#71,.F.);
#407=CARTESIAN_POINT('',(2.8421709430404E-014,5.38061410438712E-015,0.999999999999972));
#408=DIRECTION('',(0.0,-0.0,1.0));
#409=DIRECTION('',(-1.0,-1.66422855416005E-016,0.0));
#410=SURFACE_STYLE_FILL_AREA(#526);
#411=ORIENTED_EDGE('',*,*,#107,.T.);
#412=ORIENTED_EDGE('',*,*,#115,.T.);
#413=ORIENTED_EDGE('',*,*,#135,.F.);
#414=ORIENTED_EDGE('',*,*,#125,.F.);
#415=CARTESIAN_POINT('',(-4.59999999999997,4.67646545093925E-015,-2.8421709430404E-014));
#416=DIRECTION('',(0.0,0.0,-1.0));
#417=DIRECTION('',(1.0,1.22460635382238E-016,0.0));
#418=CARTESIAN_POINT('',(2.8421709430404E-014,5.38061410438712E-015,2.29999999999998));
#419=DIRECTION('',(-0.0,0.0,-1.0));
#420=DIRECTION('',(-1.0,-1.66422855416005E-016,0.0));
#421=SURFACE_STYLE_FILL_AREA(#527);
#422=ORIENTED_EDGE('',*,*,#87,.F.);
#423=ORIENTED_EDGE('',*,*,#101,.T.);
#424=ORIENTED_EDGE('',*,*,#97,.F.);
#425=ORIENTED_EDGE('',*,*,#113,.T.);
#426=CARTESIAN_POINT('',(2.8421709430404E-014,5.38061410438712E-015,1.14999999999998));
#427=DIRECTION('',(0.0,-0.0,1.0));
#428=DIRECTION('',(-1.0,-1.66422855416005E-016,0.0));
#429=SURFACE_STYLE_FILL_AREA(#528);
#430=ORIENTED_EDGE('',*,*,#131,.F.);
#431=ORIENTED_EDGE('',*,*,#69,.F.);
#432=ORIENTED_EDGE('',*,*,#111,.F.);
#433=ORIENTED_EDGE('',*,*,#91,.T.);
#434=CARTESIAN_POINT('',(2.8421709430404E-014,5.38061410438712E-015,2.14999999999998));
#435=DIRECTION('',(0.0,-0.0,1.0));
#436=DIRECTION('',(-1.0,-1.66422855416005E-016,0.0));
#437=DIRECTION('',(0.0,0.0,-1.0));
#438=CARTESIAN_POINT('',(4.17443857259059E-014,5.74849833992709E-015,8.3082039324994));
#439=DIRECTION('',(2.44921270764476E-016,-1.0,0.0));
#440=DIRECTION('',(-0.0,0.0,1.0));
#441=CARTESIAN_POINT('',(2.8421709430404E-014,5.38061410438712E-015,1.99999999999997));
#442=DIRECTION('',(-0.0,0.0,-1.0));
#443=DIRECTION('',(-1.0,-1.66422855416005E-016,0.0));
#444=CARTESIAN_POINT('',(4.17443857259059E-014,5.74849833992709E-015,8.3082039324994));
#445=DIRECTION('',(2.44921270764476E-016,-1.0,0.0));
#446=DIRECTION('',(-0.0,0.0,1.0));
#447=CARTESIAN_POINT('',(2.8421709430404E-014,5.38061410438712E-015,2.29999999999998));
#448=DIRECTION('',(-0.0,0.0,-1.0));
#449=DIRECTION('',(-1.0,-1.66422855416005E-016,0.0));
#450=DIRECTION('',(-0.0,-0.0,1.0));
#451=SURFACE_STYLE_FILL_AREA(#529);
#452=ORIENTED_EDGE('',*,*,#87,.T.);
#453=ORIENTED_EDGE('',*,*,#139,.T.);
#454=ORIENTED_EDGE('',*,*,#97,.T.);
#455=ORIENTED_EDGE('',*,*,#95,.T.);
#456=CARTESIAN_POINT('',(2.8421709430404E-014,5.38061410438712E-015,1.14999999999998));
#457=DIRECTION('',(0.0,-0.0,1.0));
#458=DIRECTION('',(-1.0,-1.66422855416005E-016,0.0));
#459=CARTESIAN_POINT('',(2.8421709430404E-014,5.38061410438712E-015,2.29999999999998));
#460=DIRECTION('',(-0.0,0.0,-1.0));
#461=DIRECTION('',(-1.0,-1.66422855416005E-016,0.0));
#462=SURFACE_STYLE_FILL_AREA(#530);
#463=ORIENTED_EDGE('',*,*,#89,.T.);
#464=ORIENTED_EDGE('',*,*,#139,.F.);
#465=ORIENTED_EDGE('',*,*,#93,.T.);
#466=ORIENTED_EDGE('',*,*,#115,.F.);
#467=CARTESIAN_POINT('',(4.17443857259059E-014,5.74849833992709E-015,8.3082039324994));
#468=DIRECTION('',(0.0,0.0,-1.0));
#469=DIRECTION('',(1.0,1.22460635382238E-016,0.0));
#470=CARTESIAN_POINT('',(4.17443857259059E-014,5.74849833992709E-015,-2.8421709430404E-014));
#471=DIRECTION('',(0.0,0.0,-1.0));
#472=DIRECTION('',(0.0,-1.0,0.0));
#473=DIRECTION('',(0.0,0.0,-1.0));
#474=DIRECTION('',(0.707106781186548,2.04271475316279E-016,0.707106781186548));
#475=CARTESIAN_POINT('',(2.8421709430404E-014,5.38061410438712E-015,1.60000000000005));
#476=DIRECTION('',(0.0,0.0,1.0));
#477=DIRECTION('',(-1.0,-1.66422855416005E-016,0.0));
#478=CARTESIAN_POINT('',(4.17443857259059E-014,5.74849833992709E-015,-2.8421709430404E-014));
#479=DIRECTION('',(0.0,0.0,-1.0));
#480=DIRECTION('',(0.0,-1.0,0.0));
#481=SURFACE_STYLE_FILL_AREA(#531);
#482=ORIENTED_EDGE('',*,*,#101,.F.);
#483=ORIENTED_EDGE('',*,*,#95,.F.);
#484=ORIENTED_EDGE('',*,*,#81,.T.);
#485=ORIENTED_EDGE('',*,*,#69,.T.);
#486=CARTESIAN_POINT('',(-4.74999999999997,4.79892608632149E-015,2.29999999999998));
#487=DIRECTION('',(0.0,0.0,1.0));
#488=DIRECTION('',(-1.0,-1.22460635382238E-016,0.0));
#489=CARTESIAN_POINT('',(2.8421709430404E-014,5.38061410438712E-015,-2.8421709430404E-014));
#490=DIRECTION('',(-0.0,0.0,-1.0));
#491=DIRECTION('',(-1.0,-1.66422855416005E-016,0.0));
#492=SURFACE_STYLE_FILL_AREA(#532);
#493=ORIENTED_EDGE('',*,*,#89,.F.);
#494=ORIENTED_EDGE('',*,*,#107,.F.);
#495=ORIENTED_EDGE('',*,*,#93,.F.);
#496=ORIENTED_EDGE('',*,*,#113,.F.);
#497=CARTESIAN_POINT('',(4.17443857259059E-014,5.74849833992709E-015,8.3082039324994));
#498=DIRECTION('',(0.0,0.0,-1.0));
#499=DIRECTION('',(1.0,1.22460635382238E-016,0.0));
#500=DIRECTION('',(0.707106781186548,2.04271475316279E-016,-0.707106781186548));
#501=SURFACE_STYLE_FILL_AREA(#533);
#502=ORIENTED_EDGE('',*,*,#109,.F.);
#503=ORIENTED_EDGE('',*,*,#91,.F.);
#504=ORIENTED_EDGE('',*,*,#141,.F.);
#505=ORIENTED_EDGE('',*,*,#125,.T.);
#506=CARTESIAN_POINT('',(2.8421709430404E-014,5.38061410438712E-015,0.999999999999972));
#507=DIRECTION('',(0.0,-0.0,1.0));
#508=DIRECTION('',(-1.0,-1.66422855416005E-016,0.0));
#509=CARTESIAN_POINT('',(2.8421709430404E-014,5.38061410438712E-015,-2.8421709430404E-014));
#510=DIRECTION('',(-0.0,0.0,-1.0));
#511=DIRECTION('',(-1.0,-1.66422855416005E-016,0.0));
#512=SURFACE_STYLE_FILL_AREA(#534);
#513=ORIENTED_EDGE('',*,*,#131,.T.);
#514=ORIENTED_EDGE('',*,*,#71,.T.);
#515=ORIENTED_EDGE('',*,*,#111,.T.);
#516=ORIENTED_EDGE('',*,*,#81,.F.);
#517=CARTESIAN_POINT('',(2.8421709430404E-014,5.38061410438712E-015,2.14999999999998));
#518=DIRECTION('',(0.0,-0.0,1.0));
#519=DIRECTION('',(-1.0,-1.66422855416005E-016,0.0));
#520=CARTESIAN_POINT('',(2.8421709430404E-014,5.38061410438712E-015,1.60000000000005));
#521=DIRECTION('',(0.0,0.0,1.0));
#522=DIRECTION('',(-1.0,-1.66422855416005E-016,0.0));
#523=DIRECTION('',(0.0,0.0,1.0));
#524=SURFACE_STYLE_FILL_AREA(#535);
#525=FILL_AREA_STYLE('',(#536));
#526=FILL_AREA_STYLE('',(#537));
#527=FILL_AREA_STYLE('',(#538));
#528=FILL_AREA_STYLE('',(#539));
#529=FILL_AREA_STYLE('',(#540));
#530=FILL_AREA_STYLE('',(#541));
#531=FILL_AREA_STYLE('',(#542));
#532=FILL_AREA_STYLE('',(#543));
#533=FILL_AREA_STYLE('',(#544));
#534=FILL_AREA_STYLE('',(#545));
#535=FILL_AREA_STYLE('',(#546));
#536=FILL_AREA_STYLE_COLOUR('',#547);
#537=FILL_AREA_STYLE_COLOUR('',#548);
#538=FILL_AREA_STYLE_COLOUR('',#549);
#539=FILL_AREA_STYLE_COLOUR('',#550);
#540=FILL_AREA_STYLE_COLOUR('',#551);
#541=FILL_AREA_STYLE_COLOUR('',#552);
#542=FILL_AREA_STYLE_COLOUR('',#553);
#543=FILL_AREA_STYLE_COLOUR('',#554);
#544=FILL_AREA_STYLE_COLOUR('',#555);
#545=FILL_AREA_STYLE_COLOUR('',#556);
#546=FILL_AREA_STYLE_COLOUR('',#557);
#547=COLOUR_RGB('',0.509803950786591,0.509803950786591,0.588235318660736);
#548=COLOUR_RGB('',0.509803950786591,0.509803950786591,0.588235318660736);
#549=COLOUR_RGB('',0.509803950786591,0.509803950786591,0.588235318660736);
#550=COLOUR_RGB('',0.509803950786591,0.509803950786591,0.588235318660736);
#551=COLOUR_RGB('',0.509803950786591,0.509803950786591,0.588235318660736);
#552=COLOUR_RGB('',0.509803950786591,0.509803950786591,0.588235318660736);
#553=COLOUR_RGB('',0.509803950786591,0.509803950786591,0.588235318660736);
#554=COLOUR_RGB('',0.509803950786591,0.509803950786591,0.588235318660736);
#555=COLOUR_RGB('',0.509803950786591,0.509803950786591,0.588235318660736);
#556=COLOUR_RGB('',0.509803950786591,0.509803950786591,0.588235318660736);
#557=COLOUR_RGB('',0.509803950786591,0.509803950786591,0.588235318660736);
ENDSEC;
END-ISO-10303-21;
