ISO-10303-21;
HEADER;
FILE_DESCRIPTION(('STEP AP214'),'1');
FILE_NAME(' ','  ',('TraceParts'),('TraceParts S.A.'),'XStep 1.0',' ',' ');
FILE_SCHEMA(('automotive_design'));
ENDSEC;
DATA;
#1=MECHANICAL_DESIGN_GEOMETRIC_PRESENTATION_REPRESENTATION(' ',(#10,#11,#12,#13,#14,#15,#16,#17,#18,#19,#20,#21,#22,#23,#24,#25,#26,#27,#28,#29,#30,#31,#32,#33,#34,#35,#36,#37,#38,#39,#40,#41,#42,#43,#44),#6);
#2=PRODUCT_DEFINITION_CONTEXT('',#45,'design');
#3=APPLICATION_PROTOCOL_DEFINITION('INTERNATIONAL STANDARD','automotive_design',1994,#45);
#4=PRODUCT_CATEGORY_RELATIONSHIP('NONE','NONE',#46,#47);
#5=SHAPE_DEFINITION_REPRESENTATION(#48,#49);
#6= (GEOMETRIC_REPRESENTATION_CONTEXT(3)GLOBAL_UNCERTAINTY_ASSIGNED_CONTEXT((#52))GLOBAL_UNIT_ASSIGNED_CONTEXT((#54,#55,#56))REPRESENTATION_CONTEXT('NONE','WORKSPACE'));
#10=STYLED_ITEM('',(#58),#59);
#11=STYLED_ITEM('',(#60),#61);
#12=STYLED_ITEM('',(#62),#63);
#13=STYLED_ITEM('',(#64),#65);
#14=STYLED_ITEM('',(#66),#67);
#15=STYLED_ITEM('',(#68),#69);
#16=STYLED_ITEM('',(#70),#71);
#17=STYLED_ITEM('',(#72),#73);
#18=STYLED_ITEM('',(#74),#75);
#19=STYLED_ITEM('',(#76),#77);
#20=STYLED_ITEM('',(#78),#79);
#21=STYLED_ITEM('',(#80),#81);
#22=STYLED_ITEM('',(#82),#83);
#23=STYLED_ITEM('',(#84),#85);
#24=STYLED_ITEM('',(#86),#87);
#25=STYLED_ITEM('',(#88),#89);
#26=STYLED_ITEM('',(#90),#91);
#27=STYLED_ITEM('',(#92),#93);
#28=STYLED_ITEM('',(#94),#95);
#29=STYLED_ITEM('',(#96),#97);
#30=STYLED_ITEM('',(#98),#99);
#31=STYLED_ITEM('',(#100),#101);
#32=STYLED_ITEM('',(#102),#103);
#33=STYLED_ITEM('',(#104),#105);
#34=STYLED_ITEM('',(#106),#107);
#35=STYLED_ITEM('',(#108),#109);
#36=STYLED_ITEM('',(#110),#111);
#37=STYLED_ITEM('',(#112),#113);
#38=STYLED_ITEM('',(#114),#115);
#39=STYLED_ITEM('',(#116),#117);
#40=STYLED_ITEM('',(#118),#119);
#41=STYLED_ITEM('',(#120),#121);
#42=STYLED_ITEM('',(#122),#123);
#43=STYLED_ITEM('',(#124),#125);
#44=STYLED_ITEM('',(#126),#127);
#45=APPLICATION_CONTEXT(' ');
#46=PRODUCT_CATEGORY('part','NONE');
#47=PRODUCT_RELATED_PRODUCT_CATEGORY('detail',' ',(#128));
#48=PRODUCT_DEFINITION_SHAPE('NONE','NONE',#129);
#49=ADVANCED_BREP_SHAPE_REPRESENTATION('1',(#59,#130),#6);
#52=UNCERTAINTY_MEASURE_WITH_UNIT(LENGTH_MEASURE(1.0E-006),#54,'','');
#54= (CONVERSION_BASED_UNIT('MILLIMETRE',#133)LENGTH_UNIT()NAMED_UNIT(#136));
#55= (NAMED_UNIT(#138)PLANE_ANGLE_UNIT()SI_UNIT($,.RADIAN.));
#56= (NAMED_UNIT(#138)SOLID_ANGLE_UNIT()SI_UNIT($,.STERADIAN.));
#58=PRESENTATION_STYLE_ASSIGNMENT((#144));
#59=MANIFOLD_SOLID_BREP('1',#145);
#60=PRESENTATION_STYLE_ASSIGNMENT((#146));
#61=EDGE_CURVE('',#105,#99,#147,.T.);
#62=PRESENTATION_STYLE_ASSIGNMENT((#148));
#63=EDGE_CURVE('',#117,#121,#149,.T.);
#64=PRESENTATION_STYLE_ASSIGNMENT((#150));
#65=ADVANCED_FACE('',(#151,#152),#153,.T.);
#66=PRESENTATION_STYLE_ASSIGNMENT((#154));
#67=EDGE_CURVE('',#121,#117,#155,.T.);
#68=PRESENTATION_STYLE_ASSIGNMENT((#156));
#69=ADVANCED_FACE('',(#157),#158,.F.);
#70=PRESENTATION_STYLE_ASSIGNMENT((#159));
#71=EDGE_CURVE('',#123,#93,#160,.T.);
#72=PRESENTATION_STYLE_ASSIGNMENT((#161));
#73=EDGE_CURVE('',#121,#87,#162,.T.);
#74=PRESENTATION_STYLE_ASSIGNMENT((#163));
#75=EDGE_CURVE('',#87,#109,#164,.T.);
#76=PRESENTATION_STYLE_ASSIGNMENT((#165));
#77=VERTEX_POINT('',#166);
#78=PRESENTATION_STYLE_ASSIGNMENT((#167));
#79=EDGE_CURVE('',#77,#115,#168,.T.);
#80=PRESENTATION_STYLE_ASSIGNMENT((#169));
#81=EDGE_CURVE('',#93,#105,#170,.T.);
#82=PRESENTATION_STYLE_ASSIGNMENT((#171));
#83=ADVANCED_FACE('',(#172),#173,.F.);
#84=PRESENTATION_STYLE_ASSIGNMENT((#174));
#85=ADVANCED_FACE('',(#175,#176),#177,.T.);
#86=PRESENTATION_STYLE_ASSIGNMENT((#178));
#87=VERTEX_POINT('',#179);
#88=PRESENTATION_STYLE_ASSIGNMENT((#180));
#89=EDGE_CURVE('',#93,#123,#181,.T.);
#90=PRESENTATION_STYLE_ASSIGNMENT((#182));
#91=ADVANCED_FACE('',(#183),#184,.F.);
#92=PRESENTATION_STYLE_ASSIGNMENT((#185));
#93=VERTEX_POINT('',#186);
#94=PRESENTATION_STYLE_ASSIGNMENT((#187));
#95=EDGE_CURVE('',#123,#115,#188,.T.);
#96=PRESENTATION_STYLE_ASSIGNMENT((#189));
#97=ADVANCED_FACE('',(#190),#191,.T.);
#98=PRESENTATION_STYLE_ASSIGNMENT((#192));
#99=VERTEX_POINT('',#193);
#100=PRESENTATION_STYLE_ASSIGNMENT((#194));
#101=EDGE_CURVE('',#99,#123,#195,.T.);
#102=PRESENTATION_STYLE_ASSIGNMENT((#196));
#103=EDGE_CURVE('',#115,#77,#197,.T.);
#104=PRESENTATION_STYLE_ASSIGNMENT((#198));
#105=VERTEX_POINT('',#199);
#106=PRESENTATION_STYLE_ASSIGNMENT((#200));
#107=EDGE_CURVE('',#109,#87,#201,.T.);
#108=PRESENTATION_STYLE_ASSIGNMENT((#202));
#109=VERTEX_POINT('',#203);
#110=PRESENTATION_STYLE_ASSIGNMENT((#204));
#111=ADVANCED_FACE('',(#205),#206,.F.);
#112=PRESENTATION_STYLE_ASSIGNMENT((#207));
#113=EDGE_CURVE('',#99,#105,#208,.T.);
#114=PRESENTATION_STYLE_ASSIGNMENT((#209));
#115=VERTEX_POINT('',#210);
#116=PRESENTATION_STYLE_ASSIGNMENT((#211));
#117=VERTEX_POINT('',#212);
#118=PRESENTATION_STYLE_ASSIGNMENT((#213));
#119=ADVANCED_FACE('',(#214),#215,.T.);
#120=PRESENTATION_STYLE_ASSIGNMENT((#216));
#121=VERTEX_POINT('',#217);
#122=PRESENTATION_STYLE_ASSIGNMENT((#218));
#123=VERTEX_POINT('',#219);
#124=PRESENTATION_STYLE_ASSIGNMENT((#220));
#125=EDGE_CURVE('',#77,#93,#221,.T.);
#126=PRESENTATION_STYLE_ASSIGNMENT((#222));
#127=EDGE_CURVE('',#109,#117,#223,.T.);
#128=PRODUCT('1','1','PART-1-DESC',(#224));
#129=PRODUCT_DEFINITION('NONE','NONE',#225,#2);
#130=AXIS2_PLACEMENT_3D('',#226,#227,#228);
#133=LENGTH_MEASURE_WITH_UNIT(LENGTH_MEASURE(1.0),#229);
#136=DIMENSIONAL_EXPONENTS(1.0,0.0,0.0,0.0,0.0,0.0,0.0);
#138=DIMENSIONAL_EXPONENTS(0.0,0.0,0.0,0.0,0.0,0.0,0.0);
#144=SURFACE_STYLE_USAGE(.BOTH.,#230);
#145=CLOSED_SHELL('',(#111,#97,#69,#83,#85,#119,#65,#91));
#146=CURVE_STYLE('',#231,POSITIVE_LENGTH_MEASURE(1.0E-006),#232);
#147=CIRCLE('',#233,14.0);
#148=CURVE_STYLE('',#234,POSITIVE_LENGTH_MEASURE(1.0E-006),#235);
#149=CIRCLE('',#236,30.0000000000001);
#150=SURFACE_STYLE_USAGE(.BOTH.,#237);
#151=FACE_BOUND('',#238,.T.);
#152=FACE_OUTER_BOUND('',#239,.T.);
#153=PLANE('',#240);
#154=CURVE_STYLE('',#241,POSITIVE_LENGTH_MEASURE(1.0E-006),#242);
#155=CIRCLE('',#243,30.0000000000001);
#156=SURFACE_STYLE_USAGE(.BOTH.,#244);
#157=FACE_OUTER_BOUND('',#245,.T.);
#158=CONICAL_SURFACE('',#246,16.25,1.0471975511966);
#159=CURVE_STYLE('',#247,POSITIVE_LENGTH_MEASURE(1.0E-006),#248);
#160=CIRCLE('',#249,14.0);
#161=CURVE_STYLE('',#250,POSITIVE_LENGTH_MEASURE(1.0E-006),#251);
#162=LINE('',#252,#253);
#163=CURVE_STYLE('',#254,POSITIVE_LENGTH_MEASURE(1.0E-006),#255);
#164=CIRCLE('',#256,30.0000000000001);
#165=POINT_STYLE(' ',#257,POSITIVE_LENGTH_MEASURE(1.0E-006),#258);
#166=CARTESIAN_POINT('',(-18.5000000000001,1.02278379501996E-014,9.99999999999997));
#167=CURVE_STYLE('',#259,POSITIVE_LENGTH_MEASURE(1.0E-006),#260);
#168=CIRCLE('',#261,18.5000000000001);
#169=CURVE_STYLE('',#262,POSITIVE_LENGTH_MEASURE(1.0E-006),#263);
#170=LINE('',#264,#265);
#171=SURFACE_STYLE_USAGE(.BOTH.,#266);
#172=FACE_OUTER_BOUND('',#267,.T.);
#173=CONICAL_SURFACE('',#268,16.25,1.0471975511966);
#174=SURFACE_STYLE_USAGE(.BOTH.,#269);
#175=FACE_OUTER_BOUND('',#270,.T.);
#176=FACE_BOUND('',#271,.T.);
#177=PLANE('',#272);
#178=POINT_STYLE(' ',#273,POSITIVE_LENGTH_MEASURE(1.0E-006),#274);
#179=CARTESIAN_POINT('',(30.0000000000001,2.11518814998611E-014,9.99999999999997));
#180=CURVE_STYLE('',#275,POSITIVE_LENGTH_MEASURE(1.0E-006),#276);
#181=CIRCLE('',#277,14.0);
#182=SURFACE_STYLE_USAGE(.BOTH.,#278);
#183=FACE_OUTER_BOUND('',#279,.T.);
#184=CYLINDRICAL_SURFACE('',#280,14.0);
#185=POINT_STYLE(' ',#281,POSITIVE_LENGTH_MEASURE(1.0E-006),#282);
#186=CARTESIAN_POINT('',(-14.0,1.06198297776128E-014,7.40192378864666));
#187=CURVE_STYLE('',#283,POSITIVE_LENGTH_MEASURE(1.0E-006),#284);
#188=LINE('',#285,#286);
#189=SURFACE_STYLE_USAGE(.BOTH.,#287);
#190=FACE_OUTER_BOUND('',#288,.T.);
#191=CYLINDRICAL_SURFACE('',#289,30.0000000000001);
#192=POINT_STYLE(' ',#290,POSITIVE_LENGTH_MEASURE(1.0E-006),#291);
#193=CARTESIAN_POINT('',(14.0,1.65340032091464E-014,-2.8421709430404E-014));
#194=CURVE_STYLE('',#292,POSITIVE_LENGTH_MEASURE(1.0E-006),#293);
#195=LINE('',#294,#295);
#196=CURVE_STYLE('',#296,POSITIVE_LENGTH_MEASURE(1.0E-006),#297);
#197=CIRCLE('',#298,18.5000000000001);
#198=POINT_STYLE(' ',#299,POSITIVE_LENGTH_MEASURE(1.0E-006),#300);
#199=CARTESIAN_POINT('',(-14.0,1.01666076325085E-014,-2.8421709430404E-014));
#200=CURVE_STYLE('',#301,POSITIVE_LENGTH_MEASURE(1.0E-006),#302);
#201=CIRCLE('',#303,30.0000000000001);
#202=POINT_STYLE(' ',#304,POSITIVE_LENGTH_MEASURE(1.0E-006),#305);
#203=CARTESIAN_POINT('',(-30.0000000000001,8.81954064330389E-015,9.99999999999997));
#204=SURFACE_STYLE_USAGE(.BOTH.,#306);
#205=FACE_OUTER_BOUND('',#307,.T.);
#206=CYLINDRICAL_SURFACE('',#308,14.0);
#207=CURVE_STYLE('',#309,POSITIVE_LENGTH_MEASURE(1.0E-006),#310);
#208=CIRCLE('',#311,14.0);
#209=POINT_STYLE(' ',#312,POSITIVE_LENGTH_MEASURE(1.0E-006),#313);
#210=CARTESIAN_POINT('',(18.5000000000001,1.78327814784099E-014,9.99999999999997));
#211=POINT_STYLE(' ',#314,POSITIVE_LENGTH_MEASURE(1.0E-006),#315);
#212=CARTESIAN_POINT('',(-30.0000000000001,8.2072374663927E-015,-2.8421709430404E-014));
#213=SURFACE_STYLE_USAGE(.BOTH.,#316);
#214=FACE_OUTER_BOUND('',#317,.T.);
#215=CYLINDRICAL_SURFACE('',#318,30.0000000000001);
#216=POINT_STYLE(' ',#319,POSITIVE_LENGTH_MEASURE(1.0E-006),#320);
#217=CARTESIAN_POINT('',(30.0000000000001,2.11518814998611E-014,-2.8421709430404E-014));
#218=POINT_STYLE(' ',#321,POSITIVE_LENGTH_MEASURE(1.0E-006),#322);
#219=CARTESIAN_POINT('',(14.0,1.65340032091464E-014,7.40192378864666));
#220=CURVE_STYLE('',#323,POSITIVE_LENGTH_MEASURE(1.0E-006),#324);
#221=LINE('',#325,#326);
#222=CURVE_STYLE('',#327,POSITIVE_LENGTH_MEASURE(1.0E-006),#328);
#223=LINE('',#329,#330);
#224=PRODUCT_CONTEXT('',#45,'mechanical');
#225=PRODUCT_DEFINITION_FORMATION_WITH_SPECIFIED_SOURCE(' ','NONE',#128,.NOT_KNOWN.);
#226=CARTESIAN_POINT('',(0.0,0.0,0.0));
#227=DIRECTION('',(0.0,0.0,1.0));
#228=DIRECTION('',(1.0,0.0,0.0));
#229= (NAMED_UNIT(#136)LENGTH_UNIT()SI_UNIT(.MILLI.,.METRE.));
#230=SURFACE_SIDE_STYLE('',(#332));
#231=DRAUGHTING_PRE_DEFINED_CURVE_FONT('continuous');
#232=COLOUR_RGB('',0.509803950786591,0.509803950786591,0.588235318660736);
#233=AXIS2_PLACEMENT_3D('',#333,#334,#335);
#234=DRAUGHTING_PRE_DEFINED_CURVE_FONT('continuous');
#235=COLOUR_RGB('',0.509803950786591,0.509803950786591,0.588235318660736);
#236=AXIS2_PLACEMENT_3D('',#336,#337,#338);
#237=SURFACE_SIDE_STYLE('',(#339));
#238=EDGE_LOOP('',(#340,#341));
#239=EDGE_LOOP('',(#342,#343));
#240=AXIS2_PLACEMENT_3D('',#344,#345,#346);
#241=DRAUGHTING_PRE_DEFINED_CURVE_FONT('continuous');
#242=COLOUR_RGB('',0.509803950786591,0.509803950786591,0.588235318660736);
#243=AXIS2_PLACEMENT_3D('',#347,#348,#349);
#244=SURFACE_SIDE_STYLE('',(#350));
#245=EDGE_LOOP('',(#351,#352,#353,#354));
#246=AXIS2_PLACEMENT_3D('',#355,#356,#357);
#247=DRAUGHTING_PRE_DEFINED_CURVE_FONT('continuous');
#248=COLOUR_RGB('',0.509803950786591,0.509803950786591,0.588235318660736);
#249=AXIS2_PLACEMENT_3D('',#358,#359,#360);
#250=DRAUGHTING_PRE_DEFINED_CURVE_FONT('continuous');
#251=COLOUR_RGB('',0.509803950786591,0.509803950786591,0.588235318660736);
#252=CARTESIAN_POINT('',(30.0000000000001,2.11518814998611E-014,4.99999999999997));
#253=VECTOR('',#361,1.0);
#254=DRAUGHTING_PRE_DEFINED_CURVE_FONT('continuous');
#255=COLOUR_RGB('',0.509803950786591,0.509803950786591,0.588235318660736);
#256=AXIS2_PLACEMENT_3D('',#362,#363,#364);
#257=PRE_DEFINED_MARKER('');
#258=COLOUR_RGB('',0.509803950786591,0.509803950786591,0.588235318660736);
#259=DRAUGHTING_PRE_DEFINED_CURVE_FONT('continuous');
#260=COLOUR_RGB('',0.509803950786591,0.509803950786591,0.588235318660736);
#261=AXIS2_PLACEMENT_3D('',#365,#366,#367);
#262=DRAUGHTING_PRE_DEFINED_CURVE_FONT('continuous');
#263=COLOUR_RGB('',0.509803950786591,0.509803950786591,0.588235318660736);
#264=CARTESIAN_POINT('',(-14.0,8.45271620039566E-015,3.70096189432331));
#265=VECTOR('',#368,1.0);
#266=SURFACE_SIDE_STYLE('',(#369));
#267=EDGE_LOOP('',(#370,#371,#372,#373));
#268=AXIS2_PLACEMENT_3D('',#374,#375,#376);
#269=SURFACE_SIDE_STYLE('',(#377));
#270=EDGE_LOOP('',(#378,#379));
#271=EDGE_LOOP('',(#380,#381));
#272=AXIS2_PLACEMENT_3D('',#382,#383,#384);
#273=PRE_DEFINED_MARKER('');
#274=COLOUR_RGB('',0.509803950786591,0.509803950786591,0.588235318660736);
#275=DRAUGHTING_PRE_DEFINED_CURVE_FONT('continuous');
#276=COLOUR_RGB('',0.509803950786591,0.509803950786591,0.588235318660736);
#277=AXIS2_PLACEMENT_3D('',#385,#386,#387);
#278=SURFACE_SIDE_STYLE('',(#388));
#279=EDGE_LOOP('',(#389,#390,#391,#392));
#280=AXIS2_PLACEMENT_3D('',#393,#394,#395);
#281=PRE_DEFINED_MARKER('');
#282=COLOUR_RGB('',0.509803950786591,0.509803950786591,0.588235318660736);
#283=DRAUGHTING_PRE_DEFINED_CURVE_FONT('continuous');
#284=COLOUR_RGB('',0.509803950786591,0.509803950786591,0.588235318660736);
#285=CARTESIAN_POINT('',(16.25,1.71833923437782E-014,8.70096189432331));
#286=VECTOR('',#396,1.0);
#287=SURFACE_SIDE_STYLE('',(#397));
#288=EDGE_LOOP('',(#398,#399,#400,#401));
#289=AXIS2_PLACEMENT_3D('',#402,#403,#404);
#290=PRE_DEFINED_MARKER('');
#291=COLOUR_RGB('',0.509803950786591,0.509803950786591,0.588235318660736);
#292=DRAUGHTING_PRE_DEFINED_CURVE_FONT('continuous');
#293=COLOUR_RGB('',0.509803950786591,0.509803950786591,0.588235318660736);
#294=CARTESIAN_POINT('',(14.0,1.65340032091464E-014,3.70096189432331));
#295=VECTOR('',#405,1.0);
#296=DRAUGHTING_PRE_DEFINED_CURVE_FONT('continuous');
#297=COLOUR_RGB('',0.509803950786591,0.509803950786591,0.588235318660736);
#298=AXIS2_PLACEMENT_3D('',#406,#407,#408);
#299=PRE_DEFINED_MARKER('');
#300=COLOUR_RGB('',0.509803950786591,0.509803950786591,0.588235318660736);
#301=DRAUGHTING_PRE_DEFINED_CURVE_FONT('continuous');
#302=COLOUR_RGB('',0.509803950786591,0.509803950786591,0.588235318660736);
#303=AXIS2_PLACEMENT_3D('',#409,#410,#411);
#304=PRE_DEFINED_MARKER('');
#305=COLOUR_RGB('',0.509803950786591,0.509803950786591,0.588235318660736);
#306=SURFACE_SIDE_STYLE('',(#412));
#307=EDGE_LOOP('',(#413,#414,#415,#416));
#308=AXIS2_PLACEMENT_3D('',#417,#418,#419);
#309=DRAUGHTING_PRE_DEFINED_CURVE_FONT('continuous');
#310=COLOUR_RGB('',0.509803950786591,0.509803950786591,0.588235318660736);
#311=AXIS2_PLACEMENT_3D('',#420,#421,#422);
#312=PRE_DEFINED_MARKER('');
#313=COLOUR_RGB('',0.509803950786591,0.509803950786591,0.588235318660736);
#314=PRE_DEFINED_MARKER('');
#315=COLOUR_RGB('',0.509803950786591,0.509803950786591,0.588235318660736);
#316=SURFACE_SIDE_STYLE('',(#423));
#317=EDGE_LOOP('',(#424,#425,#426,#427));
#318=AXIS2_PLACEMENT_3D('',#428,#429,#430);
#319=PRE_DEFINED_MARKER('');
#320=COLOUR_RGB('',0.509803950786591,0.509803950786591,0.588235318660736);
#321=PRE_DEFINED_MARKER('');
#322=COLOUR_RGB('',0.509803950786591,0.509803950786591,0.588235318660736);
#323=DRAUGHTING_PRE_DEFINED_CURVE_FONT('continuous');
#324=COLOUR_RGB('',0.509803950786591,0.509803950786591,0.588235318660736);
#325=CARTESIAN_POINT('',(-16.25,7.80332706576389E-015,8.70096189432331));
#326=VECTOR('',#431,1.0);
#327=DRAUGHTING_PRE_DEFINED_CURVE_FONT('continuous');
#328=COLOUR_RGB('',0.509803950786591,0.509803950786591,0.588235318660736);
#329=CARTESIAN_POINT('',(-30.0000000000001,3.83483790968094E-015,4.99999999999997));
#330=VECTOR('',#432,1.0);
#332=SURFACE_STYLE_FILL_AREA(#433);
#333=CARTESIAN_POINT('',(0.0,1.2493359704771E-014,-2.8421709430404E-014));
#334=DIRECTION('',(-0.0,0.0,-1.0));
#335=DIRECTION('',(-1.0,-1.66156757787431E-016,0.0));
#336=CARTESIAN_POINT('',(0.0,1.2493359704771E-014,-2.8421709430404E-014));
#337=DIRECTION('',(-0.0,0.0,-1.0));
#338=DIRECTION('',(-1.0,-1.66156757787431E-016,0.0));
#339=SURFACE_STYLE_FILL_AREA(#434);
#340=ORIENTED_EDGE('',*,*,#61,.F.);
#341=ORIENTED_EDGE('',*,*,#113,.F.);
#342=ORIENTED_EDGE('',*,*,#63,.T.);
#343=ORIENTED_EDGE('',*,*,#67,.T.);
#344=CARTESIAN_POINT('',(-22.0,9.1869225494506E-015,-2.8421709430404E-014));
#345=DIRECTION('',(0.0,0.0,-1.0));
#346=DIRECTION('',(1.0,1.22460635382238E-016,0.0));
#347=CARTESIAN_POINT('',(0.0,1.2493359704771E-014,-2.8421709430404E-014));
#348=DIRECTION('',(-0.0,0.0,-1.0));
#349=DIRECTION('',(-1.0,-1.66156757787431E-016,0.0));
#350=SURFACE_STYLE_FILL_AREA(#435);
#351=ORIENTED_EDGE('',*,*,#125,.F.);
#352=ORIENTED_EDGE('',*,*,#103,.F.);
#353=ORIENTED_EDGE('',*,*,#95,.F.);
#354=ORIENTED_EDGE('',*,*,#71,.T.);
#355=CARTESIAN_POINT('',(0.0,1.2493359704771E-014,8.70096189432331));
#356=DIRECTION('',(0.0,-0.0,1.0));
#357=DIRECTION('',(-1.0,-1.66156757787431E-016,0.0));
#358=CARTESIAN_POINT('',(0.0,1.2493359704771E-014,7.40192378864666));
#359=DIRECTION('',(-0.0,0.0,-1.0));
#360=DIRECTION('',(-1.0,-1.66156757787431E-016,0.0));
#361=DIRECTION('',(-0.0,-0.0,1.0));
#362=CARTESIAN_POINT('',(0.0,1.2493359704771E-014,9.99999999999997));
#363=DIRECTION('',(-0.0,0.0,-1.0));
#364=DIRECTION('',(-1.0,-1.66156757787431E-016,0.0));
#365=CARTESIAN_POINT('',(0.0,1.2493359704771E-014,9.99999999999997));
#366=DIRECTION('',(-0.0,0.0,-1.0));
#367=DIRECTION('',(-1.0,-1.66156757787431E-016,0.0));
#368=DIRECTION('',(0.0,0.0,-1.0));
#369=SURFACE_STYLE_FILL_AREA(#436);
#370=ORIENTED_EDGE('',*,*,#125,.T.);
#371=ORIENTED_EDGE('',*,*,#89,.T.);
#372=ORIENTED_EDGE('',*,*,#95,.T.);
#373=ORIENTED_EDGE('',*,*,#79,.F.);
#374=CARTESIAN_POINT('',(0.0,1.2493359704771E-014,8.70096189432331));
#375=DIRECTION('',(0.0,-0.0,1.0));
#376=DIRECTION('',(-1.0,-1.66156757787431E-016,0.0));
#377=SURFACE_STYLE_FILL_AREA(#437);
#378=ORIENTED_EDGE('',*,*,#107,.F.);
#379=ORIENTED_EDGE('',*,*,#75,.F.);
#380=ORIENTED_EDGE('',*,*,#79,.T.);
#381=ORIENTED_EDGE('',*,*,#103,.T.);
#382=CARTESIAN_POINT('',(-24.2500000000001,9.52368929675175E-015,9.99999999999997));
#383=DIRECTION('',(0.0,0.0,1.0));
#384=DIRECTION('',(-1.0,-1.22460635382238E-016,0.0));
#385=CARTESIAN_POINT('',(0.0,1.2493359704771E-014,7.40192378864666));
#386=DIRECTION('',(-0.0,0.0,-1.0));
#387=DIRECTION('',(-1.0,-1.66156757787431E-016,0.0));
#388=SURFACE_STYLE_FILL_AREA(#438);
#389=ORIENTED_EDGE('',*,*,#81,.T.);
#390=ORIENTED_EDGE('',*,*,#61,.T.);
#391=ORIENTED_EDGE('',*,*,#101,.T.);
#392=ORIENTED_EDGE('',*,*,#89,.F.);
#393=CARTESIAN_POINT('',(0.0,1.2493359704771E-014,3.70096189432331));
#394=DIRECTION('',(0.0,-0.0,1.0));
#395=DIRECTION('',(-1.0,-1.66156757787431E-016,0.0));
#396=DIRECTION('',(0.866025403784441,2.49949994458976E-016,0.499999999999995));
#397=SURFACE_STYLE_FILL_AREA(#439);
#398=ORIENTED_EDGE('',*,*,#127,.F.);
#399=ORIENTED_EDGE('',*,*,#107,.T.);
#400=ORIENTED_EDGE('',*,*,#73,.F.);
#401=ORIENTED_EDGE('',*,*,#63,.F.);
#402=CARTESIAN_POINT('',(0.0,1.2493359704771E-014,4.99999999999997));
#403=DIRECTION('',(0.0,-0.0,1.0));
#404=DIRECTION('',(-1.0,-1.66156757787431E-016,0.0));
#405=DIRECTION('',(0.0,0.0,1.0));
#406=CARTESIAN_POINT('',(0.0,1.2493359704771E-014,9.99999999999997));
#407=DIRECTION('',(-0.0,0.0,-1.0));
#408=DIRECTION('',(-1.0,-1.66156757787431E-016,0.0));
#409=CARTESIAN_POINT('',(0.0,1.2493359704771E-014,9.99999999999997));
#410=DIRECTION('',(-0.0,0.0,-1.0));
#411=DIRECTION('',(-1.0,-1.66156757787431E-016,0.0));
#412=SURFACE_STYLE_FILL_AREA(#440);
#413=ORIENTED_EDGE('',*,*,#81,.F.);
#414=ORIENTED_EDGE('',*,*,#71,.F.);
#415=ORIENTED_EDGE('',*,*,#101,.F.);
#416=ORIENTED_EDGE('',*,*,#113,.T.);
#417=CARTESIAN_POINT('',(0.0,1.2493359704771E-014,3.70096189432331));
#418=DIRECTION('',(0.0,-0.0,1.0));
#419=DIRECTION('',(-1.0,-1.66156757787431E-016,0.0));
#420=CARTESIAN_POINT('',(0.0,1.2493359704771E-014,-2.8421709430404E-014));
#421=DIRECTION('',(-0.0,0.0,-1.0));
#422=DIRECTION('',(-1.0,-1.66156757787431E-016,0.0));
#423=SURFACE_STYLE_FILL_AREA(#441);
#424=ORIENTED_EDGE('',*,*,#127,.T.);
#425=ORIENTED_EDGE('',*,*,#67,.F.);
#426=ORIENTED_EDGE('',*,*,#73,.T.);
#427=ORIENTED_EDGE('',*,*,#75,.T.);
#428=CARTESIAN_POINT('',(0.0,1.2493359704771E-014,4.99999999999997));
#429=DIRECTION('',(0.0,-0.0,1.0));
#430=DIRECTION('',(-1.0,-1.66156757787431E-016,0.0));
#431=DIRECTION('',(0.866025403784441,2.49949994458976E-016,-0.499999999999995));
#432=DIRECTION('',(0.0,0.0,-1.0));
#433=FILL_AREA_STYLE('',(#442));
#434=FILL_AREA_STYLE('',(#443));
#435=FILL_AREA_STYLE('',(#444));
#436=FILL_AREA_STYLE('',(#445));
#437=FILL_AREA_STYLE('',(#446));
#438=FILL_AREA_STYLE('',(#447));
#439=FILL_AREA_STYLE('',(#448));
#440=FILL_AREA_STYLE('',(#449));
#441=FILL_AREA_STYLE('',(#450));
#442=FILL_AREA_STYLE_COLOUR('',#451);
#443=FILL_AREA_STYLE_COLOUR('',#452);
#444=FILL_AREA_STYLE_COLOUR('',#453);
#445=FILL_AREA_STYLE_COLOUR('',#454);
#446=FILL_AREA_STYLE_COLOUR('',#455);
#447=FILL_AREA_STYLE_COLOUR('',#456);
#448=FILL_AREA_STYLE_COLOUR('',#457);
#449=FILL_AREA_STYLE_COLOUR('',#458);
#450=FILL_AREA_STYLE_COLOUR('',#459);
#451=COLOUR_RGB('',0.509803950786591,0.509803950786591,0.588235318660736);
#452=COLOUR_RGB('',0.509803950786591,0.509803950786591,0.588235318660736);
#453=COLOUR_RGB('',0.509803950786591,0.509803950786591,0.588235318660736);
#454=COLOUR_RGB('',0.509803950786591,0.509803950786591,0.588235318660736);
#455=COLOUR_RGB('',0.509803950786591,0.509803950786591,0.588235318660736);
#456=COLOUR_RGB('',0.509803950786591,0.509803950786591,0.588235318660736);
#457=COLOUR_RGB('',0.509803950786591,0.509803950786591,0.588235318660736);
#458=COLOUR_RGB('',0.509803950786591,0.509803950786591,0.588235318660736);
#459=COLOUR_RGB('',0.509803950786591,0.509803950786591,0.588235318660736);
ENDSEC;
END-ISO-10303-21;
