ISO-10303-21;
HEADER;
FILE_DESCRIPTION(('STEP AP214'),'1');
FILE_NAME(' ','  ',('TraceParts'),('TraceParts S.A.'),'XStep 1.0',' ',' ');
FILE_SCHEMA(('automotive_design'));
ENDSEC;
DATA;
#1=MECHANICAL_DESIGN_GEOMETRIC_PRESENTATION_REPRESENTATION(' ',(#10,#11,#12,#13,#14,#15,#16,#17,#18,#19,#20,#21,#22,#23,#24,#25,#26,#27,#28,#29,#30,#31,#32,#33,#34,#35,#36,#37,#38,#39,#40,#41,#42,#43,#44),#6);
#2=PRODUCT_DEFINITION_CONTEXT('',#45,'design');
#3=APPLICATION_PROTOCOL_DEFINITION('INTERNATIONAL STANDARD','automotive_design',1994,#45);
#4=PRODUCT_CATEGORY_RELATIONSHIP('NONE','NONE',#46,#47);
#5=SHAPE_DEFINITION_REPRESENTATION(#48,#49);
#6= (GEOMETRIC_REPRESENTATION_CONTEXT(3)GLOBAL_UNCERTAINTY_ASSIGNED_CONTEXT((#52))GLOBAL_UNIT_ASSIGNED_CONTEXT((#54,#55,#56))REPRESENTATION_CONTEXT('NONE','WORKSPACE'));
#10=STYLED_ITEM('',(#58),#59);
#11=STYLED_ITEM('',(#60),#61);
#12=STYLED_ITEM('',(#62),#63);
#13=STYLED_ITEM('',(#64),#65);
#14=STYLED_ITEM('',(#66),#67);
#15=STYLED_ITEM('',(#68),#69);
#16=STYLED_ITEM('',(#70),#71);
#17=STYLED_ITEM('',(#72),#73);
#18=STYLED_ITEM('',(#74),#75);
#19=STYLED_ITEM('',(#76),#77);
#20=STYLED_ITEM('',(#78),#79);
#21=STYLED_ITEM('',(#80),#81);
#22=STYLED_ITEM('',(#82),#83);
#23=STYLED_ITEM('',(#84),#85);
#24=STYLED_ITEM('',(#86),#87);
#25=STYLED_ITEM('',(#88),#89);
#26=STYLED_ITEM('',(#90),#91);
#27=STYLED_ITEM('',(#92),#93);
#28=STYLED_ITEM('',(#94),#95);
#29=STYLED_ITEM('',(#96),#97);
#30=STYLED_ITEM('',(#98),#99);
#31=STYLED_ITEM('',(#100),#101);
#32=STYLED_ITEM('',(#102),#103);
#33=STYLED_ITEM('',(#104),#105);
#34=STYLED_ITEM('',(#106),#107);
#35=STYLED_ITEM('',(#108),#109);
#36=STYLED_ITEM('',(#110),#111);
#37=STYLED_ITEM('',(#112),#113);
#38=STYLED_ITEM('',(#114),#115);
#39=STYLED_ITEM('',(#116),#117);
#40=STYLED_ITEM('',(#118),#119);
#41=STYLED_ITEM('',(#120),#121);
#42=STYLED_ITEM('',(#122),#123);
#43=STYLED_ITEM('',(#124),#125);
#44=STYLED_ITEM('',(#126),#127);
#45=APPLICATION_CONTEXT(' ');
#46=PRODUCT_CATEGORY('part','NONE');
#47=PRODUCT_RELATED_PRODUCT_CATEGORY('detail',' ',(#128));
#48=PRODUCT_DEFINITION_SHAPE('NONE','NONE',#129);
#49=ADVANCED_BREP_SHAPE_REPRESENTATION('1',(#63,#130),#6);
#52=UNCERTAINTY_MEASURE_WITH_UNIT(LENGTH_MEASURE(1.0E-006),#54,'','');
#54= (CONVERSION_BASED_UNIT('MILLIMETRE',#133)LENGTH_UNIT()NAMED_UNIT(#136));
#55= (NAMED_UNIT(#138)PLANE_ANGLE_UNIT()SI_UNIT($,.RADIAN.));
#56= (NAMED_UNIT(#138)SOLID_ANGLE_UNIT()SI_UNIT($,.STERADIAN.));
#58=PRESENTATION_STYLE_ASSIGNMENT((#144));
#59=VERTEX_POINT('',#145);
#60=PRESENTATION_STYLE_ASSIGNMENT((#146));
#61=EDGE_CURVE('',#71,#111,#147,.T.);
#62=PRESENTATION_STYLE_ASSIGNMENT((#148));
#63=MANIFOLD_SOLID_BREP('1',#149);
#64=PRESENTATION_STYLE_ASSIGNMENT((#150));
#65=EDGE_CURVE('',#119,#59,#151,.T.);
#66=PRESENTATION_STYLE_ASSIGNMENT((#152));
#67=ADVANCED_FACE('',(#153),#154,.T.);
#68=PRESENTATION_STYLE_ASSIGNMENT((#155));
#69=EDGE_CURVE('',#97,#107,#156,.T.);
#70=PRESENTATION_STYLE_ASSIGNMENT((#157));
#71=VERTEX_POINT('',#158);
#72=PRESENTATION_STYLE_ASSIGNMENT((#159));
#73=EDGE_CURVE('',#59,#107,#160,.T.);
#74=PRESENTATION_STYLE_ASSIGNMENT((#161));
#75=ADVANCED_FACE('',(#162,#163),#164,.T.);
#76=PRESENTATION_STYLE_ASSIGNMENT((#165));
#77=ADVANCED_FACE('',(#166),#167,.F.);
#78=PRESENTATION_STYLE_ASSIGNMENT((#168));
#79=VERTEX_POINT('',#169);
#80=PRESENTATION_STYLE_ASSIGNMENT((#170));
#81=EDGE_CURVE('',#79,#109,#171,.T.);
#82=PRESENTATION_STYLE_ASSIGNMENT((#172));
#83=EDGE_CURVE('',#113,#71,#173,.T.);
#84=PRESENTATION_STYLE_ASSIGNMENT((#174));
#85=EDGE_CURVE('',#113,#121,#175,.T.);
#86=PRESENTATION_STYLE_ASSIGNMENT((#176));
#87=EDGE_CURVE('',#111,#71,#177,.T.);
#88=PRESENTATION_STYLE_ASSIGNMENT((#178));
#89=ADVANCED_FACE('',(#179),#180,.F.);
#90=PRESENTATION_STYLE_ASSIGNMENT((#181));
#91=ADVANCED_FACE('',(#182,#183),#184,.T.);
#92=PRESENTATION_STYLE_ASSIGNMENT((#185));
#93=EDGE_CURVE('',#59,#119,#186,.T.);
#94=PRESENTATION_STYLE_ASSIGNMENT((#187));
#95=ADVANCED_FACE('',(#188),#189,.F.);
#96=PRESENTATION_STYLE_ASSIGNMENT((#190));
#97=VERTEX_POINT('',#191);
#98=PRESENTATION_STYLE_ASSIGNMENT((#192));
#99=EDGE_CURVE('',#107,#97,#193,.T.);
#100=PRESENTATION_STYLE_ASSIGNMENT((#194));
#101=ADVANCED_FACE('',(#195),#196,.T.);
#102=PRESENTATION_STYLE_ASSIGNMENT((#197));
#103=EDGE_CURVE('',#121,#109,#198,.T.);
#104=PRESENTATION_STYLE_ASSIGNMENT((#199));
#105=EDGE_CURVE('',#109,#79,#200,.T.);
#106=PRESENTATION_STYLE_ASSIGNMENT((#201));
#107=VERTEX_POINT('',#202);
#108=PRESENTATION_STYLE_ASSIGNMENT((#203));
#109=VERTEX_POINT('',#204);
#110=PRESENTATION_STYLE_ASSIGNMENT((#205));
#111=VERTEX_POINT('',#206);
#112=PRESENTATION_STYLE_ASSIGNMENT((#207));
#113=VERTEX_POINT('',#208);
#114=PRESENTATION_STYLE_ASSIGNMENT((#209));
#115=EDGE_CURVE('',#97,#119,#210,.T.);
#116=PRESENTATION_STYLE_ASSIGNMENT((#211));
#117=EDGE_CURVE('',#111,#121,#212,.T.);
#118=PRESENTATION_STYLE_ASSIGNMENT((#213));
#119=VERTEX_POINT('',#214);
#120=PRESENTATION_STYLE_ASSIGNMENT((#215));
#121=VERTEX_POINT('',#216);
#122=PRESENTATION_STYLE_ASSIGNMENT((#217));
#123=EDGE_CURVE('',#79,#113,#218,.T.);
#124=PRESENTATION_STYLE_ASSIGNMENT((#219));
#125=EDGE_CURVE('',#121,#113,#220,.T.);
#126=PRESENTATION_STYLE_ASSIGNMENT((#221));
#127=ADVANCED_FACE('',(#222),#223,.F.);
#128=PRODUCT('1','1','PART-1-DESC',(#224));
#129=PRODUCT_DEFINITION('NONE','NONE',#225,#2);
#130=AXIS2_PLACEMENT_3D('',#226,#227,#228);
#133=LENGTH_MEASURE_WITH_UNIT(LENGTH_MEASURE(1.0),#229);
#136=DIMENSIONAL_EXPONENTS(1.0,0.0,0.0,0.0,0.0,0.0,0.0);
#138=DIMENSIONAL_EXPONENTS(0.0,0.0,0.0,0.0,0.0,0.0,0.0);
#144=POINT_STYLE(' ',#230,POSITIVE_LENGTH_MEASURE(1.0E-006),#231);
#145=CARTESIAN_POINT('',(-14.9999999999999,1.02890682678908E-014,4.99999999999997));
#146=CURVE_STYLE('',#232,POSITIVE_LENGTH_MEASURE(1.0E-006),#233);
#147=CIRCLE('',#234,6.0);
#148=SURFACE_STYLE_USAGE(.BOTH.,#235);
#149=CLOSED_SHELL('',(#95,#101,#127,#89,#91,#67,#75,#77));
#150=CURVE_STYLE('',#236,POSITIVE_LENGTH_MEASURE(1.0E-006),#237);
#151=CIRCLE('',#238,14.9999999999999);
#152=SURFACE_STYLE_USAGE(.BOTH.,#239);
#153=FACE_OUTER_BOUND('',#240,.T.);
#154=CYLINDRICAL_SURFACE('',#241,14.9999999999999);
#155=CURVE_STYLE('',#242,POSITIVE_LENGTH_MEASURE(1.0E-006),#243);
#156=CIRCLE('',#244,14.9999999999999);
#157=POINT_STYLE(' ',#245,POSITIVE_LENGTH_MEASURE(1.0E-006),#246);
#158=CARTESIAN_POINT('',(-6.0,1.10850623978753E-014,-2.8421709430404E-014));
#159=CURVE_STYLE('',#247,POSITIVE_LENGTH_MEASURE(1.0E-006),#248);
#160=LINE('',#249,#250);
#161=SURFACE_STYLE_USAGE(.BOTH.,#251);
#162=FACE_BOUND('',#252,.T.);
#163=FACE_OUTER_BOUND('',#253,.T.);
#164=PLANE('',#254);
#165=SURFACE_STYLE_USAGE(.BOTH.,#255);
#166=FACE_OUTER_BOUND('',#256,.T.);
#167=CYLINDRICAL_SURFACE('',#257,6.0);
#168=POINT_STYLE(' ',#258,POSITIVE_LENGTH_MEASURE(1.0E-006),#259);
#169=CARTESIAN_POINT('',(-9.25000000000006,1.09932169213386E-014,4.99999999999997));
#170=CURVE_STYLE('',#260,POSITIVE_LENGTH_MEASURE(1.0E-006),#261);
#171=CIRCLE('',#262,9.25000000000006);
#172=CURVE_STYLE('',#263,POSITIVE_LENGTH_MEASURE(1.0E-006),#264);
#173=LINE('',#265,#266);
#174=CURVE_STYLE('',#267,POSITIVE_LENGTH_MEASURE(1.0E-006),#268);
#175=CIRCLE('',#269,6.0);
#176=CURVE_STYLE('',#270,POSITIVE_LENGTH_MEASURE(1.0E-006),#271);
#177=CIRCLE('',#272,6.0);
#178=SURFACE_STYLE_USAGE(.BOTH.,#273);
#179=FACE_OUTER_BOUND('',#274,.T.);
#180=CONICAL_SURFACE('',#275,7.62500000000003,1.04719755119661);
#181=SURFACE_STYLE_USAGE(.BOTH.,#276);
#182=FACE_OUTER_BOUND('',#277,.T.);
#183=FACE_BOUND('',#278,.T.);
#184=PLANE('',#279);
#185=CURVE_STYLE('',#280,POSITIVE_LENGTH_MEASURE(1.0E-006),#281);
#186=CIRCLE('',#282,14.9999999999999);
#187=SURFACE_STYLE_USAGE(.BOTH.,#283);
#188=FACE_OUTER_BOUND('',#284,.T.);
#189=CYLINDRICAL_SURFACE('',#285,6.0);
#190=POINT_STYLE(' ',#286,POSITIVE_LENGTH_MEASURE(1.0E-006),#287);
#191=CARTESIAN_POINT('',(14.9999999999999,1.6564587707554E-014,-2.8421709430404E-014));
#192=CURVE_STYLE('',#288,POSITIVE_LENGTH_MEASURE(1.0E-006),#289);
#193=CIRCLE('',#290,14.9999999999999);
#194=SURFACE_STYLE_USAGE(.BOTH.,#291);
#195=FACE_OUTER_BOUND('',#292,.T.);
#196=CYLINDRICAL_SURFACE('',#293,14.9999999999999);
#197=CURVE_STYLE('',#294,POSITIVE_LENGTH_MEASURE(1.0E-006),#295);
#198=LINE('',#296,#297);
#199=CURVE_STYLE('',#298,POSITIVE_LENGTH_MEASURE(1.0E-006),#299);
#200=CIRCLE('',#300,9.25000000000006);
#201=POINT_STYLE(' ',#301,POSITIVE_LENGTH_MEASURE(1.0E-006),#302);
#202=CARTESIAN_POINT('',(-14.9999999999999,9.98291667943516E-015,-2.8421709430404E-014));
#203=POINT_STYLE(' ',#303,POSITIVE_LENGTH_MEASURE(1.0E-006),#304);
#204=CARTESIAN_POINT('',(9.25000000000006,1.48631205757977E-014,4.99999999999997));
#205=POINT_STYLE(' ',#305,POSITIVE_LENGTH_MEASURE(1.0E-006),#306);
#206=CARTESIAN_POINT('',(6.0,1.39014217621962E-014,-2.8421709430404E-014));
#207=POINT_STYLE(' ',#307,POSITIVE_LENGTH_MEASURE(1.0E-006),#308);
#208=CARTESIAN_POINT('',(-6.0,1.12763221300259E-014,3.12361162513369));
#209=CURVE_STYLE('',#309,POSITIVE_LENGTH_MEASURE(1.0E-006),#310);
#210=LINE('',#311,#312);
#211=CURVE_STYLE('',#313,POSITIVE_LENGTH_MEASURE(1.0E-006),#314);
#212=LINE('',#315,#316);
#213=POINT_STYLE(' ',#317,POSITIVE_LENGTH_MEASURE(1.0E-006),#318);
#214=CARTESIAN_POINT('',(14.9999999999999,1.6564587707554E-014,4.99999999999997));
#215=POINT_STYLE(' ',#319,POSITIVE_LENGTH_MEASURE(1.0E-006),#320);
#216=CARTESIAN_POINT('',(6.0,1.39014217621962E-014,3.12361162513369));
#217=CURVE_STYLE('',#321,POSITIVE_LENGTH_MEASURE(1.0E-006),#322);
#218=LINE('',#323,#324);
#219=CURVE_STYLE('',#325,POSITIVE_LENGTH_MEASURE(1.0E-006),#326);
#220=CIRCLE('',#327,6.0);
#221=SURFACE_STYLE_USAGE(.BOTH.,#328);
#222=FACE_OUTER_BOUND('',#329,.T.);
#223=CONICAL_SURFACE('',#330,7.62500000000003,1.04719755119661);
#224=PRODUCT_CONTEXT('',#45,'mechanical');
#225=PRODUCT_DEFINITION_FORMATION_WITH_SPECIFIED_SOURCE(' ','NONE',#128,.NOT_KNOWN.);
#226=CARTESIAN_POINT('',(0.0,0.0,0.0));
#227=DIRECTION('',(0.0,0.0,1.0));
#228=DIRECTION('',(1.0,0.0,0.0));
#229= (NAMED_UNIT(#136)LENGTH_UNIT()SI_UNIT(.MILLI.,.METRE.));
#230=PRE_DEFINED_MARKER('');
#231=COLOUR_RGB('',0.509803950786591,0.509803950786591,0.588235318660736);
#232=DRAUGHTING_PRE_DEFINED_CURVE_FONT('continuous');
#233=COLOUR_RGB('',0.509803950786591,0.509803950786591,0.588235318660736);
#234=AXIS2_PLACEMENT_3D('',#332,#333,#334);
#235=SURFACE_SIDE_STYLE('',(#335));
#236=DRAUGHTING_PRE_DEFINED_CURVE_FONT('continuous');
#237=COLOUR_RGB('',0.509803950786591,0.509803950786591,0.588235318660736);
#238=AXIS2_PLACEMENT_3D('',#336,#337,#338);
#239=SURFACE_SIDE_STYLE('',(#339));
#240=EDGE_LOOP('',(#340,#341,#342,#343));
#241=AXIS2_PLACEMENT_3D('',#344,#345,#346);
#242=DRAUGHTING_PRE_DEFINED_CURVE_FONT('continuous');
#243=COLOUR_RGB('',0.509803950786591,0.509803950786591,0.588235318660736);
#244=AXIS2_PLACEMENT_3D('',#347,#348,#349);
#245=PRE_DEFINED_MARKER('');
#246=COLOUR_RGB('',0.509803950786591,0.509803950786591,0.588235318660736);
#247=DRAUGHTING_PRE_DEFINED_CURVE_FONT('continuous');
#248=COLOUR_RGB('',0.509803950786591,0.509803950786591,0.588235318660736);
#249=CARTESIAN_POINT('',(-14.9999999999999,7.68736788969457E-015,2.49999999999997));
#250=VECTOR('',#350,1.0);
#251=SURFACE_SIDE_STYLE('',(#351));
#252=EDGE_LOOP('',(#352,#353));
#253=EDGE_LOOP('',(#354,#355));
#254=AXIS2_PLACEMENT_3D('',#356,#357,#358);
#255=SURFACE_SIDE_STYLE('',(#359));
#256=EDGE_LOOP('',(#360,#361,#362,#363));
#257=AXIS2_PLACEMENT_3D('',#364,#365,#366);
#258=PRE_DEFINED_MARKER('');
#259=COLOUR_RGB('',0.509803950786591,0.509803950786591,0.588235318660736);
#260=DRAUGHTING_PRE_DEFINED_CURVE_FONT('continuous');
#261=COLOUR_RGB('',0.509803950786591,0.509803950786591,0.588235318660736);
#262=AXIS2_PLACEMENT_3D('',#367,#368,#369);
#263=DRAUGHTING_PRE_DEFINED_CURVE_FONT('continuous');
#264=COLOUR_RGB('',0.509803950786591,0.509803950786591,0.588235318660736);
#265=CARTESIAN_POINT('',(-6.0,1.03505338350524E-014,1.56180581256683));
#266=VECTOR('',#370,1.0);
#267=DRAUGHTING_PRE_DEFINED_CURVE_FONT('continuous');
#268=COLOUR_RGB('',0.509803950786591,0.509803950786591,0.588235318660736);
#269=AXIS2_PLACEMENT_3D('',#371,#372,#373);
#270=DRAUGHTING_PRE_DEFINED_CURVE_FONT('continuous');
#271=COLOUR_RGB('',0.509803950786591,0.509803950786591,0.588235318660736);
#272=AXIS2_PLACEMENT_3D('',#374,#375,#376);
#273=SURFACE_SIDE_STYLE('',(#377));
#274=EDGE_LOOP('',(#378,#379,#380,#381));
#275=AXIS2_PLACEMENT_3D('',#382,#383,#384);
#276=SURFACE_SIDE_STYLE('',(#385));
#277=EDGE_LOOP('',(#386,#387));
#278=EDGE_LOOP('',(#388,#389));
#279=AXIS2_PLACEMENT_3D('',#390,#391,#392);
#280=DRAUGHTING_PRE_DEFINED_CURVE_FONT('continuous');
#281=COLOUR_RGB('',0.509803950786591,0.509803950786591,0.588235318660736);
#282=AXIS2_PLACEMENT_3D('',#393,#394,#395);
#283=SURFACE_SIDE_STYLE('',(#396));
#284=EDGE_LOOP('',(#397,#398,#399,#400));
#285=AXIS2_PLACEMENT_3D('',#401,#402,#403);
#286=PRE_DEFINED_MARKER('');
#287=COLOUR_RGB('',0.509803950786591,0.509803950786591,0.588235318660736);
#288=DRAUGHTING_PRE_DEFINED_CURVE_FONT('continuous');
#289=COLOUR_RGB('',0.509803950786591,0.509803950786591,0.588235318660736);
#290=AXIS2_PLACEMENT_3D('',#404,#405,#406);
#291=SURFACE_SIDE_STYLE('',(#407));
#292=EDGE_LOOP('',(#408,#409,#410,#411));
#293=AXIS2_PLACEMENT_3D('',#412,#413,#414);
#294=DRAUGHTING_PRE_DEFINED_CURVE_FONT('continuous');
#295=COLOUR_RGB('',0.509803950786591,0.509803950786591,0.588235318660736);
#296=CARTESIAN_POINT('',(7.62500000000003,1.43822711689969E-014,4.06180581256683));
#297=VECTOR('',#415,1.0);
#298=DRAUGHTING_PRE_DEFINED_CURVE_FONT('continuous');
#299=COLOUR_RGB('',0.509803950786591,0.509803950786591,0.588235318660736);
#300=AXIS2_PLACEMENT_3D('',#416,#417,#418);
#301=PRE_DEFINED_MARKER('');
#302=COLOUR_RGB('',0.509803950786591,0.509803950786591,0.588235318660736);
#303=PRE_DEFINED_MARKER('');
#304=COLOUR_RGB('',0.509803950786591,0.509803950786591,0.588235318660736);
#305=PRE_DEFINED_MARKER('');
#306=COLOUR_RGB('',0.509803950786591,0.509803950786591,0.588235318660736);
#307=PRE_DEFINED_MARKER('');
#308=COLOUR_RGB('',0.509803950786591,0.509803950786591,0.588235318660736);
#309=DRAUGHTING_PRE_DEFINED_CURVE_FONT('continuous');
#310=COLOUR_RGB('',0.509803950786591,0.509803950786591,0.588235318660736);
#311=CARTESIAN_POINT('',(14.9999999999999,1.6564587707554E-014,2.49999999999997));
#312=VECTOR('',#419,1.0);
#313=DRAUGHTING_PRE_DEFINED_CURVE_FONT('continuous');
#314=COLOUR_RGB('',0.509803950786591,0.509803950786591,0.588235318660736);
#315=CARTESIAN_POINT('',(6.0,1.39014217621962E-014,1.56180581256683));
#316=VECTOR('',#420,1.0);
#317=PRE_DEFINED_MARKER('');
#318=COLOUR_RGB('',0.509803950786591,0.509803950786591,0.588235318660736);
#319=PRE_DEFINED_MARKER('');
#320=COLOUR_RGB('',0.509803950786591,0.509803950786591,0.588235318660736);
#321=DRAUGHTING_PRE_DEFINED_CURVE_FONT('continuous');
#322=COLOUR_RGB('',0.509803950786591,0.509803950786591,0.588235318660736);
#323=CARTESIAN_POINT('',(-7.62500000000003,9.86968442825168E-015,4.06180581256683));
#324=VECTOR('',#421,1.0);
#325=DRAUGHTING_PRE_DEFINED_CURVE_FONT('continuous');
#326=COLOUR_RGB('',0.509803950786591,0.509803950786591,0.588235318660736);
#327=AXIS2_PLACEMENT_3D('',#422,#423,#424);
#328=SURFACE_SIDE_STYLE('',(#425));
#329=EDGE_LOOP('',(#426,#427,#428,#429));
#330=AXIS2_PLACEMENT_3D('',#430,#431,#432);
#332=CARTESIAN_POINT('',(0.0,1.21259777986243E-014,-2.8421709430404E-014));
#333=DIRECTION('',(-0.0,0.0,-1.0));
#334=DIRECTION('',(-1.0,-1.73446691879746E-016,0.0));
#335=SURFACE_STYLE_FILL_AREA(#433);
#336=CARTESIAN_POINT('',(0.0,1.21259777986243E-014,4.99999999999997));
#337=DIRECTION('',(-0.0,0.0,-1.0));
#338=DIRECTION('',(-1.0,-1.73446691879746E-016,0.0));
#339=SURFACE_STYLE_FILL_AREA(#434);
#340=ORIENTED_EDGE('',*,*,#73,.T.);
#341=ORIENTED_EDGE('',*,*,#69,.F.);
#342=ORIENTED_EDGE('',*,*,#115,.T.);
#343=ORIENTED_EDGE('',*,*,#65,.T.);
#344=CARTESIAN_POINT('',(0.0,1.21259777986243E-014,2.49999999999997));
#345=DIRECTION('',(0.0,-0.0,1.0));
#346=DIRECTION('',(-1.0,-1.73446691879746E-016,0.0));
#347=CARTESIAN_POINT('',(0.0,1.21259777986243E-014,-2.8421709430404E-014));
#348=DIRECTION('',(-0.0,0.0,-1.0));
#349=DIRECTION('',(-1.0,-1.73446691879746E-016,0.0));
#350=DIRECTION('',(0.0,0.0,-1.0));
#351=SURFACE_STYLE_FILL_AREA(#435);
#352=ORIENTED_EDGE('',*,*,#61,.F.);
#353=ORIENTED_EDGE('',*,*,#87,.F.);
#354=ORIENTED_EDGE('',*,*,#99,.T.);
#355=ORIENTED_EDGE('',*,*,#69,.T.);
#356=CARTESIAN_POINT('',(-10.5,1.05339895386552E-014,-2.8421709430404E-014));
#357=DIRECTION('',(0.0,0.0,-1.0));
#358=DIRECTION('',(1.0,1.22460635382238E-016,0.0));
#359=SURFACE_STYLE_FILL_AREA(#436);
#360=ORIENTED_EDGE('',*,*,#83,.T.);
#361=ORIENTED_EDGE('',*,*,#61,.T.);
#362=ORIENTED_EDGE('',*,*,#117,.T.);
#363=ORIENTED_EDGE('',*,*,#85,.F.);
#364=CARTESIAN_POINT('',(0.0,1.21259777986243E-014,1.56180581256683));
#365=DIRECTION('',(0.0,-0.0,1.0));
#366=DIRECTION('',(-1.0,-1.73446691879746E-016,0.0));
#367=CARTESIAN_POINT('',(0.0,1.21259777986243E-014,4.99999999999997));
#368=DIRECTION('',(-0.0,0.0,-1.0));
#369=DIRECTION('',(-1.0,-1.73446691879746E-016,0.0));
#370=DIRECTION('',(0.0,0.0,-1.0));
#371=CARTESIAN_POINT('',(0.0,1.21259777986243E-014,3.12361162513369));
#372=DIRECTION('',(-0.0,0.0,-1.0));
#373=DIRECTION('',(-1.0,-1.73446691879746E-016,0.0));
#374=CARTESIAN_POINT('',(0.0,1.21259777986243E-014,-2.8421709430404E-014));
#375=DIRECTION('',(-0.0,0.0,-1.0));
#376=DIRECTION('',(-1.0,-1.73446691879746E-016,0.0));
#377=SURFACE_STYLE_FILL_AREA(#437);
#378=ORIENTED_EDGE('',*,*,#123,.T.);
#379=ORIENTED_EDGE('',*,*,#85,.T.);
#380=ORIENTED_EDGE('',*,*,#103,.T.);
#381=ORIENTED_EDGE('',*,*,#81,.F.);
#382=CARTESIAN_POINT('',(0.0,1.21259777986243E-014,4.06180581256683));
#383=DIRECTION('',(0.0,-0.0,1.0));
#384=DIRECTION('',(-1.0,-1.73446691879746E-016,0.0));
#385=SURFACE_STYLE_FILL_AREA(#438);
#386=ORIENTED_EDGE('',*,*,#93,.F.);
#387=ORIENTED_EDGE('',*,*,#65,.F.);
#388=ORIENTED_EDGE('',*,*,#81,.T.);
#389=ORIENTED_EDGE('',*,*,#105,.T.);
#390=CARTESIAN_POINT('',(-12.125,1.06411425946147E-014,4.99999999999997));
#391=DIRECTION('',(0.0,0.0,1.0));
#392=DIRECTION('',(-1.0,-1.22460635382238E-016,0.0));
#393=CARTESIAN_POINT('',(0.0,1.21259777986243E-014,4.99999999999997));
#394=DIRECTION('',(-0.0,0.0,-1.0));
#395=DIRECTION('',(-1.0,-1.73446691879746E-016,0.0));
#396=SURFACE_STYLE_FILL_AREA(#439);
#397=ORIENTED_EDGE('',*,*,#83,.F.);
#398=ORIENTED_EDGE('',*,*,#125,.F.);
#399=ORIENTED_EDGE('',*,*,#117,.F.);
#400=ORIENTED_EDGE('',*,*,#87,.T.);
#401=CARTESIAN_POINT('',(0.0,1.21259777986243E-014,1.56180581256683));
#402=DIRECTION('',(0.0,-0.0,1.0));
#403=DIRECTION('',(-1.0,-1.73446691879746E-016,0.0));
#404=CARTESIAN_POINT('',(0.0,1.21259777986243E-014,-2.8421709430404E-014));
#405=DIRECTION('',(-0.0,0.0,-1.0));
#406=DIRECTION('',(-1.0,-1.73446691879746E-016,0.0));
#407=SURFACE_STYLE_FILL_AREA(#440);
#408=ORIENTED_EDGE('',*,*,#73,.F.);
#409=ORIENTED_EDGE('',*,*,#93,.T.);
#410=ORIENTED_EDGE('',*,*,#115,.F.);
#411=ORIENTED_EDGE('',*,*,#99,.F.);
#412=CARTESIAN_POINT('',(0.0,1.21259777986243E-014,2.49999999999997));
#413=DIRECTION('',(0.0,-0.0,1.0));
#414=DIRECTION('',(-1.0,-1.73446691879746E-016,0.0));
#415=DIRECTION('',(0.866025403784443,2.56263262574835E-016,0.499999999999993));
#416=CARTESIAN_POINT('',(0.0,1.21259777986243E-014,4.99999999999997));
#417=DIRECTION('',(-0.0,0.0,-1.0));
#418=DIRECTION('',(-1.0,-1.73446691879746E-016,0.0));
#419=DIRECTION('',(-0.0,-0.0,1.0));
#420=DIRECTION('',(0.0,0.0,1.0));
#421=DIRECTION('',(0.866025403784443,2.56263262574835E-016,-0.499999999999993));
#422=CARTESIAN_POINT('',(0.0,1.21259777986243E-014,3.12361162513369));
#423=DIRECTION('',(-0.0,0.0,-1.0));
#424=DIRECTION('',(-1.0,-1.73446691879746E-016,0.0));
#425=SURFACE_STYLE_FILL_AREA(#441);
#426=ORIENTED_EDGE('',*,*,#123,.F.);
#427=ORIENTED_EDGE('',*,*,#105,.F.);
#428=ORIENTED_EDGE('',*,*,#103,.F.);
#429=ORIENTED_EDGE('',*,*,#125,.T.);
#430=CARTESIAN_POINT('',(0.0,1.21259777986243E-014,4.06180581256683));
#431=DIRECTION('',(0.0,-0.0,1.0));
#432=DIRECTION('',(-1.0,-1.73446691879746E-016,0.0));
#433=FILL_AREA_STYLE('',(#442));
#434=FILL_AREA_STYLE('',(#443));
#435=FILL_AREA_STYLE('',(#444));
#436=FILL_AREA_STYLE('',(#445));
#437=FILL_AREA_STYLE('',(#446));
#438=FILL_AREA_STYLE('',(#447));
#439=FILL_AREA_STYLE('',(#448));
#440=FILL_AREA_STYLE('',(#449));
#441=FILL_AREA_STYLE('',(#450));
#442=FILL_AREA_STYLE_COLOUR('',#451);
#443=FILL_AREA_STYLE_COLOUR('',#452);
#444=FILL_AREA_STYLE_COLOUR('',#453);
#445=FILL_AREA_STYLE_COLOUR('',#454);
#446=FILL_AREA_STYLE_COLOUR('',#455);
#447=FILL_AREA_STYLE_COLOUR('',#456);
#448=FILL_AREA_STYLE_COLOUR('',#457);
#449=FILL_AREA_STYLE_COLOUR('',#458);
#450=FILL_AREA_STYLE_COLOUR('',#459);
#451=COLOUR_RGB('',0.509803950786591,0.509803950786591,0.588235318660736);
#452=COLOUR_RGB('',0.509803950786591,0.509803950786591,0.588235318660736);
#453=COLOUR_RGB('',0.509803950786591,0.509803950786591,0.588235318660736);
#454=COLOUR_RGB('',0.509803950786591,0.509803950786591,0.588235318660736);
#455=COLOUR_RGB('',0.509803950786591,0.509803950786591,0.588235318660736);
#456=COLOUR_RGB('',0.509803950786591,0.509803950786591,0.588235318660736);
#457=COLOUR_RGB('',0.509803950786591,0.509803950786591,0.588235318660736);
#458=COLOUR_RGB('',0.509803950786591,0.509803950786591,0.588235318660736);
#459=COLOUR_RGB('',0.509803950786591,0.509803950786591,0.588235318660736);
ENDSEC;
END-ISO-10303-21;
