ISO-10303-21;
HEADER;
FILE_DESCRIPTION(('STEP AP214'),'1');
FILE_NAME(' ','  ',('TraceParts'),('TraceParts S.A.'),'XStep 1.0',' ',' ');
FILE_SCHEMA(('automotive_design'));
ENDSEC;
DATA;
#1=MECHANICAL_DESIGN_GEOMETRIC_PRESENTATION_REPRESENTATION(' ',(#10,#11,#12,#13,#14,#15,#16,#17,#18,#19,#20,#21,#22,#23,#24,#25,#26,#27,#28,#29,#30,#31,#32,#33,#34,#35,#36,#37,#38,#39,#40,#41,#42,#43,#44),#6);
#2=PRODUCT_DEFINITION_CONTEXT('',#45,'design');
#3=APPLICATION_PROTOCOL_DEFINITION('INTERNATIONAL STANDARD','automotive_design',1994,#45);
#4=PRODUCT_CATEGORY_RELATIONSHIP('NONE','NONE',#46,#47);
#5=SHAPE_DEFINITION_REPRESENTATION(#48,#49);
#6= (GEOMETRIC_REPRESENTATION_CONTEXT(3)GLOBAL_UNCERTAINTY_ASSIGNED_CONTEXT((#52))GLOBAL_UNIT_ASSIGNED_CONTEXT((#54,#55,#56))REPRESENTATION_CONTEXT('NONE','WORKSPACE'));
#10=STYLED_ITEM('',(#58),#59);
#11=STYLED_ITEM('',(#60),#61);
#12=STYLED_ITEM('',(#62),#63);
#13=STYLED_ITEM('',(#64),#65);
#14=STYLED_ITEM('',(#66),#67);
#15=STYLED_ITEM('',(#68),#69);
#16=STYLED_ITEM('',(#70),#71);
#17=STYLED_ITEM('',(#72),#73);
#18=STYLED_ITEM('',(#74),#75);
#19=STYLED_ITEM('',(#76),#77);
#20=STYLED_ITEM('',(#78),#79);
#21=STYLED_ITEM('',(#80),#81);
#22=STYLED_ITEM('',(#82),#83);
#23=STYLED_ITEM('',(#84),#85);
#24=STYLED_ITEM('',(#86),#87);
#25=STYLED_ITEM('',(#88),#89);
#26=STYLED_ITEM('',(#90),#91);
#27=STYLED_ITEM('',(#92),#93);
#28=STYLED_ITEM('',(#94),#95);
#29=STYLED_ITEM('',(#96),#97);
#30=STYLED_ITEM('',(#98),#99);
#31=STYLED_ITEM('',(#100),#101);
#32=STYLED_ITEM('',(#102),#103);
#33=STYLED_ITEM('',(#104),#105);
#34=STYLED_ITEM('',(#106),#107);
#35=STYLED_ITEM('',(#108),#109);
#36=STYLED_ITEM('',(#110),#111);
#37=STYLED_ITEM('',(#112),#113);
#38=STYLED_ITEM('',(#114),#115);
#39=STYLED_ITEM('',(#116),#117);
#40=STYLED_ITEM('',(#118),#119);
#41=STYLED_ITEM('',(#120),#121);
#42=STYLED_ITEM('',(#122),#123);
#43=STYLED_ITEM('',(#124),#125);
#44=STYLED_ITEM('',(#126),#127);
#45=APPLICATION_CONTEXT(' ');
#46=PRODUCT_CATEGORY('part','NONE');
#47=PRODUCT_RELATED_PRODUCT_CATEGORY('detail',' ',(#128));
#48=PRODUCT_DEFINITION_SHAPE('NONE','NONE',#129);
#49=ADVANCED_BREP_SHAPE_REPRESENTATION('1',(#77,#130),#6);
#52=UNCERTAINTY_MEASURE_WITH_UNIT(LENGTH_MEASURE(1.0E-006),#54,'','');
#54= (CONVERSION_BASED_UNIT('MILLIMETRE',#133)LENGTH_UNIT()NAMED_UNIT(#136));
#55= (NAMED_UNIT(#138)PLANE_ANGLE_UNIT()SI_UNIT($,.RADIAN.));
#56= (NAMED_UNIT(#138)SOLID_ANGLE_UNIT()SI_UNIT($,.STERADIAN.));
#58=PRESENTATION_STYLE_ASSIGNMENT((#144));
#59=EDGE_CURVE('',#119,#89,#145,.T.);
#60=PRESENTATION_STYLE_ASSIGNMENT((#146));
#61=ADVANCED_FACE('',(#147),#148,.F.);
#62=PRESENTATION_STYLE_ASSIGNMENT((#149));
#63=VERTEX_POINT('',#150);
#64=PRESENTATION_STYLE_ASSIGNMENT((#151));
#65=EDGE_CURVE('',#115,#89,#152,.T.);
#66=PRESENTATION_STYLE_ASSIGNMENT((#153));
#67=EDGE_CURVE('',#107,#105,#154,.T.);
#68=PRESENTATION_STYLE_ASSIGNMENT((#155));
#69=VERTEX_POINT('',#156);
#70=PRESENTATION_STYLE_ASSIGNMENT((#157));
#71=EDGE_CURVE('',#123,#63,#158,.T.);
#72=PRESENTATION_STYLE_ASSIGNMENT((#159));
#73=EDGE_CURVE('',#119,#69,#160,.T.);
#74=PRESENTATION_STYLE_ASSIGNMENT((#161));
#75=EDGE_CURVE('',#105,#107,#162,.T.);
#76=PRESENTATION_STYLE_ASSIGNMENT((#163));
#77=MANIFOLD_SOLID_BREP('1',#164);
#78=PRESENTATION_STYLE_ASSIGNMENT((#165));
#79=ADVANCED_FACE('',(#166),#167,.F.);
#80=PRESENTATION_STYLE_ASSIGNMENT((#168));
#81=EDGE_CURVE('',#63,#91,#169,.T.);
#82=PRESENTATION_STYLE_ASSIGNMENT((#170));
#83=EDGE_CURVE('',#101,#91,#171,.T.);
#84=PRESENTATION_STYLE_ASSIGNMENT((#172));
#85=ADVANCED_FACE('',(#173),#174,.F.);
#86=PRESENTATION_STYLE_ASSIGNMENT((#175));
#87=EDGE_CURVE('',#91,#101,#176,.T.);
#88=PRESENTATION_STYLE_ASSIGNMENT((#177));
#89=VERTEX_POINT('',#178);
#90=PRESENTATION_STYLE_ASSIGNMENT((#179));
#91=VERTEX_POINT('',#180);
#92=PRESENTATION_STYLE_ASSIGNMENT((#181));
#93=EDGE_CURVE('',#69,#119,#182,.T.);
#94=PRESENTATION_STYLE_ASSIGNMENT((#183));
#95=EDGE_CURVE('',#101,#123,#184,.T.);
#96=PRESENTATION_STYLE_ASSIGNMENT((#185));
#97=EDGE_CURVE('',#105,#63,#186,.T.);
#98=PRESENTATION_STYLE_ASSIGNMENT((#187));
#99=EDGE_CURVE('',#89,#115,#188,.T.);
#100=PRESENTATION_STYLE_ASSIGNMENT((#189));
#101=VERTEX_POINT('',#190);
#102=PRESENTATION_STYLE_ASSIGNMENT((#191));
#103=ADVANCED_FACE('',(#192,#193),#194,.T.);
#104=PRESENTATION_STYLE_ASSIGNMENT((#195));
#105=VERTEX_POINT('',#196);
#106=PRESENTATION_STYLE_ASSIGNMENT((#197));
#107=VERTEX_POINT('',#198);
#108=PRESENTATION_STYLE_ASSIGNMENT((#199));
#109=EDGE_CURVE('',#63,#123,#200,.T.);
#110=PRESENTATION_STYLE_ASSIGNMENT((#201));
#111=EDGE_CURVE('',#115,#69,#202,.T.);
#112=PRESENTATION_STYLE_ASSIGNMENT((#203));
#113=ADVANCED_FACE('',(#204,#205),#206,.T.);
#114=PRESENTATION_STYLE_ASSIGNMENT((#207));
#115=VERTEX_POINT('',#208);
#116=PRESENTATION_STYLE_ASSIGNMENT((#209));
#117=ADVANCED_FACE('',(#210),#211,.T.);
#118=PRESENTATION_STYLE_ASSIGNMENT((#212));
#119=VERTEX_POINT('',#213);
#120=PRESENTATION_STYLE_ASSIGNMENT((#214));
#121=ADVANCED_FACE('',(#215),#216,.F.);
#122=PRESENTATION_STYLE_ASSIGNMENT((#217));
#123=VERTEX_POINT('',#218);
#124=PRESENTATION_STYLE_ASSIGNMENT((#219));
#125=ADVANCED_FACE('',(#220),#221,.T.);
#126=PRESENTATION_STYLE_ASSIGNMENT((#222));
#127=EDGE_CURVE('',#123,#107,#223,.T.);
#128=PRODUCT('1','1','PART-1-DESC',(#224));
#129=PRODUCT_DEFINITION('NONE','NONE',#225,#2);
#130=AXIS2_PLACEMENT_3D('',#226,#227,#228);
#133=LENGTH_MEASURE_WITH_UNIT(LENGTH_MEASURE(1.0),#229);
#136=DIMENSIONAL_EXPONENTS(1.0,0.0,0.0,0.0,0.0,0.0,0.0);
#138=DIMENSIONAL_EXPONENTS(0.0,0.0,0.0,0.0,0.0,0.0,0.0);
#144=CURVE_STYLE('',#230,POSITIVE_LENGTH_MEASURE(1.0E-006),#231);
#145=LINE('',#232,#233);
#146=SURFACE_STYLE_USAGE(.BOTH.,#234);
#147=FACE_OUTER_BOUND('',#235,.T.);
#148=CONICAL_SURFACE('',#236,6.02500000000001,1.0471975511966);
#149=POINT_STYLE(' ',#237,POSITIVE_LENGTH_MEASURE(1.0E-006),#238);
#150=CARTESIAN_POINT('',(4.80000000000001,1.34605286891012E-014,3.58549184048539));
#151=CURVE_STYLE('',#239,POSITIVE_LENGTH_MEASURE(1.0E-006),#240);
#152=CIRCLE('',#241,12.0);
#153=CURVE_STYLE('',#242,POSITIVE_LENGTH_MEASURE(1.0E-006),#243);
#154=CIRCLE('',#244,4.80000000000001);
#155=POINT_STYLE(' ',#245,POSITIVE_LENGTH_MEASURE(1.0E-006),#246);
#156=CARTESIAN_POINT('',(12.0,1.56827841685046E-014,4.99999999999997));
#157=CURVE_STYLE('',#247,POSITIVE_LENGTH_MEASURE(1.0E-006),#248);
#158=CIRCLE('',#249,4.80000000000001);
#159=CURVE_STYLE('',#250,POSITIVE_LENGTH_MEASURE(1.0E-006),#251);
#160=CIRCLE('',#252,12.0);
#161=CURVE_STYLE('',#253,POSITIVE_LENGTH_MEASURE(1.0E-006),#254);
#162=CIRCLE('',#255,4.80000000000001);
#163=SURFACE_STYLE_USAGE(.BOTH.,#256);
#164=CLOSED_SHELL('',(#121,#117,#61,#85,#113,#125,#103,#79));
#165=SURFACE_STYLE_USAGE(.BOTH.,#257);
#166=FACE_OUTER_BOUND('',#258,.T.);
#167=CYLINDRICAL_SURFACE('',#259,4.80000000000001);
#168=CURVE_STYLE('',#260,POSITIVE_LENGTH_MEASURE(1.0E-006),#261);
#169=LINE('',#262,#263);
#170=CURVE_STYLE('',#264,POSITIVE_LENGTH_MEASURE(1.0E-006),#265);
#171=CIRCLE('',#266,7.25);
#172=SURFACE_STYLE_USAGE(.BOTH.,#267);
#173=FACE_OUTER_BOUND('',#268,.T.);
#174=CONICAL_SURFACE('',#269,6.02500000000001,1.0471975511966);
#175=CURVE_STYLE('',#270,POSITIVE_LENGTH_MEASURE(1.0E-006),#271);
#176=CIRCLE('',#272,7.25);
#177=POINT_STYLE(' ',#273,POSITIVE_LENGTH_MEASURE(1.0E-006),#274);
#178=CARTESIAN_POINT('',(-12.0,1.02033458231232E-014,-2.8421709430404E-014));
#179=POINT_STYLE(' ',#275,POSITIVE_LENGTH_MEASURE(1.0E-006),#276);
#180=CARTESIAN_POINT('',(7.25,1.42167128452871E-014,4.99999999999997));
#181=CURVE_STYLE('',#277,POSITIVE_LENGTH_MEASURE(1.0E-006),#278);
#182=CIRCLE('',#279,12.0);
#183=CURVE_STYLE('',#280,POSITIVE_LENGTH_MEASURE(1.0E-006),#281);
#184=LINE('',#282,#283);
#185=CURVE_STYLE('',#284,POSITIVE_LENGTH_MEASURE(1.0E-006),#285);
#186=LINE('',#286,#287);
#187=CURVE_STYLE('',#288,POSITIVE_LENGTH_MEASURE(1.0E-006),#289);
#188=CIRCLE('',#290,12.0);
#189=POINT_STYLE(' ',#291,POSITIVE_LENGTH_MEASURE(1.0E-006),#292);
#190=CARTESIAN_POINT('',(-7.25,1.10911854296444E-014,4.99999999999997));
#191=SURFACE_STYLE_USAGE(.BOTH.,#293);
#192=FACE_BOUND('',#294,.T.);
#193=FACE_OUTER_BOUND('',#295,.T.);
#194=PLANE('',#296);
#195=POINT_STYLE(' ',#297,POSITIVE_LENGTH_MEASURE(1.0E-006),#298);
#196=CARTESIAN_POINT('',(4.80000000000001,1.34605286891012E-014,-2.8421709430404E-014));
#197=POINT_STYLE(' ',#299,POSITIVE_LENGTH_MEASURE(1.0E-006),#300);
#198=CARTESIAN_POINT('',(-4.80000000000001,1.10850623978753E-014,-2.8421709430404E-014));
#199=CURVE_STYLE('',#301,POSITIVE_LENGTH_MEASURE(1.0E-006),#302);
#200=CIRCLE('',#303,4.80000000000001);
#201=CURVE_STYLE('',#304,POSITIVE_LENGTH_MEASURE(1.0E-006),#305);
#202=LINE('',#306,#307);
#203=SURFACE_STYLE_USAGE(.BOTH.,#308);
#204=FACE_OUTER_BOUND('',#309,.T.);
#205=FACE_BOUND('',#310,.T.);
#206=PLANE('',#311);
#207=POINT_STYLE(' ',#312,POSITIVE_LENGTH_MEASURE(1.0E-006),#313);
#208=CARTESIAN_POINT('',(12.0,1.56827841685046E-014,-2.8421709430404E-014));
#209=SURFACE_STYLE_USAGE(.BOTH.,#314);
#210=FACE_OUTER_BOUND('',#315,.T.);
#211=CYLINDRICAL_SURFACE('',#316,12.0);
#212=POINT_STYLE(' ',#317,POSITIVE_LENGTH_MEASURE(1.0E-006),#318);
#213=CARTESIAN_POINT('',(-12.0,1.05094974115788E-014,4.99999999999997));
#214=SURFACE_STYLE_USAGE(.BOTH.,#319);
#215=FACE_OUTER_BOUND('',#320,.T.);
#216=CYLINDRICAL_SURFACE('',#321,4.80000000000001);
#217=POINT_STYLE(' ',#322,POSITIVE_LENGTH_MEASURE(1.0E-006),#323);
#218=CARTESIAN_POINT('',(-4.80000000000001,1.13046032023471E-014,3.58549184048539));
#219=SURFACE_STYLE_USAGE(.BOTH.,#324);
#220=FACE_OUTER_BOUND('',#325,.T.);
#221=CYLINDRICAL_SURFACE('',#326,12.0);
#222=CURVE_STYLE('',#327,POSITIVE_LENGTH_MEASURE(1.0E-006),#328);
#223=LINE('',#329,#330);
#224=PRODUCT_CONTEXT('',#45,'mechanical');
#225=PRODUCT_DEFINITION_FORMATION_WITH_SPECIFIED_SOURCE(' ','NONE',#128,.NOT_KNOWN.);
#226=CARTESIAN_POINT('',(0.0,0.0,0.0));
#227=DIRECTION('',(0.0,0.0,1.0));
#228=DIRECTION('',(1.0,0.0,0.0));
#229= (NAMED_UNIT(#136)LENGTH_UNIT()SI_UNIT(.MILLI.,.METRE.));
#230=DRAUGHTING_PRE_DEFINED_CURVE_FONT('continuous');
#231=COLOUR_RGB('',0.509803950786591,0.509803950786591,0.588235318660736);
#232=CARTESIAN_POINT('',(-12.0,8.27526590382668E-015,2.49999999999997));
#233=VECTOR('',#332,1.0);
#234=SURFACE_SIDE_STYLE('',(#333));
#235=EDGE_LOOP('',(#334,#335,#336,#337));
#236=AXIS2_PLACEMENT_3D('',#338,#339,#340);
#237=PRE_DEFINED_MARKER('');
#238=COLOUR_RGB('',0.509803950786591,0.509803950786591,0.588235318660736);
#239=DRAUGHTING_PRE_DEFINED_CURVE_FONT('continuous');
#240=COLOUR_RGB('',0.509803950786591,0.509803950786591,0.588235318660736);
#241=AXIS2_PLACEMENT_3D('',#341,#342,#343);
#242=DRAUGHTING_PRE_DEFINED_CURVE_FONT('continuous');
#243=COLOUR_RGB('',0.509803950786591,0.509803950786591,0.588235318660736);
#244=AXIS2_PLACEMENT_3D('',#344,#345,#346);
#245=PRE_DEFINED_MARKER('');
#246=COLOUR_RGB('',0.509803950786591,0.509803950786591,0.588235318660736);
#247=DRAUGHTING_PRE_DEFINED_CURVE_FONT('continuous');
#248=COLOUR_RGB('',0.509803950786591,0.509803950786591,0.588235318660736);
#249=AXIS2_PLACEMENT_3D('',#347,#348,#349);
#250=DRAUGHTING_PRE_DEFINED_CURVE_FONT('continuous');
#251=COLOUR_RGB('',0.509803950786591,0.509803950786591,0.588235318660736);
#252=AXIS2_PLACEMENT_3D('',#350,#351,#352);
#253=DRAUGHTING_PRE_DEFINED_CURVE_FONT('continuous');
#254=COLOUR_RGB('',0.509803950786591,0.509803950786591,0.588235318660736);
#255=AXIS2_PLACEMENT_3D('',#353,#354,#355);
#256=SURFACE_SIDE_STYLE('',(#356));
#257=SURFACE_SIDE_STYLE('',(#357));
#258=EDGE_LOOP('',(#358,#359,#360,#361));
#259=AXIS2_PLACEMENT_3D('',#362,#363,#364);
#260=DRAUGHTING_PRE_DEFINED_CURVE_FONT('continuous');
#261=COLOUR_RGB('',0.509803950786591,0.509803950786591,0.588235318660736);
#262=CARTESIAN_POINT('',(6.02500000000001,1.38386207671941E-014,4.29274592024268));
#263=VECTOR('',#365,1.0);
#264=DRAUGHTING_PRE_DEFINED_CURVE_FONT('continuous');
#265=COLOUR_RGB('',0.509803950786591,0.509803950786591,0.588235318660736);
#266=AXIS2_PLACEMENT_3D('',#366,#367,#368);
#267=SURFACE_SIDE_STYLE('',(#369));
#268=EDGE_LOOP('',(#370,#371,#372,#373));
#269=AXIS2_PLACEMENT_3D('',#374,#375,#376);
#270=DRAUGHTING_PRE_DEFINED_CURVE_FONT('continuous');
#271=COLOUR_RGB('',0.509803950786591,0.509803950786591,0.588235318660736);
#272=AXIS2_PLACEMENT_3D('',#377,#378,#379);
#273=PRE_DEFINED_MARKER('');
#274=COLOUR_RGB('',0.509803950786591,0.509803950786591,0.588235318660736);
#275=PRE_DEFINED_MARKER('');
#276=COLOUR_RGB('',0.509803950786591,0.509803950786591,0.588235318660736);
#277=DRAUGHTING_PRE_DEFINED_CURVE_FONT('continuous');
#278=COLOUR_RGB('',0.509803950786591,0.509803950786591,0.588235318660736);
#279=AXIS2_PLACEMENT_3D('',#380,#381,#382);
#280=DRAUGHTING_PRE_DEFINED_CURVE_FONT('continuous');
#281=COLOUR_RGB('',0.509803950786591,0.509803950786591,0.588235318660736);
#282=CARTESIAN_POINT('',(-6.02500000000001,1.01194293051371E-014,4.29274592024268));
#283=VECTOR('',#383,1.0);
#284=DRAUGHTING_PRE_DEFINED_CURVE_FONT('continuous');
#285=COLOUR_RGB('',0.509803950786591,0.509803950786591,0.588235318660736);
#286=CARTESIAN_POINT('',(4.80000000000001,1.34605286891012E-014,1.79274592024268));
#287=VECTOR('',#384,1.0);
#288=DRAUGHTING_PRE_DEFINED_CURVE_FONT('continuous');
#289=COLOUR_RGB('',0.509803950786591,0.509803950786591,0.588235318660736);
#290=AXIS2_PLACEMENT_3D('',#385,#386,#387);
#291=PRE_DEFINED_MARKER('');
#292=COLOUR_RGB('',0.509803950786591,0.509803950786591,0.588235318660736);
#293=SURFACE_SIDE_STYLE('',(#388));
#294=EDGE_LOOP('',(#389,#390));
#295=EDGE_LOOP('',(#391,#392));
#296=AXIS2_PLACEMENT_3D('',#393,#394,#395);
#297=PRE_DEFINED_MARKER('');
#298=COLOUR_RGB('',0.509803950786591,0.509803950786591,0.588235318660736);
#299=PRE_DEFINED_MARKER('');
#300=COLOUR_RGB('',0.509803950786591,0.509803950786591,0.588235318660736);
#301=DRAUGHTING_PRE_DEFINED_CURVE_FONT('continuous');
#302=COLOUR_RGB('',0.509803950786591,0.509803950786591,0.588235318660736);
#303=AXIS2_PLACEMENT_3D('',#396,#397,#398);
#304=DRAUGHTING_PRE_DEFINED_CURVE_FONT('continuous');
#305=COLOUR_RGB('',0.509803950786591,0.509803950786591,0.588235318660736);
#306=CARTESIAN_POINT('',(12.0,1.56827841685046E-014,2.49999999999997));
#307=VECTOR('',#399,1.0);
#308=SURFACE_SIDE_STYLE('',(#400));
#309=EDGE_LOOP('',(#401,#402));
#310=EDGE_LOOP('',(#403,#404));
#311=AXIS2_PLACEMENT_3D('',#405,#406,#407);
#312=PRE_DEFINED_MARKER('');
#313=COLOUR_RGB('',0.509803950786591,0.509803950786591,0.588235318660736);
#314=SURFACE_SIDE_STYLE('',(#408));
#315=EDGE_LOOP('',(#409,#410,#411,#412));
#316=AXIS2_PLACEMENT_3D('',#413,#414,#415);
#317=PRE_DEFINED_MARKER('');
#318=COLOUR_RGB('',0.509803950786591,0.509803950786591,0.588235318660736);
#319=SURFACE_SIDE_STYLE('',(#416));
#320=EDGE_LOOP('',(#417,#418,#419,#420));
#321=AXIS2_PLACEMENT_3D('',#421,#422,#423);
#322=PRE_DEFINED_MARKER('');
#323=COLOUR_RGB('',0.509803950786591,0.509803950786591,0.588235318660736);
#324=SURFACE_SIDE_STYLE('',(#424));
#325=EDGE_LOOP('',(#425,#426,#427,#428));
#326=AXIS2_PLACEMENT_3D('',#429,#430,#431);
#327=DRAUGHTING_PRE_DEFINED_CURVE_FONT('continuous');
#328=COLOUR_RGB('',0.509803950786591,0.509803950786591,0.588235318660736);
#329=CARTESIAN_POINT('',(-4.80000000000001,1.049752138323E-014,1.79274592024268));
#330=VECTOR('',#432,1.0);
#332=DIRECTION('',(0.0,0.0,-1.0));
#333=SURFACE_STYLE_FILL_AREA(#433);
#334=ORIENTED_EDGE('',*,*,#95,.F.);
#335=ORIENTED_EDGE('',*,*,#87,.F.);
#336=ORIENTED_EDGE('',*,*,#81,.F.);
#337=ORIENTED_EDGE('',*,*,#109,.T.);
#338=CARTESIAN_POINT('',(0.0,1.19790250361656E-014,4.29274592024268));
#339=DIRECTION('',(0.0,-0.0,1.0));
#340=DIRECTION('',(-1.0,-1.8618595897934E-016,0.0));
#341=CARTESIAN_POINT('',(0.0,1.19790250361656E-014,-2.8421709430404E-014));
#342=DIRECTION('',(-0.0,0.0,-1.0));
#343=DIRECTION('',(-1.0,-1.8618595897934E-016,0.0));
#344=CARTESIAN_POINT('',(0.0,1.19790250361656E-014,-2.8421709430404E-014));
#345=DIRECTION('',(-0.0,0.0,-1.0));
#346=DIRECTION('',(-1.0,-1.8618595897934E-016,0.0));
#347=CARTESIAN_POINT('',(0.0,1.19790250361656E-014,3.58549184048539));
#348=DIRECTION('',(-0.0,0.0,-1.0));
#349=DIRECTION('',(-1.0,-1.8618595897934E-016,0.0));
#350=CARTESIAN_POINT('',(0.0,1.19790250361656E-014,4.99999999999997));
#351=DIRECTION('',(-0.0,0.0,-1.0));
#352=DIRECTION('',(-1.0,-1.8618595897934E-016,0.0));
#353=CARTESIAN_POINT('',(0.0,1.19790250361656E-014,-2.8421709430404E-014));
#354=DIRECTION('',(-0.0,0.0,-1.0));
#355=DIRECTION('',(-1.0,-1.8618595897934E-016,0.0));
#356=SURFACE_STYLE_FILL_AREA(#434);
#357=SURFACE_STYLE_FILL_AREA(#435);
#358=ORIENTED_EDGE('',*,*,#127,.T.);
#359=ORIENTED_EDGE('',*,*,#67,.T.);
#360=ORIENTED_EDGE('',*,*,#97,.T.);
#361=ORIENTED_EDGE('',*,*,#71,.F.);
#362=CARTESIAN_POINT('',(0.0,1.19790250361656E-014,1.79274592024268));
#363=DIRECTION('',(0.0,-0.0,1.0));
#364=DIRECTION('',(-1.0,-1.8618595897934E-016,0.0));
#365=DIRECTION('',(0.866025403784438,2.67295791508677E-016,0.500000000000002));
#366=CARTESIAN_POINT('',(0.0,1.19790250361656E-014,4.99999999999997));
#367=DIRECTION('',(-0.0,0.0,-1.0));
#368=DIRECTION('',(-1.0,-1.8618595897934E-016,0.0));
#369=SURFACE_STYLE_FILL_AREA(#436);
#370=ORIENTED_EDGE('',*,*,#95,.T.);
#371=ORIENTED_EDGE('',*,*,#71,.T.);
#372=ORIENTED_EDGE('',*,*,#81,.T.);
#373=ORIENTED_EDGE('',*,*,#83,.F.);
#374=CARTESIAN_POINT('',(0.0,1.19790250361656E-014,4.29274592024268));
#375=DIRECTION('',(0.0,-0.0,1.0));
#376=DIRECTION('',(-1.0,-1.8618595897934E-016,0.0));
#377=CARTESIAN_POINT('',(0.0,1.19790250361656E-014,4.99999999999997));
#378=DIRECTION('',(-0.0,0.0,-1.0));
#379=DIRECTION('',(-1.0,-1.8618595897934E-016,0.0));
#380=CARTESIAN_POINT('',(0.0,1.19790250361656E-014,4.99999999999997));
#381=DIRECTION('',(-0.0,0.0,-1.0));
#382=DIRECTION('',(-1.0,-1.8618595897934E-016,0.0));
#383=DIRECTION('',(0.866025403784438,2.67295791508677E-016,-0.500000000000002));
#384=DIRECTION('',(0.0,0.0,1.0));
#385=CARTESIAN_POINT('',(0.0,1.19790250361656E-014,-2.8421709430404E-014));
#386=DIRECTION('',(-0.0,0.0,-1.0));
#387=DIRECTION('',(-1.0,-1.8618595897934E-016,0.0));
#388=SURFACE_STYLE_FILL_AREA(#437);
#389=ORIENTED_EDGE('',*,*,#67,.F.);
#390=ORIENTED_EDGE('',*,*,#75,.F.);
#391=ORIENTED_EDGE('',*,*,#99,.T.);
#392=ORIENTED_EDGE('',*,*,#65,.T.);
#393=CARTESIAN_POINT('',(-8.40000000000001,1.06442041104992E-014,-2.8421709430404E-014));
#394=DIRECTION('',(0.0,0.0,-1.0));
#395=DIRECTION('',(1.0,1.22460635382238E-016,0.0));
#396=CARTESIAN_POINT('',(0.0,1.19790250361656E-014,3.58549184048539));
#397=DIRECTION('',(-0.0,0.0,-1.0));
#398=DIRECTION('',(-1.0,-1.8618595897934E-016,0.0));
#399=DIRECTION('',(-0.0,-0.0,1.0));
#400=SURFACE_STYLE_FILL_AREA(#438);
#401=ORIENTED_EDGE('',*,*,#73,.F.);
#402=ORIENTED_EDGE('',*,*,#93,.F.);
#403=ORIENTED_EDGE('',*,*,#83,.T.);
#404=ORIENTED_EDGE('',*,*,#87,.T.);
#405=CARTESIAN_POINT('',(-9.625,1.08003414206116E-014,4.99999999999997));
#406=DIRECTION('',(0.0,0.0,1.0));
#407=DIRECTION('',(-1.0,-1.22460635382238E-016,0.0));
#408=SURFACE_STYLE_FILL_AREA(#439);
#409=ORIENTED_EDGE('',*,*,#59,.F.);
#410=ORIENTED_EDGE('',*,*,#73,.T.);
#411=ORIENTED_EDGE('',*,*,#111,.F.);
#412=ORIENTED_EDGE('',*,*,#99,.F.);
#413=CARTESIAN_POINT('',(0.0,1.19790250361656E-014,2.49999999999997));
#414=DIRECTION('',(0.0,-0.0,1.0));
#415=DIRECTION('',(-1.0,-1.8618595897934E-016,0.0));
#416=SURFACE_STYLE_FILL_AREA(#440);
#417=ORIENTED_EDGE('',*,*,#127,.F.);
#418=ORIENTED_EDGE('',*,*,#109,.F.);
#419=ORIENTED_EDGE('',*,*,#97,.F.);
#420=ORIENTED_EDGE('',*,*,#75,.T.);
#421=CARTESIAN_POINT('',(0.0,1.19790250361656E-014,1.79274592024268));
#422=DIRECTION('',(0.0,-0.0,1.0));
#423=DIRECTION('',(-1.0,-1.8618595897934E-016,0.0));
#424=SURFACE_STYLE_FILL_AREA(#441);
#425=ORIENTED_EDGE('',*,*,#59,.T.);
#426=ORIENTED_EDGE('',*,*,#65,.F.);
#427=ORIENTED_EDGE('',*,*,#111,.T.);
#428=ORIENTED_EDGE('',*,*,#93,.T.);
#429=CARTESIAN_POINT('',(0.0,1.19790250361656E-014,2.49999999999997));
#430=DIRECTION('',(0.0,-0.0,1.0));
#431=DIRECTION('',(-1.0,-1.8618595897934E-016,0.0));
#432=DIRECTION('',(0.0,0.0,-1.0));
#433=FILL_AREA_STYLE('',(#442));
#434=FILL_AREA_STYLE('',(#443));
#435=FILL_AREA_STYLE('',(#444));
#436=FILL_AREA_STYLE('',(#445));
#437=FILL_AREA_STYLE('',(#446));
#438=FILL_AREA_STYLE('',(#447));
#439=FILL_AREA_STYLE('',(#448));
#440=FILL_AREA_STYLE('',(#449));
#441=FILL_AREA_STYLE('',(#450));
#442=FILL_AREA_STYLE_COLOUR('',#451);
#443=FILL_AREA_STYLE_COLOUR('',#452);
#444=FILL_AREA_STYLE_COLOUR('',#453);
#445=FILL_AREA_STYLE_COLOUR('',#454);
#446=FILL_AREA_STYLE_COLOUR('',#455);
#447=FILL_AREA_STYLE_COLOUR('',#456);
#448=FILL_AREA_STYLE_COLOUR('',#457);
#449=FILL_AREA_STYLE_COLOUR('',#458);
#450=FILL_AREA_STYLE_COLOUR('',#459);
#451=COLOUR_RGB('',0.509803950786591,0.509803950786591,0.588235318660736);
#452=COLOUR_RGB('',0.509803950786591,0.509803950786591,0.588235318660736);
#453=COLOUR_RGB('',0.509803950786591,0.509803950786591,0.588235318660736);
#454=COLOUR_RGB('',0.509803950786591,0.509803950786591,0.588235318660736);
#455=COLOUR_RGB('',0.509803950786591,0.509803950786591,0.588235318660736);
#456=COLOUR_RGB('',0.509803950786591,0.509803950786591,0.588235318660736);
#457=COLOUR_RGB('',0.509803950786591,0.509803950786591,0.588235318660736);
#458=COLOUR_RGB('',0.509803950786591,0.509803950786591,0.588235318660736);
#459=COLOUR_RGB('',0.509803950786591,0.509803950786591,0.588235318660736);
ENDSEC;
END-ISO-10303-21;
