ISO-10303-21;
HEADER;
FILE_DESCRIPTION(('STEP AP214'),'1');
FILE_NAME(' ','  ',('TraceParts'),('TraceParts S.A.'),'XStep 1.0',' ',' ');
FILE_SCHEMA(('automotive_design'));
ENDSEC;
DATA;
#1=MECHANICAL_DESIGN_GEOMETRIC_PRESENTATION_REPRESENTATION(' ',(#10,#11,#12,#13,#14,#15,#16,#17,#18,#19,#20,#21,#22,#23,#24,#25,#26,#27,#28,#29,#30,#31,#32,#33,#34,#35,#36,#37,#38,#39,#40,#41,#42,#43,#44),#6);
#2=PRODUCT_DEFINITION_CONTEXT('',#45,'design');
#3=APPLICATION_PROTOCOL_DEFINITION('INTERNATIONAL STANDARD','automotive_design',1994,#45);
#4=PRODUCT_CATEGORY_RELATIONSHIP('NONE','NONE',#46,#47);
#5=SHAPE_DEFINITION_REPRESENTATION(#48,#49);
#6= (GEOMETRIC_REPRESENTATION_CONTEXT(3)GLOBAL_UNCERTAINTY_ASSIGNED_CONTEXT((#52))GLOBAL_UNIT_ASSIGNED_CONTEXT((#54,#55,#56))REPRESENTATION_CONTEXT('NONE','WORKSPACE'));
#10=STYLED_ITEM('',(#58),#59);
#11=STYLED_ITEM('',(#60),#61);
#12=STYLED_ITEM('',(#62),#63);
#13=STYLED_ITEM('',(#64),#65);
#14=STYLED_ITEM('',(#66),#67);
#15=STYLED_ITEM('',(#68),#69);
#16=STYLED_ITEM('',(#70),#71);
#17=STYLED_ITEM('',(#72),#73);
#18=STYLED_ITEM('',(#74),#75);
#19=STYLED_ITEM('',(#76),#77);
#20=STYLED_ITEM('',(#78),#79);
#21=STYLED_ITEM('',(#80),#81);
#22=STYLED_ITEM('',(#82),#83);
#23=STYLED_ITEM('',(#84),#85);
#24=STYLED_ITEM('',(#86),#87);
#25=STYLED_ITEM('',(#88),#89);
#26=STYLED_ITEM('',(#90),#91);
#27=STYLED_ITEM('',(#92),#93);
#28=STYLED_ITEM('',(#94),#95);
#29=STYLED_ITEM('',(#96),#97);
#30=STYLED_ITEM('',(#98),#99);
#31=STYLED_ITEM('',(#100),#101);
#32=STYLED_ITEM('',(#102),#103);
#33=STYLED_ITEM('',(#104),#105);
#34=STYLED_ITEM('',(#106),#107);
#35=STYLED_ITEM('',(#108),#109);
#36=STYLED_ITEM('',(#110),#111);
#37=STYLED_ITEM('',(#112),#113);
#38=STYLED_ITEM('',(#114),#115);
#39=STYLED_ITEM('',(#116),#117);
#40=STYLED_ITEM('',(#118),#119);
#41=STYLED_ITEM('',(#120),#121);
#42=STYLED_ITEM('',(#122),#123);
#43=STYLED_ITEM('',(#124),#125);
#44=STYLED_ITEM('',(#126),#127);
#45=APPLICATION_CONTEXT(' ');
#46=PRODUCT_CATEGORY('part','NONE');
#47=PRODUCT_RELATED_PRODUCT_CATEGORY('detail',' ',(#128));
#48=PRODUCT_DEFINITION_SHAPE('NONE','NONE',#129);
#49=ADVANCED_BREP_SHAPE_REPRESENTATION('1',(#107,#130),#6);
#52=UNCERTAINTY_MEASURE_WITH_UNIT(LENGTH_MEASURE(1.0E-006),#54,'','');
#54= (CONVERSION_BASED_UNIT('MILLIMETRE',#133)LENGTH_UNIT()NAMED_UNIT(#136));
#55= (NAMED_UNIT(#138)PLANE_ANGLE_UNIT()SI_UNIT($,.RADIAN.));
#56= (NAMED_UNIT(#138)SOLID_ANGLE_UNIT()SI_UNIT($,.STERADIAN.));
#58=PRESENTATION_STYLE_ASSIGNMENT((#144));
#59=EDGE_CURVE('',#67,#77,#145,.T.);
#60=PRESENTATION_STYLE_ASSIGNMENT((#146));
#61=ADVANCED_FACE('',(#147),#148,.F.);
#62=PRESENTATION_STYLE_ASSIGNMENT((#149));
#63=EDGE_CURVE('',#111,#67,#150,.T.);
#64=PRESENTATION_STYLE_ASSIGNMENT((#151));
#65=ADVANCED_FACE('',(#152),#153,.F.);
#66=PRESENTATION_STYLE_ASSIGNMENT((#154));
#67=VERTEX_POINT('',#155);
#68=PRESENTATION_STYLE_ASSIGNMENT((#156));
#69=EDGE_CURVE('',#95,#67,#157,.T.);
#70=PRESENTATION_STYLE_ASSIGNMENT((#158));
#71=ADVANCED_FACE('',(#159,#160),#161,.T.);
#72=PRESENTATION_STYLE_ASSIGNMENT((#162));
#73=VERTEX_POINT('',#163);
#74=PRESENTATION_STYLE_ASSIGNMENT((#164));
#75=ADVANCED_FACE('',(#165),#166,.F.);
#76=PRESENTATION_STYLE_ASSIGNMENT((#167));
#77=VERTEX_POINT('',#168);
#78=PRESENTATION_STYLE_ASSIGNMENT((#169));
#79=ADVANCED_FACE('',(#170),#171,.T.);
#80=PRESENTATION_STYLE_ASSIGNMENT((#172));
#81=EDGE_CURVE('',#97,#95,#173,.T.);
#82=PRESENTATION_STYLE_ASSIGNMENT((#174));
#83=VERTEX_POINT('',#175);
#84=PRESENTATION_STYLE_ASSIGNMENT((#176));
#85=EDGE_CURVE('',#73,#83,#177,.T.);
#86=PRESENTATION_STYLE_ASSIGNMENT((#178));
#87=EDGE_CURVE('',#99,#77,#179,.T.);
#88=PRESENTATION_STYLE_ASSIGNMENT((#180));
#89=EDGE_CURVE('',#83,#93,#181,.T.);
#90=PRESENTATION_STYLE_ASSIGNMENT((#182));
#91=EDGE_CURVE('',#127,#93,#183,.T.);
#92=PRESENTATION_STYLE_ASSIGNMENT((#184));
#93=VERTEX_POINT('',#185);
#94=PRESENTATION_STYLE_ASSIGNMENT((#186));
#95=VERTEX_POINT('',#187);
#96=PRESENTATION_STYLE_ASSIGNMENT((#188));
#97=VERTEX_POINT('',#189);
#98=PRESENTATION_STYLE_ASSIGNMENT((#190));
#99=VERTEX_POINT('',#191);
#100=PRESENTATION_STYLE_ASSIGNMENT((#192));
#101=ADVANCED_FACE('',(#193,#194),#195,.T.);
#102=PRESENTATION_STYLE_ASSIGNMENT((#196));
#103=EDGE_CURVE('',#111,#97,#197,.T.);
#104=PRESENTATION_STYLE_ASSIGNMENT((#198));
#105=EDGE_CURVE('',#77,#99,#199,.T.);
#106=PRESENTATION_STYLE_ASSIGNMENT((#200));
#107=MANIFOLD_SOLID_BREP('1',#201);
#108=PRESENTATION_STYLE_ASSIGNMENT((#202));
#109=EDGE_CURVE('',#83,#73,#203,.T.);
#110=PRESENTATION_STYLE_ASSIGNMENT((#204));
#111=VERTEX_POINT('',#205);
#112=PRESENTATION_STYLE_ASSIGNMENT((#206));
#113=ADVANCED_FACE('',(#207),#208,.F.);
#114=PRESENTATION_STYLE_ASSIGNMENT((#209));
#115=EDGE_CURVE('',#127,#73,#210,.T.);
#116=PRESENTATION_STYLE_ASSIGNMENT((#211));
#117=EDGE_CURVE('',#93,#127,#212,.T.);
#118=PRESENTATION_STYLE_ASSIGNMENT((#213));
#119=EDGE_CURVE('',#99,#111,#214,.T.);
#120=PRESENTATION_STYLE_ASSIGNMENT((#215));
#121=ADVANCED_FACE('',(#216),#217,.T.);
#122=PRESENTATION_STYLE_ASSIGNMENT((#218));
#123=EDGE_CURVE('',#67,#111,#219,.T.);
#124=PRESENTATION_STYLE_ASSIGNMENT((#220));
#125=EDGE_CURVE('',#95,#97,#221,.T.);
#126=PRESENTATION_STYLE_ASSIGNMENT((#222));
#127=VERTEX_POINT('',#223);
#128=PRODUCT('1','1','PART-1-DESC',(#224));
#129=PRODUCT_DEFINITION('NONE','NONE',#225,#2);
#130=AXIS2_PLACEMENT_3D('',#226,#227,#228);
#133=LENGTH_MEASURE_WITH_UNIT(LENGTH_MEASURE(1.0),#229);
#136=DIMENSIONAL_EXPONENTS(1.0,0.0,0.0,0.0,0.0,0.0,0.0);
#138=DIMENSIONAL_EXPONENTS(0.0,0.0,0.0,0.0,0.0,0.0,0.0);
#144=CURVE_STYLE('',#230,POSITIVE_LENGTH_MEASURE(1.0E-006),#231);
#145=LINE('',#232,#233);
#146=SURFACE_STYLE_USAGE(.BOTH.,#234);
#147=FACE_OUTER_BOUND('',#235,.T.);
#148=CYLINDRICAL_SURFACE('',#236,3.55000000000001);
#149=CURVE_STYLE('',#237,POSITIVE_LENGTH_MEASURE(1.0E-006),#238);
#150=CIRCLE('',#239,3.55000000000001);
#151=SURFACE_STYLE_USAGE(.BOTH.,#240);
#152=FACE_OUTER_BOUND('',#241,.T.);
#153=CYLINDRICAL_SURFACE('',#242,3.55000000000001);
#154=POINT_STYLE(' ',#243,POSITIVE_LENGTH_MEASURE(1.0E-006),#244);
#155=CARTESIAN_POINT('',(-3.55000000000001,1.14447395079301E-014,2.87416697508021));
#156=CURVE_STYLE('',#245,POSITIVE_LENGTH_MEASURE(1.0E-006),#246);
#157=LINE('',#247,#248);
#158=SURFACE_STYLE_USAGE(.BOTH.,#249);
#159=FACE_BOUND('',#250,.T.);
#160=FACE_OUTER_BOUND('',#251,.T.);
#161=PLANE('',#252);
#162=POINT_STYLE(' ',#253,POSITIVE_LENGTH_MEASURE(1.0E-006),#254);
#163=CARTESIAN_POINT('',(-8.5,1.06625732058066E-014,-2.8421709430404E-014));
#164=SURFACE_STYLE_USAGE(.BOTH.,#255);
#165=FACE_OUTER_BOUND('',#256,.T.);
#166=CONICAL_SURFACE('',#257,4.52500000000001,1.0471975511966);
#167=POINT_STYLE(' ',#258,POSITIVE_LENGTH_MEASURE(1.0E-006),#259);
#168=CARTESIAN_POINT('',(-3.55000000000001,1.12687533509486E-014,-2.8421709430404E-014));
#169=SURFACE_STYLE_USAGE(.BOTH.,#260);
#170=FACE_OUTER_BOUND('',#261,.T.);
#171=CYLINDRICAL_SURFACE('',#262,8.5);
#172=CURVE_STYLE('',#263,POSITIVE_LENGTH_MEASURE(1.0E-006),#264);
#173=CIRCLE('',#265,5.5);
#174=POINT_STYLE(' ',#266,POSITIVE_LENGTH_MEASURE(1.0E-006),#267);
#175=CARTESIAN_POINT('',(8.5,1.4616153598882E-014,-2.8421709430404E-014));
#176=CURVE_STYLE('',#268,POSITIVE_LENGTH_MEASURE(1.0E-006),#269);
#177=CIRCLE('',#270,8.5);
#178=CURVE_STYLE('',#271,POSITIVE_LENGTH_MEASURE(1.0E-006),#272);
#179=CIRCLE('',#273,3.55000000000001);
#180=CURVE_STYLE('',#274,POSITIVE_LENGTH_MEASURE(1.0E-006),#275);
#181=LINE('',#276,#277);
#182=CURVE_STYLE('',#278,POSITIVE_LENGTH_MEASURE(1.0E-006),#279);
#183=CIRCLE('',#280,8.5);
#184=POINT_STYLE(' ',#281,POSITIVE_LENGTH_MEASURE(1.0E-006),#282);
#185=CARTESIAN_POINT('',(8.5,1.4616153598882E-014,3.99999999999997));
#186=POINT_STYLE(' ',#283,POSITIVE_LENGTH_MEASURE(1.0E-006),#284);
#187=CARTESIAN_POINT('',(-5.5,1.12748763827178E-014,3.99999999999997));
#188=POINT_STYLE(' ',#285,POSITIVE_LENGTH_MEASURE(1.0E-006),#286);
#189=CARTESIAN_POINT('',(5.5,1.36745969912719E-014,3.99999999999997));
#190=POINT_STYLE(' ',#287,POSITIVE_LENGTH_MEASURE(1.0E-006),#288);
#191=CARTESIAN_POINT('',(3.55000000000001,1.30625851963253E-014,-2.8421709430404E-014));
#192=SURFACE_STYLE_USAGE(.BOTH.,#289);
#193=FACE_OUTER_BOUND('',#290,.T.);
#194=FACE_BOUND('',#291,.T.);
#195=PLANE('',#292);
#196=CURVE_STYLE('',#293,POSITIVE_LENGTH_MEASURE(1.0E-006),#294);
#197=LINE('',#295,#296);
#198=CURVE_STYLE('',#297,POSITIVE_LENGTH_MEASURE(1.0E-006),#298);
#199=CIRCLE('',#299,3.55000000000001);
#200=SURFACE_STYLE_USAGE(.BOTH.,#300);
#201=CLOSED_SHELL('',(#65,#121,#75,#113,#101,#79,#71,#61));
#202=CURVE_STYLE('',#301,POSITIVE_LENGTH_MEASURE(1.0E-006),#302);
#203=CIRCLE('',#303,8.5);
#204=POINT_STYLE(' ',#304,POSITIVE_LENGTH_MEASURE(1.0E-006),#305);
#205=CARTESIAN_POINT('',(3.55000000000001,1.30625851963253E-014,2.87416697508021));
#206=SURFACE_STYLE_USAGE(.BOTH.,#306);
#207=FACE_OUTER_BOUND('',#307,.T.);
#208=CONICAL_SURFACE('',#308,4.52500000000001,1.0471975511966);
#209=CURVE_STYLE('',#309,POSITIVE_LENGTH_MEASURE(1.0E-006),#310);
#210=LINE('',#311,#312);
#211=CURVE_STYLE('',#313,POSITIVE_LENGTH_MEASURE(1.0E-006),#314);
#212=CIRCLE('',#315,8.5);
#213=CURVE_STYLE('',#316,POSITIVE_LENGTH_MEASURE(1.0E-006),#317);
#214=LINE('',#318,#319);
#215=SURFACE_STYLE_USAGE(.BOTH.,#320);
#216=FACE_OUTER_BOUND('',#321,.T.);
#217=CYLINDRICAL_SURFACE('',#322,8.5);
#218=CURVE_STYLE('',#323,POSITIVE_LENGTH_MEASURE(1.0E-006),#324);
#219=CIRCLE('',#325,3.55000000000001);
#220=CURVE_STYLE('',#326,POSITIVE_LENGTH_MEASURE(1.0E-006),#327);
#221=CIRCLE('',#328,5.5);
#222=POINT_STYLE(' ',#329,POSITIVE_LENGTH_MEASURE(1.0E-006),#330);
#223=CARTESIAN_POINT('',(-8.5,1.0907494476571E-014,3.99999999999997));
#224=PRODUCT_CONTEXT('',#45,'mechanical');
#225=PRODUCT_DEFINITION_FORMATION_WITH_SPECIFIED_SOURCE(' ','NONE',#128,.NOT_KNOWN.);
#226=CARTESIAN_POINT('',(0.0,0.0,0.0));
#227=DIRECTION('',(0.0,0.0,1.0));
#228=DIRECTION('',(1.0,0.0,0.0));
#229= (NAMED_UNIT(#136)LENGTH_UNIT()SI_UNIT(.MILLI.,.METRE.));
#230=DRAUGHTING_PRE_DEFINED_CURVE_FONT('continuous');
#231=COLOUR_RGB('',0.509803950786591,0.509803950786591,0.588235318660736);
#232=CARTESIAN_POINT('',(-3.55000000000001,1.08342345583148E-014,1.43708348754009));
#233=VECTOR('',#332,1.0);
#234=SURFACE_SIDE_STYLE('',(#333));
#235=EDGE_LOOP('',(#334,#335,#336,#337));
#236=AXIS2_PLACEMENT_3D('',#338,#339,#340);
#237=DRAUGHTING_PRE_DEFINED_CURVE_FONT('continuous');
#238=COLOUR_RGB('',0.509803950786591,0.509803950786591,0.588235318660736);
#239=AXIS2_PLACEMENT_3D('',#341,#342,#343);
#240=SURFACE_SIDE_STYLE('',(#344));
#241=EDGE_LOOP('',(#345,#346,#347,#348));
#242=AXIS2_PLACEMENT_3D('',#349,#350,#351);
#243=PRE_DEFINED_MARKER('');
#244=COLOUR_RGB('',0.509803950786591,0.509803950786591,0.588235318660736);
#245=DRAUGHTING_PRE_DEFINED_CURVE_FONT('continuous');
#246=COLOUR_RGB('',0.509803950786591,0.509803950786591,0.588235318660736);
#247=CARTESIAN_POINT('',(-4.52500000000001,1.05282286608415E-014,3.43708348754009));
#248=VECTOR('',#352,1.0);
#249=SURFACE_SIDE_STYLE('',(#353));
#250=EDGE_LOOP('',(#354,#355));
#251=EDGE_LOOP('',(#356,#357));
#252=AXIS2_PLACEMENT_3D('',#358,#359,#360);
#253=PRE_DEFINED_MARKER('');
#254=COLOUR_RGB('',0.509803950786591,0.509803950786591,0.588235318660736);
#255=SURFACE_SIDE_STYLE('',(#361));
#256=EDGE_LOOP('',(#362,#363,#364,#365));
#257=AXIS2_PLACEMENT_3D('',#366,#367,#368);
#258=PRE_DEFINED_MARKER('');
#259=COLOUR_RGB('',0.509803950786591,0.509803950786591,0.588235318660736);
#260=SURFACE_SIDE_STYLE('',(#369));
#261=EDGE_LOOP('',(#370,#371,#372,#373));
#262=AXIS2_PLACEMENT_3D('',#374,#375,#376);
#263=DRAUGHTING_PRE_DEFINED_CURVE_FONT('continuous');
#264=COLOUR_RGB('',0.509803950786591,0.509803950786591,0.588235318660736);
#265=AXIS2_PLACEMENT_3D('',#377,#378,#379);
#266=PRE_DEFINED_MARKER('');
#267=COLOUR_RGB('',0.509803950786591,0.509803950786591,0.588235318660736);
#268=DRAUGHTING_PRE_DEFINED_CURVE_FONT('continuous');
#269=COLOUR_RGB('',0.509803950786591,0.509803950786591,0.588235318660736);
#270=AXIS2_PLACEMENT_3D('',#380,#381,#382);
#271=DRAUGHTING_PRE_DEFINED_CURVE_FONT('continuous');
#272=COLOUR_RGB('',0.509803950786591,0.509803950786591,0.588235318660736);
#273=AXIS2_PLACEMENT_3D('',#383,#384,#385);
#274=DRAUGHTING_PRE_DEFINED_CURVE_FONT('continuous');
#275=COLOUR_RGB('',0.509803950786591,0.509803950786591,0.588235318660736);
#276=CARTESIAN_POINT('',(8.5,1.4616153598882E-014,1.99999999999997));
#277=VECTOR('',#386,1.0);
#278=DRAUGHTING_PRE_DEFINED_CURVE_FONT('continuous');
#279=COLOUR_RGB('',0.509803950786591,0.509803950786591,0.588235318660736);
#280=AXIS2_PLACEMENT_3D('',#387,#388,#389);
#281=PRE_DEFINED_MARKER('');
#282=COLOUR_RGB('',0.509803950786591,0.509803950786591,0.588235318660736);
#283=PRE_DEFINED_MARKER('');
#284=COLOUR_RGB('',0.509803950786591,0.509803950786591,0.588235318660736);
#285=PRE_DEFINED_MARKER('');
#286=COLOUR_RGB('',0.509803950786591,0.509803950786591,0.588235318660736);
#287=PRE_DEFINED_MARKER('');
#288=COLOUR_RGB('',0.509803950786591,0.509803950786591,0.588235318660736);
#289=SURFACE_SIDE_STYLE('',(#390));
#290=EDGE_LOOP('',(#391,#392));
#291=EDGE_LOOP('',(#393,#394));
#292=AXIS2_PLACEMENT_3D('',#395,#396,#397);
#293=DRAUGHTING_PRE_DEFINED_CURVE_FONT('continuous');
#294=COLOUR_RGB('',0.509803950786591,0.509803950786591,0.588235318660736);
#295=CARTESIAN_POINT('',(4.52500000000001,1.33685910937986E-014,3.43708348754009));
#296=VECTOR('',#398,1.0);
#297=DRAUGHTING_PRE_DEFINED_CURVE_FONT('continuous');
#298=COLOUR_RGB('',0.509803950786591,0.509803950786591,0.588235318660736);
#299=AXIS2_PLACEMENT_3D('',#399,#400,#401);
#300=SURFACE_SIDE_STYLE('',(#402));
#301=DRAUGHTING_PRE_DEFINED_CURVE_FONT('continuous');
#302=COLOUR_RGB('',0.509803950786591,0.509803950786591,0.588235318660736);
#303=AXIS2_PLACEMENT_3D('',#403,#404,#405);
#304=PRE_DEFINED_MARKER('');
#305=COLOUR_RGB('',0.509803950786591,0.509803950786591,0.588235318660736);
#306=SURFACE_SIDE_STYLE('',(#406));
#307=EDGE_LOOP('',(#407,#408,#409,#410));
#308=AXIS2_PLACEMENT_3D('',#411,#412,#413);
#309=DRAUGHTING_PRE_DEFINED_CURVE_FONT('continuous');
#310=COLOUR_RGB('',0.509803950786591,0.509803950786591,0.588235318660736);
#311=CARTESIAN_POINT('',(-8.5,9.28066615575814E-015,1.99999999999997));
#312=VECTOR('',#414,1.0);
#313=DRAUGHTING_PRE_DEFINED_CURVE_FONT('continuous');
#314=COLOUR_RGB('',0.509803950786591,0.509803950786591,0.588235318660736);
#315=AXIS2_PLACEMENT_3D('',#415,#416,#417);
#316=DRAUGHTING_PRE_DEFINED_CURVE_FONT('continuous');
#317=COLOUR_RGB('',0.509803950786591,0.509803950786591,0.588235318660736);
#318=CARTESIAN_POINT('',(3.55000000000001,1.30625851963253E-014,1.43708348754009));
#319=VECTOR('',#418,1.0);
#320=SURFACE_SIDE_STYLE('',(#419));
#321=EDGE_LOOP('',(#420,#421,#422,#423));
#322=AXIS2_PLACEMENT_3D('',#424,#425,#426);
#323=DRAUGHTING_PRE_DEFINED_CURVE_FONT('continuous');
#324=COLOUR_RGB('',0.509803950786591,0.509803950786591,0.588235318660736);
#325=AXIS2_PLACEMENT_3D('',#427,#428,#429);
#326=DRAUGHTING_PRE_DEFINED_CURVE_FONT('continuous');
#327=COLOUR_RGB('',0.509803950786591,0.509803950786591,0.588235318660736);
#328=AXIS2_PLACEMENT_3D('',#430,#431,#432);
#329=PRE_DEFINED_MARKER('');
#330=COLOUR_RGB('',0.509803950786591,0.509803950786591,0.588235318660736);
#332=DIRECTION('',(0.0,0.0,-1.0));
#333=SURFACE_STYLE_FILL_AREA(#433);
#334=ORIENTED_EDGE('',*,*,#59,.T.);
#335=ORIENTED_EDGE('',*,*,#105,.T.);
#336=ORIENTED_EDGE('',*,*,#119,.T.);
#337=ORIENTED_EDGE('',*,*,#123,.F.);
#338=CARTESIAN_POINT('',(0.0,1.19484098773201E-014,1.43708348754009));
#339=DIRECTION('',(0.0,-0.0,1.0));
#340=DIRECTION('',(-1.0,-1.9139156715446E-016,0.0));
#341=CARTESIAN_POINT('',(0.0,1.19484098773201E-014,2.87416697508021));
#342=DIRECTION('',(-0.0,0.0,-1.0));
#343=DIRECTION('',(-1.0,-1.9139156715446E-016,0.0));
#344=SURFACE_STYLE_FILL_AREA(#434);
#345=ORIENTED_EDGE('',*,*,#59,.F.);
#346=ORIENTED_EDGE('',*,*,#63,.F.);
#347=ORIENTED_EDGE('',*,*,#119,.F.);
#348=ORIENTED_EDGE('',*,*,#87,.T.);
#349=CARTESIAN_POINT('',(0.0,1.19484098773201E-014,1.43708348754009));
#350=DIRECTION('',(0.0,-0.0,1.0));
#351=DIRECTION('',(-1.0,-1.9139156715446E-016,0.0));
#352=DIRECTION('',(0.86602540378444,2.71803980430479E-016,-0.499999999999998));
#353=SURFACE_STYLE_FILL_AREA(#435);
#354=ORIENTED_EDGE('',*,*,#105,.F.);
#355=ORIENTED_EDGE('',*,*,#87,.F.);
#356=ORIENTED_EDGE('',*,*,#85,.T.);
#357=ORIENTED_EDGE('',*,*,#109,.T.);
#358=CARTESIAN_POINT('',(-6.02500000000001,1.09656632783776E-014,-2.8421709430404E-014));
#359=DIRECTION('',(0.0,0.0,-1.0));
#360=DIRECTION('',(1.0,1.22460635382238E-016,0.0));
#361=SURFACE_STYLE_FILL_AREA(#436);
#362=ORIENTED_EDGE('',*,*,#69,.F.);
#363=ORIENTED_EDGE('',*,*,#81,.F.);
#364=ORIENTED_EDGE('',*,*,#103,.F.);
#365=ORIENTED_EDGE('',*,*,#63,.T.);
#366=CARTESIAN_POINT('',(0.0,1.19484098773201E-014,3.43708348754009));
#367=DIRECTION('',(0.0,-0.0,1.0));
#368=DIRECTION('',(-1.0,-1.9139156715446E-016,0.0));
#369=SURFACE_STYLE_FILL_AREA(#437);
#370=ORIENTED_EDGE('',*,*,#115,.T.);
#371=ORIENTED_EDGE('',*,*,#109,.F.);
#372=ORIENTED_EDGE('',*,*,#89,.T.);
#373=ORIENTED_EDGE('',*,*,#117,.T.);
#374=CARTESIAN_POINT('',(0.0,1.19484098773201E-014,1.99999999999997));
#375=DIRECTION('',(0.0,-0.0,1.0));
#376=DIRECTION('',(-1.0,-1.9139156715446E-016,0.0));
#377=CARTESIAN_POINT('',(0.0,1.19484098773201E-014,3.99999999999997));
#378=DIRECTION('',(-0.0,0.0,-1.0));
#379=DIRECTION('',(-1.0,-1.9139156715446E-016,0.0));
#380=CARTESIAN_POINT('',(0.0,1.19484098773201E-014,-2.8421709430404E-014));
#381=DIRECTION('',(-0.0,0.0,-1.0));
#382=DIRECTION('',(-1.0,-1.9139156715446E-016,0.0));
#383=CARTESIAN_POINT('',(0.0,1.19484098773201E-014,-2.8421709430404E-014));
#384=DIRECTION('',(-0.0,0.0,-1.0));
#385=DIRECTION('',(-1.0,-1.9139156715446E-016,0.0));
#386=DIRECTION('',(-0.0,-0.0,1.0));
#387=CARTESIAN_POINT('',(0.0,1.19484098773201E-014,3.99999999999997));
#388=DIRECTION('',(-0.0,0.0,-1.0));
#389=DIRECTION('',(-1.0,-1.9139156715446E-016,0.0));
#390=SURFACE_STYLE_FILL_AREA(#438);
#391=ORIENTED_EDGE('',*,*,#91,.F.);
#392=ORIENTED_EDGE('',*,*,#117,.F.);
#393=ORIENTED_EDGE('',*,*,#125,.T.);
#394=ORIENTED_EDGE('',*,*,#81,.T.);
#395=CARTESIAN_POINT('',(-7.0,1.10911854296444E-014,3.99999999999997));
#396=DIRECTION('',(0.0,0.0,1.0));
#397=DIRECTION('',(-1.0,-1.22460635382238E-016,0.0));
#398=DIRECTION('',(0.86602540378444,2.71803980430479E-016,0.499999999999998));
#399=CARTESIAN_POINT('',(0.0,1.19484098773201E-014,-2.8421709430404E-014));
#400=DIRECTION('',(-0.0,0.0,-1.0));
#401=DIRECTION('',(-1.0,-1.9139156715446E-016,0.0));
#402=SURFACE_STYLE_FILL_AREA(#439);
#403=CARTESIAN_POINT('',(0.0,1.19484098773201E-014,-2.8421709430404E-014));
#404=DIRECTION('',(-0.0,0.0,-1.0));
#405=DIRECTION('',(-1.0,-1.9139156715446E-016,0.0));
#406=SURFACE_STYLE_FILL_AREA(#440);
#407=ORIENTED_EDGE('',*,*,#69,.T.);
#408=ORIENTED_EDGE('',*,*,#123,.T.);
#409=ORIENTED_EDGE('',*,*,#103,.T.);
#410=ORIENTED_EDGE('',*,*,#125,.F.);
#411=CARTESIAN_POINT('',(0.0,1.19484098773201E-014,3.43708348754009));
#412=DIRECTION('',(0.0,-0.0,1.0));
#413=DIRECTION('',(-1.0,-1.9139156715446E-016,0.0));
#414=DIRECTION('',(0.0,0.0,-1.0));
#415=CARTESIAN_POINT('',(0.0,1.19484098773201E-014,3.99999999999997));
#416=DIRECTION('',(-0.0,0.0,-1.0));
#417=DIRECTION('',(-1.0,-1.9139156715446E-016,0.0));
#418=DIRECTION('',(0.0,0.0,1.0));
#419=SURFACE_STYLE_FILL_AREA(#441);
#420=ORIENTED_EDGE('',*,*,#115,.F.);
#421=ORIENTED_EDGE('',*,*,#91,.T.);
#422=ORIENTED_EDGE('',*,*,#89,.F.);
#423=ORIENTED_EDGE('',*,*,#85,.F.);
#424=CARTESIAN_POINT('',(0.0,1.19484098773201E-014,1.99999999999997));
#425=DIRECTION('',(0.0,-0.0,1.0));
#426=DIRECTION('',(-1.0,-1.9139156715446E-016,0.0));
#427=CARTESIAN_POINT('',(0.0,1.19484098773201E-014,2.87416697508021));
#428=DIRECTION('',(-0.0,0.0,-1.0));
#429=DIRECTION('',(-1.0,-1.9139156715446E-016,0.0));
#430=CARTESIAN_POINT('',(0.0,1.19484098773201E-014,3.99999999999997));
#431=DIRECTION('',(-0.0,0.0,-1.0));
#432=DIRECTION('',(-1.0,-1.9139156715446E-016,0.0));
#433=FILL_AREA_STYLE('',(#442));
#434=FILL_AREA_STYLE('',(#443));
#435=FILL_AREA_STYLE('',(#444));
#436=FILL_AREA_STYLE('',(#445));
#437=FILL_AREA_STYLE('',(#446));
#438=FILL_AREA_STYLE('',(#447));
#439=FILL_AREA_STYLE('',(#448));
#440=FILL_AREA_STYLE('',(#449));
#441=FILL_AREA_STYLE('',(#450));
#442=FILL_AREA_STYLE_COLOUR('',#451);
#443=FILL_AREA_STYLE_COLOUR('',#452);
#444=FILL_AREA_STYLE_COLOUR('',#453);
#445=FILL_AREA_STYLE_COLOUR('',#454);
#446=FILL_AREA_STYLE_COLOUR('',#455);
#447=FILL_AREA_STYLE_COLOUR('',#456);
#448=FILL_AREA_STYLE_COLOUR('',#457);
#449=FILL_AREA_STYLE_COLOUR('',#458);
#450=FILL_AREA_STYLE_COLOUR('',#459);
#451=COLOUR_RGB('',0.509803950786591,0.509803950786591,0.588235318660736);
#452=COLOUR_RGB('',0.509803950786591,0.509803950786591,0.588235318660736);
#453=COLOUR_RGB('',0.509803950786591,0.509803950786591,0.588235318660736);
#454=COLOUR_RGB('',0.509803950786591,0.509803950786591,0.588235318660736);
#455=COLOUR_RGB('',0.509803950786591,0.509803950786591,0.588235318660736);
#456=COLOUR_RGB('',0.509803950786591,0.509803950786591,0.588235318660736);
#457=COLOUR_RGB('',0.509803950786591,0.509803950786591,0.588235318660736);
#458=COLOUR_RGB('',0.509803950786591,0.509803950786591,0.588235318660736);
#459=COLOUR_RGB('',0.509803950786591,0.509803950786591,0.588235318660736);
ENDSEC;
END-ISO-10303-21;
