ISO-10303-21;
HEADER;
FILE_DESCRIPTION(('STEP AP214'),'1');
FILE_NAME(' ','  ',('TraceParts'),('TraceParts S.A.'),'XStep 1.0',' ',' ');
FILE_SCHEMA(('automotive_design'));
ENDSEC;
DATA;
#1=MECHANICAL_DESIGN_GEOMETRIC_PRESENTATION_REPRESENTATION(' ',(#10,#11,#12,#13,#14,#15,#16,#17,#18,#19,#20,#21,#22,#23,#24,#25,#26,#27,#28,#29,#30,#31,#32,#33,#34,#35,#36,#37,#38,#39,#40,#41,#42,#43,#44),#6);
#2=PRODUCT_DEFINITION_CONTEXT('',#45,'design');
#3=APPLICATION_PROTOCOL_DEFINITION('INTERNATIONAL STANDARD','automotive_design',1994,#45);
#4=PRODUCT_CATEGORY_RELATIONSHIP('NONE','NONE',#46,#47);
#5=SHAPE_DEFINITION_REPRESENTATION(#48,#49);
#6= (GEOMETRIC_REPRESENTATION_CONTEXT(3)GLOBAL_UNCERTAINTY_ASSIGNED_CONTEXT((#52))GLOBAL_UNIT_ASSIGNED_CONTEXT((#54,#55,#56))REPRESENTATION_CONTEXT('NONE','WORKSPACE'));
#10=STYLED_ITEM('',(#58),#59);
#11=STYLED_ITEM('',(#60),#61);
#12=STYLED_ITEM('',(#62),#63);
#13=STYLED_ITEM('',(#64),#65);
#14=STYLED_ITEM('',(#66),#67);
#15=STYLED_ITEM('',(#68),#69);
#16=STYLED_ITEM('',(#70),#71);
#17=STYLED_ITEM('',(#72),#73);
#18=STYLED_ITEM('',(#74),#75);
#19=STYLED_ITEM('',(#76),#77);
#20=STYLED_ITEM('',(#78),#79);
#21=STYLED_ITEM('',(#80),#81);
#22=STYLED_ITEM('',(#82),#83);
#23=STYLED_ITEM('',(#84),#85);
#24=STYLED_ITEM('',(#86),#87);
#25=STYLED_ITEM('',(#88),#89);
#26=STYLED_ITEM('',(#90),#91);
#27=STYLED_ITEM('',(#92),#93);
#28=STYLED_ITEM('',(#94),#95);
#29=STYLED_ITEM('',(#96),#97);
#30=STYLED_ITEM('',(#98),#99);
#31=STYLED_ITEM('',(#100),#101);
#32=STYLED_ITEM('',(#102),#103);
#33=STYLED_ITEM('',(#104),#105);
#34=STYLED_ITEM('',(#106),#107);
#35=STYLED_ITEM('',(#108),#109);
#36=STYLED_ITEM('',(#110),#111);
#37=STYLED_ITEM('',(#112),#113);
#38=STYLED_ITEM('',(#114),#115);
#39=STYLED_ITEM('',(#116),#117);
#40=STYLED_ITEM('',(#118),#119);
#41=STYLED_ITEM('',(#120),#121);
#42=STYLED_ITEM('',(#122),#123);
#43=STYLED_ITEM('',(#124),#125);
#44=STYLED_ITEM('',(#126),#127);
#45=APPLICATION_CONTEXT(' ');
#46=PRODUCT_CATEGORY('part','NONE');
#47=PRODUCT_RELATED_PRODUCT_CATEGORY('detail',' ',(#128));
#48=PRODUCT_DEFINITION_SHAPE('NONE','NONE',#129);
#49=ADVANCED_BREP_SHAPE_REPRESENTATION('1',(#63,#130),#6);
#52=UNCERTAINTY_MEASURE_WITH_UNIT(LENGTH_MEASURE(1.0E-006),#54,'','');
#54= (CONVERSION_BASED_UNIT('MILLIMETRE',#133)LENGTH_UNIT()NAMED_UNIT(#136));
#55= (NAMED_UNIT(#138)PLANE_ANGLE_UNIT()SI_UNIT($,.RADIAN.));
#56= (NAMED_UNIT(#138)SOLID_ANGLE_UNIT()SI_UNIT($,.STERADIAN.));
#58=PRESENTATION_STYLE_ASSIGNMENT((#144));
#59=ADVANCED_FACE('',(#145),#146,.F.);
#60=PRESENTATION_STYLE_ASSIGNMENT((#147));
#61=EDGE_CURVE('',#89,#107,#148,.T.);
#62=PRESENTATION_STYLE_ASSIGNMENT((#149));
#63=MANIFOLD_SOLID_BREP('1',#150);
#64=PRESENTATION_STYLE_ASSIGNMENT((#151));
#65=EDGE_CURVE('',#107,#79,#152,.T.);
#66=PRESENTATION_STYLE_ASSIGNMENT((#153));
#67=VERTEX_POINT('',#154);
#68=PRESENTATION_STYLE_ASSIGNMENT((#155));
#69=EDGE_CURVE('',#87,#97,#156,.T.);
#70=PRESENTATION_STYLE_ASSIGNMENT((#157));
#71=EDGE_CURVE('',#79,#93,#158,.T.);
#72=PRESENTATION_STYLE_ASSIGNMENT((#159));
#73=EDGE_CURVE('',#89,#87,#160,.T.);
#74=PRESENTATION_STYLE_ASSIGNMENT((#161));
#75=EDGE_CURVE('',#67,#123,#162,.T.);
#76=PRESENTATION_STYLE_ASSIGNMENT((#163));
#77=EDGE_CURVE('',#123,#81,#164,.T.);
#78=PRESENTATION_STYLE_ASSIGNMENT((#165));
#79=VERTEX_POINT('',#166);
#80=PRESENTATION_STYLE_ASSIGNMENT((#167));
#81=VERTEX_POINT('',#168);
#82=PRESENTATION_STYLE_ASSIGNMENT((#169));
#83=ADVANCED_FACE('',(#170),#171,.T.);
#84=PRESENTATION_STYLE_ASSIGNMENT((#172));
#85=EDGE_CURVE('',#93,#89,#173,.T.);
#86=PRESENTATION_STYLE_ASSIGNMENT((#174));
#87=VERTEX_POINT('',#175);
#88=PRESENTATION_STYLE_ASSIGNMENT((#176));
#89=VERTEX_POINT('',#177);
#90=PRESENTATION_STYLE_ASSIGNMENT((#178));
#91=EDGE_CURVE('',#97,#87,#179,.T.);
#92=PRESENTATION_STYLE_ASSIGNMENT((#180));
#93=VERTEX_POINT('',#181);
#94=PRESENTATION_STYLE_ASSIGNMENT((#182));
#95=EDGE_CURVE('',#93,#79,#183,.T.);
#96=PRESENTATION_STYLE_ASSIGNMENT((#184));
#97=VERTEX_POINT('',#185);
#98=PRESENTATION_STYLE_ASSIGNMENT((#186));
#99=ADVANCED_FACE('',(#187),#188,.F.);
#100=PRESENTATION_STYLE_ASSIGNMENT((#189));
#101=EDGE_CURVE('',#81,#121,#190,.T.);
#102=PRESENTATION_STYLE_ASSIGNMENT((#191));
#103=EDGE_CURVE('',#121,#81,#192,.T.);
#104=PRESENTATION_STYLE_ASSIGNMENT((#193));
#105=EDGE_CURVE('',#121,#67,#194,.T.);
#106=PRESENTATION_STYLE_ASSIGNMENT((#195));
#107=VERTEX_POINT('',#196);
#108=PRESENTATION_STYLE_ASSIGNMENT((#197));
#109=ADVANCED_FACE('',(#198,#199),#200,.T.);
#110=PRESENTATION_STYLE_ASSIGNMENT((#201));
#111=ADVANCED_FACE('',(#202),#203,.F.);
#112=PRESENTATION_STYLE_ASSIGNMENT((#204));
#113=ADVANCED_FACE('',(#205,#206),#207,.T.);
#114=PRESENTATION_STYLE_ASSIGNMENT((#208));
#115=ADVANCED_FACE('',(#209),#210,.T.);
#116=PRESENTATION_STYLE_ASSIGNMENT((#211));
#117=EDGE_CURVE('',#107,#89,#212,.T.);
#118=PRESENTATION_STYLE_ASSIGNMENT((#213));
#119=EDGE_CURVE('',#97,#107,#214,.T.);
#120=PRESENTATION_STYLE_ASSIGNMENT((#215));
#121=VERTEX_POINT('',#216);
#122=PRESENTATION_STYLE_ASSIGNMENT((#217));
#123=VERTEX_POINT('',#218);
#124=PRESENTATION_STYLE_ASSIGNMENT((#219));
#125=EDGE_CURVE('',#123,#67,#220,.T.);
#126=PRESENTATION_STYLE_ASSIGNMENT((#221));
#127=ADVANCED_FACE('',(#222),#223,.F.);
#128=PRODUCT('1','1','PART-1-DESC',(#224));
#129=PRODUCT_DEFINITION('NONE','NONE',#225,#2);
#130=AXIS2_PLACEMENT_3D('',#226,#227,#228);
#133=LENGTH_MEASURE_WITH_UNIT(LENGTH_MEASURE(1.0),#229);
#136=DIMENSIONAL_EXPONENTS(1.0,0.0,0.0,0.0,0.0,0.0,0.0);
#138=DIMENSIONAL_EXPONENTS(0.0,0.0,0.0,0.0,0.0,0.0,0.0);
#144=SURFACE_STYLE_USAGE(.BOTH.,#230);
#145=FACE_OUTER_BOUND('',#231,.T.);
#146=CONICAL_SURFACE('',#232,6.02500000000001,1.04719755119659);
#147=CURVE_STYLE('',#233,POSITIVE_LENGTH_MEASURE(1.0E-006),#234);
#148=CIRCLE('',#235,4.80000000000001);
#149=SURFACE_STYLE_USAGE(.BOTH.,#236);
#150=CLOSED_SHELL('',(#99,#83,#111,#59,#113,#115,#109,#127));
#151=CURVE_STYLE('',#237,POSITIVE_LENGTH_MEASURE(1.0E-006),#238);
#152=LINE('',#239,#240);
#153=POINT_STYLE(' ',#241,POSITIVE_LENGTH_MEASURE(1.0E-006),#242);
#154=CARTESIAN_POINT('',(8.50000000000003,1.3578552100208E-014,3.49999999999997));
#155=CURVE_STYLE('',#243,POSITIVE_LENGTH_MEASURE(1.0E-006),#244);
#156=CIRCLE('',#245,4.80000000000001);
#157=CURVE_STYLE('',#246,POSITIVE_LENGTH_MEASURE(1.0E-006),#247);
#158=CIRCLE('',#248,7.25);
#159=CURVE_STYLE('',#249,POSITIVE_LENGTH_MEASURE(1.0E-006),#250);
#160=LINE('',#251,#252);
#161=CURVE_STYLE('',#253,POSITIVE_LENGTH_MEASURE(1.0E-006),#254);
#162=CIRCLE('',#255,8.5);
#163=CURVE_STYLE('',#256,POSITIVE_LENGTH_MEASURE(1.0E-006),#257);
#164=LINE('',#258,#259);
#165=POINT_STYLE(' ',#260,POSITIVE_LENGTH_MEASURE(1.0E-006),#261);
#166=CARTESIAN_POINT('',(7.25000000000003,1.321663253085E-014,3.49999999999997));
#167=POINT_STYLE(' ',#262,POSITIVE_LENGTH_MEASURE(1.0E-006),#263);
#168=CARTESIAN_POINT('',(-8.49999999999997,9.86227751590515E-015,-2.8421709430404E-014));
#169=SURFACE_STYLE_USAGE(.BOTH.,#264);
#170=FACE_OUTER_BOUND('',#265,.T.);
#171=CYLINDRICAL_SURFACE('',#266,8.5);
#172=CURVE_STYLE('',#267,POSITIVE_LENGTH_MEASURE(1.0E-006),#268);
#173=LINE('',#269,#270);
#174=POINT_STYLE(' ',#271,POSITIVE_LENGTH_MEASURE(1.0E-006),#272);
#175=CARTESIAN_POINT('',(-4.79999999999998,1.03153818668194E-014,-2.8421709430404E-014));
#176=POINT_STYLE(' ',#273,POSITIVE_LENGTH_MEASURE(1.0E-006),#274);
#177=CARTESIAN_POINT('',(-4.79999999999998,1.04430771947546E-014,2.08549184048536));
#178=CURVE_STYLE('',#275,POSITIVE_LENGTH_MEASURE(1.0E-006),#276);
#179=CIRCLE('',#277,4.80000000000001);
#180=POINT_STYLE(' ',#278,POSITIVE_LENGTH_MEASURE(1.0E-006),#279);
#181=CARTESIAN_POINT('',(-7.24999999999997,1.02296594220519E-014,3.49999999999997));
#182=CURVE_STYLE('',#280,POSITIVE_LENGTH_MEASURE(1.0E-006),#281);
#183=CIRCLE('',#282,7.25);
#184=POINT_STYLE(' ',#283,POSITIVE_LENGTH_MEASURE(1.0E-006),#284);
#185=CARTESIAN_POINT('',(4.80000000000004,1.25072701749081E-014,-2.8421709430404E-014));
#186=SURFACE_STYLE_USAGE(.BOTH.,#285);
#187=FACE_OUTER_BOUND('',#286,.T.);
#188=CYLINDRICAL_SURFACE('',#287,4.80000000000001);
#189=CURVE_STYLE('',#288,POSITIVE_LENGTH_MEASURE(1.0E-006),#289);
#190=CIRCLE('',#290,8.5);
#191=CURVE_STYLE('',#291,POSITIVE_LENGTH_MEASURE(1.0E-006),#292);
#192=CIRCLE('',#293,8.5);
#193=CURVE_STYLE('',#294,POSITIVE_LENGTH_MEASURE(1.0E-006),#295);
#194=LINE('',#296,#297);
#195=POINT_STYLE(' ',#298,POSITIVE_LENGTH_MEASURE(1.0E-006),#299);
#196=CARTESIAN_POINT('',(4.80000000000004,1.25072701749081E-014,2.08549184048536));
#197=SURFACE_STYLE_USAGE(.BOTH.,#300);
#198=FACE_BOUND('',#301,.T.);
#199=FACE_OUTER_BOUND('',#302,.T.);
#200=PLANE('',#303);
#201=SURFACE_STYLE_USAGE(.BOTH.,#304);
#202=FACE_OUTER_BOUND('',#305,.T.);
#203=CONICAL_SURFACE('',#306,6.02500000000001,1.04719755119659);
#204=SURFACE_STYLE_USAGE(.BOTH.,#307);
#205=FACE_OUTER_BOUND('',#308,.T.);
#206=FACE_BOUND('',#309,.T.);
#207=PLANE('',#310);
#208=SURFACE_STYLE_USAGE(.BOTH.,#311);
#209=FACE_OUTER_BOUND('',#312,.T.);
#210=CYLINDRICAL_SURFACE('',#313,8.5);
#211=CURVE_STYLE('',#314,POSITIVE_LENGTH_MEASURE(1.0E-006),#315);
#212=CIRCLE('',#316,4.80000000000001);
#213=CURVE_STYLE('',#317,POSITIVE_LENGTH_MEASURE(1.0E-006),#318);
#214=LINE('',#319,#320);
#215=POINT_STYLE(' ',#321,POSITIVE_LENGTH_MEASURE(1.0E-006),#322);
#216=CARTESIAN_POINT('',(8.50000000000003,1.3578552100208E-014,-2.8421709430404E-014));
#217=POINT_STYLE(' ',#323,POSITIVE_LENGTH_MEASURE(1.0E-006),#324);
#218=CARTESIAN_POINT('',(-8.49999999999997,1.00765836278241E-014,3.49999999999997));
#219=CURVE_STYLE('',#325,POSITIVE_LENGTH_MEASURE(1.0E-006),#326);
#220=CIRCLE('',#327,8.5);
#221=SURFACE_STYLE_USAGE(.BOTH.,#328);
#222=FACE_OUTER_BOUND('',#329,.T.);
#223=CYLINDRICAL_SURFACE('',#330,4.80000000000001);
#224=PRODUCT_CONTEXT('',#45,'mechanical');
#225=PRODUCT_DEFINITION_FORMATION_WITH_SPECIFIED_SOURCE(' ','NONE',#128,.NOT_KNOWN.);
#226=CARTESIAN_POINT('',(0.0,0.0,0.0));
#227=DIRECTION('',(0.0,0.0,1.0));
#228=DIRECTION('',(1.0,0.0,0.0));
#229= (NAMED_UNIT(#136)LENGTH_UNIT()SI_UNIT(.MILLI.,.METRE.));
#230=SURFACE_SIDE_STYLE('',(#332));
#231=EDGE_LOOP('',(#333,#334,#335,#336));
#232=AXIS2_PLACEMENT_3D('',#337,#338,#339);
#233=DRAUGHTING_PRE_DEFINED_CURVE_FONT('continuous');
#234=COLOUR_RGB('',0.509803950786591,0.509803950786591,0.588235318660736);
#235=AXIS2_PLACEMENT_3D('',#340,#341,#342);
#236=SURFACE_SIDE_STYLE('',(#343));
#237=DRAUGHTING_PRE_DEFINED_CURVE_FONT('continuous');
#238=COLOUR_RGB('',0.509803950786591,0.509803950786591,0.588235318660736);
#239=CARTESIAN_POINT('',(6.02500000000003,1.2861951352879E-014,2.79274592024267));
#240=VECTOR('',#344,1.0);
#241=PRE_DEFINED_MARKER('');
#242=COLOUR_RGB('',0.509803950786591,0.509803950786591,0.588235318660736);
#243=DRAUGHTING_PRE_DEFINED_CURVE_FONT('continuous');
#244=COLOUR_RGB('',0.509803950786591,0.509803950786591,0.588235318660736);
#245=AXIS2_PLACEMENT_3D('',#345,#346,#347);
#246=DRAUGHTING_PRE_DEFINED_CURVE_FONT('continuous');
#247=COLOUR_RGB('',0.509803950786591,0.509803950786591,0.588235318660736);
#248=AXIS2_PLACEMENT_3D('',#348,#349,#350);
#249=DRAUGHTING_PRE_DEFINED_CURVE_FONT('continuous');
#250=COLOUR_RGB('',0.509803950786591,0.509803950786591,0.588235318660736);
#251=CARTESIAN_POINT('',(-4.79999999999998,9.72772788223804E-015,1.04274592024267));
#252=VECTOR('',#351,1.0);
#253=DRAUGHTING_PRE_DEFINED_CURVE_FONT('continuous');
#254=COLOUR_RGB('',0.509803950786591,0.509803950786591,0.588235318660736);
#255=AXIS2_PLACEMENT_3D('',#352,#353,#354);
#256=DRAUGHTING_PRE_DEFINED_CURVE_FONT('continuous');
#257=COLOUR_RGB('',0.509803950786591,0.509803950786591,0.588235318660736);
#258=CARTESIAN_POINT('',(-8.49999999999997,8.65644595693812E-015,1.74999999999997));
#259=VECTOR('',#355,1.0);
#260=PRE_DEFINED_MARKER('');
#261=COLOUR_RGB('',0.509803950786591,0.509803950786591,0.588235318660736);
#262=PRE_DEFINED_MARKER('');
#263=COLOUR_RGB('',0.509803950786591,0.509803950786591,0.588235318660736);
#264=SURFACE_SIDE_STYLE('',(#356));
#265=EDGE_LOOP('',(#357,#358,#359,#360));
#266=AXIS2_PLACEMENT_3D('',#361,#362,#363);
#267=DRAUGHTING_PRE_DEFINED_CURVE_FONT('continuous');
#268=COLOUR_RGB('',0.509803950786591,0.509803950786591,0.588235318660736);
#269=CARTESIAN_POINT('',(-6.02499999999998,9.37304670426712E-015,2.79274592024267));
#270=VECTOR('',#364,1.0);
#271=PRE_DEFINED_MARKER('');
#272=COLOUR_RGB('',0.509803950786591,0.509803950786591,0.588235318660736);
#273=PRE_DEFINED_MARKER('');
#274=COLOUR_RGB('',0.509803950786591,0.509803950786591,0.588235318660736);
#275=DRAUGHTING_PRE_DEFINED_CURVE_FONT('continuous');
#276=COLOUR_RGB('',0.509803950786591,0.509803950786591,0.588235318660736);
#277=AXIS2_PLACEMENT_3D('',#365,#366,#367);
#278=PRE_DEFINED_MARKER('');
#279=COLOUR_RGB('',0.509803950786591,0.509803950786591,0.588235318660736);
#280=DRAUGHTING_PRE_DEFINED_CURVE_FONT('continuous');
#281=COLOUR_RGB('',0.509803950786591,0.509803950786591,0.588235318660736);
#282=AXIS2_PLACEMENT_3D('',#368,#369,#370);
#283=PRE_DEFINED_MARKER('');
#284=COLOUR_RGB('',0.509803950786591,0.509803950786591,0.588235318660736);
#285=SURFACE_SIDE_STYLE('',(#371));
#286=EDGE_LOOP('',(#372,#373,#374,#375));
#287=AXIS2_PLACEMENT_3D('',#376,#377,#378);
#288=DRAUGHTING_PRE_DEFINED_CURVE_FONT('continuous');
#289=COLOUR_RGB('',0.509803950786591,0.509803950786591,0.588235318660736);
#290=AXIS2_PLACEMENT_3D('',#379,#380,#381);
#291=DRAUGHTING_PRE_DEFINED_CURVE_FONT('continuous');
#292=COLOUR_RGB('',0.509803950786591,0.509803950786591,0.588235318660736);
#293=AXIS2_PLACEMENT_3D('',#382,#383,#384);
#294=DRAUGHTING_PRE_DEFINED_CURVE_FONT('continuous');
#295=COLOUR_RGB('',0.509803950786591,0.509803950786591,0.588235318660736);
#296=CARTESIAN_POINT('',(8.50000000000003,1.3578552100208E-014,1.74999999999997));
#297=VECTOR('',#385,1.0);
#298=PRE_DEFINED_MARKER('');
#299=COLOUR_RGB('',0.509803950786591,0.509803950786591,0.588235318660736);
#300=SURFACE_SIDE_STYLE('',(#386));
#301=EDGE_LOOP('',(#387,#388));
#302=EDGE_LOOP('',(#389,#390));
#303=AXIS2_PLACEMENT_3D('',#391,#392,#393);
#304=SURFACE_SIDE_STYLE('',(#394));
#305=EDGE_LOOP('',(#395,#396,#397,#398));
#306=AXIS2_PLACEMENT_3D('',#399,#400,#401);
#307=SURFACE_SIDE_STYLE('',(#402));
#308=EDGE_LOOP('',(#403,#404));
#309=EDGE_LOOP('',(#405,#406));
#310=AXIS2_PLACEMENT_3D('',#407,#408,#409);
#311=SURFACE_SIDE_STYLE('',(#410));
#312=EDGE_LOOP('',(#411,#412,#413,#414));
#313=AXIS2_PLACEMENT_3D('',#415,#416,#417);
#314=DRAUGHTING_PRE_DEFINED_CURVE_FONT('continuous');
#315=COLOUR_RGB('',0.509803950786591,0.509803950786591,0.588235318660736);
#316=AXIS2_PLACEMENT_3D('',#418,#419,#420);
#317=DRAUGHTING_PRE_DEFINED_CURVE_FONT('continuous');
#318=COLOUR_RGB('',0.509803950786591,0.509803950786591,0.588235318660736);
#319=CARTESIAN_POINT('',(4.80000000000004,1.25072701749081E-014,1.04274592024267));
#320=VECTOR('',#421,1.0);
#321=PRE_DEFINED_MARKER('');
#322=COLOUR_RGB('',0.509803950786591,0.509803950786591,0.588235318660736);
#323=PRE_DEFINED_MARKER('');
#324=COLOUR_RGB('',0.509803950786591,0.509803950786591,0.588235318660736);
#325=DRAUGHTING_PRE_DEFINED_CURVE_FONT('continuous');
#326=COLOUR_RGB('',0.509803950786591,0.509803950786591,0.588235318660736);
#327=AXIS2_PLACEMENT_3D('',#422,#423,#424);
#328=SURFACE_SIDE_STYLE('',(#425));
#329=EDGE_LOOP('',(#426,#427,#428,#429));
#330=AXIS2_PLACEMENT_3D('',#430,#431,#432);
#332=SURFACE_STYLE_FILL_AREA(#433);
#333=ORIENTED_EDGE('',*,*,#85,.T.);
#334=ORIENTED_EDGE('',*,*,#61,.T.);
#335=ORIENTED_EDGE('',*,*,#65,.T.);
#336=ORIENTED_EDGE('',*,*,#95,.F.);
#337=CARTESIAN_POINT('',(2.8421709430404E-014,1.11174990285731E-014,2.79274592024267));
#338=DIRECTION('',(0.0,-0.0,1.0));
#339=DIRECTION('',(-1.0,-1.67075020104228E-016,0.0));
#340=CARTESIAN_POINT('',(2.8421709430404E-014,1.11174990285731E-014,2.08549184048536));
#341=DIRECTION('',(-0.0,0.0,-1.0));
#342=DIRECTION('',(-1.0,-1.67075020104228E-016,0.0));
#343=SURFACE_STYLE_FILL_AREA(#434);
#344=DIRECTION('',(0.866025403784433,2.50745232952657E-016,0.500000000000009));
#345=CARTESIAN_POINT('',(2.8421709430404E-014,1.11174990285731E-014,-2.8421709430404E-014));
#346=DIRECTION('',(-0.0,0.0,-1.0));
#347=DIRECTION('',(-1.0,-1.67075020104228E-016,0.0));
#348=CARTESIAN_POINT('',(2.8421709430404E-014,1.11174990285731E-014,3.49999999999997));
#349=DIRECTION('',(-0.0,0.0,-1.0));
#350=DIRECTION('',(-1.0,-1.67075020104228E-016,0.0));
#351=DIRECTION('',(0.0,0.0,-1.0));
#352=CARTESIAN_POINT('',(2.8421709430404E-014,1.11174990285731E-014,3.49999999999997));
#353=DIRECTION('',(-0.0,0.0,-1.0));
#354=DIRECTION('',(-1.0,-1.67075020104228E-016,0.0));
#355=DIRECTION('',(0.0,0.0,-1.0));
#356=SURFACE_STYLE_FILL_AREA(#435);
#357=ORIENTED_EDGE('',*,*,#77,.F.);
#358=ORIENTED_EDGE('',*,*,#125,.T.);
#359=ORIENTED_EDGE('',*,*,#105,.F.);
#360=ORIENTED_EDGE('',*,*,#101,.F.);
#361=CARTESIAN_POINT('',(2.8421709430404E-014,1.11174990285731E-014,1.74999999999997));
#362=DIRECTION('',(0.0,-0.0,1.0));
#363=DIRECTION('',(-1.0,-1.67075020104228E-016,0.0));
#364=DIRECTION('',(0.866025403784433,2.50745232952657E-016,-0.500000000000009));
#365=CARTESIAN_POINT('',(2.8421709430404E-014,1.11174990285731E-014,-2.8421709430404E-014));
#366=DIRECTION('',(-0.0,0.0,-1.0));
#367=DIRECTION('',(-1.0,-1.67075020104228E-016,0.0));
#368=CARTESIAN_POINT('',(2.8421709430404E-014,1.11174990285731E-014,3.49999999999997));
#369=DIRECTION('',(-0.0,0.0,-1.0));
#370=DIRECTION('',(-1.0,-1.67075020104228E-016,0.0));
#371=SURFACE_STYLE_FILL_AREA(#436);
#372=ORIENTED_EDGE('',*,*,#73,.F.);
#373=ORIENTED_EDGE('',*,*,#117,.F.);
#374=ORIENTED_EDGE('',*,*,#119,.F.);
#375=ORIENTED_EDGE('',*,*,#91,.T.);
#376=CARTESIAN_POINT('',(2.8421709430404E-014,1.11174990285731E-014,1.04274592024267));
#377=DIRECTION('',(0.0,-0.0,1.0));
#378=DIRECTION('',(-1.0,-1.67075020104228E-016,0.0));
#379=CARTESIAN_POINT('',(2.8421709430404E-014,1.11174990285731E-014,-2.8421709430404E-014));
#380=DIRECTION('',(-0.0,0.0,-1.0));
#381=DIRECTION('',(-1.0,-1.67075020104228E-016,0.0));
#382=CARTESIAN_POINT('',(2.8421709430404E-014,1.11174990285731E-014,-2.8421709430404E-014));
#383=DIRECTION('',(-0.0,0.0,-1.0));
#384=DIRECTION('',(-1.0,-1.67075020104228E-016,0.0));
#385=DIRECTION('',(-0.0,-0.0,1.0));
#386=SURFACE_STYLE_FILL_AREA(#437);
#387=ORIENTED_EDGE('',*,*,#69,.F.);
#388=ORIENTED_EDGE('',*,*,#91,.F.);
#389=ORIENTED_EDGE('',*,*,#101,.T.);
#390=ORIENTED_EDGE('',*,*,#103,.T.);
#391=CARTESIAN_POINT('',(-6.64999999999998,1.00888296913623E-014,-2.8421709430404E-014));
#392=DIRECTION('',(0.0,0.0,-1.0));
#393=DIRECTION('',(1.0,1.22460635382238E-016,0.0));
#394=SURFACE_STYLE_FILL_AREA(#438);
#395=ORIENTED_EDGE('',*,*,#85,.F.);
#396=ORIENTED_EDGE('',*,*,#71,.F.);
#397=ORIENTED_EDGE('',*,*,#65,.F.);
#398=ORIENTED_EDGE('',*,*,#117,.T.);
#399=CARTESIAN_POINT('',(2.8421709430404E-014,1.11174990285731E-014,2.79274592024267));
#400=DIRECTION('',(0.0,-0.0,1.0));
#401=DIRECTION('',(-1.0,-1.67075020104228E-016,0.0));
#402=SURFACE_STYLE_FILL_AREA(#439);
#403=ORIENTED_EDGE('',*,*,#125,.F.);
#404=ORIENTED_EDGE('',*,*,#75,.F.);
#405=ORIENTED_EDGE('',*,*,#95,.T.);
#406=ORIENTED_EDGE('',*,*,#71,.T.);
#407=CARTESIAN_POINT('',(-7.87499999999997,1.0153121524938E-014,3.49999999999997));
#408=DIRECTION('',(0.0,0.0,1.0));
#409=DIRECTION('',(-1.0,-1.22460635382238E-016,0.0));
#410=SURFACE_STYLE_FILL_AREA(#440);
#411=ORIENTED_EDGE('',*,*,#77,.T.);
#412=ORIENTED_EDGE('',*,*,#103,.F.);
#413=ORIENTED_EDGE('',*,*,#105,.T.);
#414=ORIENTED_EDGE('',*,*,#75,.T.);
#415=CARTESIAN_POINT('',(2.8421709430404E-014,1.11174990285731E-014,1.74999999999997));
#416=DIRECTION('',(0.0,-0.0,1.0));
#417=DIRECTION('',(-1.0,-1.67075020104228E-016,0.0));
#418=CARTESIAN_POINT('',(2.8421709430404E-014,1.11174990285731E-014,2.08549184048536));
#419=DIRECTION('',(-0.0,0.0,-1.0));
#420=DIRECTION('',(-1.0,-1.67075020104228E-016,0.0));
#421=DIRECTION('',(0.0,0.0,1.0));
#422=CARTESIAN_POINT('',(2.8421709430404E-014,1.11174990285731E-014,3.49999999999997));
#423=DIRECTION('',(-0.0,0.0,-1.0));
#424=DIRECTION('',(-1.0,-1.67075020104228E-016,0.0));
#425=SURFACE_STYLE_FILL_AREA(#441);
#426=ORIENTED_EDGE('',*,*,#73,.T.);
#427=ORIENTED_EDGE('',*,*,#69,.T.);
#428=ORIENTED_EDGE('',*,*,#119,.T.);
#429=ORIENTED_EDGE('',*,*,#61,.F.);
#430=CARTESIAN_POINT('',(2.8421709430404E-014,1.11174990285731E-014,1.04274592024267));
#431=DIRECTION('',(0.0,-0.0,1.0));
#432=DIRECTION('',(-1.0,-1.67075020104228E-016,0.0));
#433=FILL_AREA_STYLE('',(#442));
#434=FILL_AREA_STYLE('',(#443));
#435=FILL_AREA_STYLE('',(#444));
#436=FILL_AREA_STYLE('',(#445));
#437=FILL_AREA_STYLE('',(#446));
#438=FILL_AREA_STYLE('',(#447));
#439=FILL_AREA_STYLE('',(#448));
#440=FILL_AREA_STYLE('',(#449));
#441=FILL_AREA_STYLE('',(#450));
#442=FILL_AREA_STYLE_COLOUR('',#451);
#443=FILL_AREA_STYLE_COLOUR('',#452);
#444=FILL_AREA_STYLE_COLOUR('',#453);
#445=FILL_AREA_STYLE_COLOUR('',#454);
#446=FILL_AREA_STYLE_COLOUR('',#455);
#447=FILL_AREA_STYLE_COLOUR('',#456);
#448=FILL_AREA_STYLE_COLOUR('',#457);
#449=FILL_AREA_STYLE_COLOUR('',#458);
#450=FILL_AREA_STYLE_COLOUR('',#459);
#451=COLOUR_RGB('',0.509803950786591,0.509803950786591,0.588235318660736);
#452=COLOUR_RGB('',0.509803950786591,0.509803950786591,0.588235318660736);
#453=COLOUR_RGB('',0.509803950786591,0.509803950786591,0.588235318660736);
#454=COLOUR_RGB('',0.509803950786591,0.509803950786591,0.588235318660736);
#455=COLOUR_RGB('',0.509803950786591,0.509803950786591,0.588235318660736);
#456=COLOUR_RGB('',0.509803950786591,0.509803950786591,0.588235318660736);
#457=COLOUR_RGB('',0.509803950786591,0.509803950786591,0.588235318660736);
#458=COLOUR_RGB('',0.509803950786591,0.509803950786591,0.588235318660736);
#459=COLOUR_RGB('',0.509803950786591,0.509803950786591,0.588235318660736);
ENDSEC;
END-ISO-10303-21;
