ISO-10303-21;
HEADER;
FILE_DESCRIPTION(('STEP AP214'),'1');
FILE_NAME(' ','  ',('TraceParts'),('TraceParts S.A.'),'XStep 1.0',' ',' ');
FILE_SCHEMA(('automotive_design'));
ENDSEC;
DATA;
#1=MECHANICAL_DESIGN_GEOMETRIC_PRESENTATION_REPRESENTATION(' ',(#10,#11,#12,#13,#14,#15,#16,#17,#18,#19,#20,#21,#22,#23,#24,#25,#26,#27,#28,#29,#30,#31,#32,#33,#34,#35,#36,#37,#38,#39,#40,#41,#42,#43,#44),#6);
#2=PRODUCT_DEFINITION_CONTEXT('',#45,'design');
#3=APPLICATION_PROTOCOL_DEFINITION('INTERNATIONAL STANDARD','automotive_design',1994,#45);
#4=PRODUCT_CATEGORY_RELATIONSHIP('NONE','NONE',#46,#47);
#5=SHAPE_DEFINITION_REPRESENTATION(#48,#49);
#6= (GEOMETRIC_REPRESENTATION_CONTEXT(3)GLOBAL_UNCERTAINTY_ASSIGNED_CONTEXT((#52))GLOBAL_UNIT_ASSIGNED_CONTEXT((#54,#55,#56))REPRESENTATION_CONTEXT('NONE','WORKSPACE'));
#10=STYLED_ITEM('',(#58),#59);
#11=STYLED_ITEM('',(#60),#61);
#12=STYLED_ITEM('',(#62),#63);
#13=STYLED_ITEM('',(#64),#65);
#14=STYLED_ITEM('',(#66),#67);
#15=STYLED_ITEM('',(#68),#69);
#16=STYLED_ITEM('',(#70),#71);
#17=STYLED_ITEM('',(#72),#73);
#18=STYLED_ITEM('',(#74),#75);
#19=STYLED_ITEM('',(#76),#77);
#20=STYLED_ITEM('',(#78),#79);
#21=STYLED_ITEM('',(#80),#81);
#22=STYLED_ITEM('',(#82),#83);
#23=STYLED_ITEM('',(#84),#85);
#24=STYLED_ITEM('',(#86),#87);
#25=STYLED_ITEM('',(#88),#89);
#26=STYLED_ITEM('',(#90),#91);
#27=STYLED_ITEM('',(#92),#93);
#28=STYLED_ITEM('',(#94),#95);
#29=STYLED_ITEM('',(#96),#97);
#30=STYLED_ITEM('',(#98),#99);
#31=STYLED_ITEM('',(#100),#101);
#32=STYLED_ITEM('',(#102),#103);
#33=STYLED_ITEM('',(#104),#105);
#34=STYLED_ITEM('',(#106),#107);
#35=STYLED_ITEM('',(#108),#109);
#36=STYLED_ITEM('',(#110),#111);
#37=STYLED_ITEM('',(#112),#113);
#38=STYLED_ITEM('',(#114),#115);
#39=STYLED_ITEM('',(#116),#117);
#40=STYLED_ITEM('',(#118),#119);
#41=STYLED_ITEM('',(#120),#121);
#42=STYLED_ITEM('',(#122),#123);
#43=STYLED_ITEM('',(#124),#125);
#44=STYLED_ITEM('',(#126),#127);
#45=APPLICATION_CONTEXT(' ');
#46=PRODUCT_CATEGORY('part','NONE');
#47=PRODUCT_RELATED_PRODUCT_CATEGORY('detail',' ',(#128));
#48=PRODUCT_DEFINITION_SHAPE('NONE','NONE',#129);
#49=ADVANCED_BREP_SHAPE_REPRESENTATION('1',(#91,#130),#6);
#52=UNCERTAINTY_MEASURE_WITH_UNIT(LENGTH_MEASURE(1.0E-006),#54,'','');
#54= (CONVERSION_BASED_UNIT('MILLIMETRE',#133)LENGTH_UNIT()NAMED_UNIT(#136));
#55= (NAMED_UNIT(#138)PLANE_ANGLE_UNIT()SI_UNIT($,.RADIAN.));
#56= (NAMED_UNIT(#138)SOLID_ANGLE_UNIT()SI_UNIT($,.STERADIAN.));
#58=PRESENTATION_STYLE_ASSIGNMENT((#144));
#59=VERTEX_POINT('',#145);
#60=PRESENTATION_STYLE_ASSIGNMENT((#146));
#61=ADVANCED_FACE('',(#147),#148,.T.);
#62=PRESENTATION_STYLE_ASSIGNMENT((#149));
#63=EDGE_CURVE('',#111,#79,#150,.T.);
#64=PRESENTATION_STYLE_ASSIGNMENT((#151));
#65=VERTEX_POINT('',#152);
#66=PRESENTATION_STYLE_ASSIGNMENT((#153));
#67=EDGE_CURVE('',#99,#65,#154,.T.);
#68=PRESENTATION_STYLE_ASSIGNMENT((#155));
#69=EDGE_CURVE('',#113,#59,#156,.T.);
#70=PRESENTATION_STYLE_ASSIGNMENT((#157));
#71=ADVANCED_FACE('',(#158),#159,.F.);
#72=PRESENTATION_STYLE_ASSIGNMENT((#160));
#73=EDGE_CURVE('',#79,#105,#161,.T.);
#74=PRESENTATION_STYLE_ASSIGNMENT((#162));
#75=VERTEX_POINT('',#163);
#76=PRESENTATION_STYLE_ASSIGNMENT((#164));
#77=ADVANCED_FACE('',(#165),#166,.F.);
#78=PRESENTATION_STYLE_ASSIGNMENT((#167));
#79=VERTEX_POINT('',#168);
#80=PRESENTATION_STYLE_ASSIGNMENT((#169));
#81=ADVANCED_FACE('',(#170,#171),#172,.T.);
#82=PRESENTATION_STYLE_ASSIGNMENT((#173));
#83=EDGE_CURVE('',#75,#99,#174,.T.);
#84=PRESENTATION_STYLE_ASSIGNMENT((#175));
#85=EDGE_CURVE('',#125,#75,#176,.T.);
#86=PRESENTATION_STYLE_ASSIGNMENT((#177));
#87=ADVANCED_FACE('',(#178),#179,.F.);
#88=PRESENTATION_STYLE_ASSIGNMENT((#180));
#89=EDGE_CURVE('',#65,#99,#181,.T.);
#90=PRESENTATION_STYLE_ASSIGNMENT((#182));
#91=MANIFOLD_SOLID_BREP('1',#183);
#92=PRESENTATION_STYLE_ASSIGNMENT((#184));
#93=EDGE_CURVE('',#119,#111,#185,.T.);
#94=PRESENTATION_STYLE_ASSIGNMENT((#186));
#95=EDGE_CURVE('',#111,#119,#187,.T.);
#96=PRESENTATION_STYLE_ASSIGNMENT((#188));
#97=EDGE_CURVE('',#113,#105,#189,.T.);
#98=PRESENTATION_STYLE_ASSIGNMENT((#190));
#99=VERTEX_POINT('',#191);
#100=PRESENTATION_STYLE_ASSIGNMENT((#192));
#101=EDGE_CURVE('',#59,#113,#193,.T.);
#102=PRESENTATION_STYLE_ASSIGNMENT((#194));
#103=EDGE_CURVE('',#105,#79,#195,.T.);
#104=PRESENTATION_STYLE_ASSIGNMENT((#196));
#105=VERTEX_POINT('',#197);
#106=PRESENTATION_STYLE_ASSIGNMENT((#198));
#107=EDGE_CURVE('',#75,#125,#199,.T.);
#108=PRESENTATION_STYLE_ASSIGNMENT((#200));
#109=EDGE_CURVE('',#105,#119,#201,.T.);
#110=PRESENTATION_STYLE_ASSIGNMENT((#202));
#111=VERTEX_POINT('',#203);
#112=PRESENTATION_STYLE_ASSIGNMENT((#204));
#113=VERTEX_POINT('',#205);
#114=PRESENTATION_STYLE_ASSIGNMENT((#206));
#115=EDGE_CURVE('',#79,#59,#207,.T.);
#116=PRESENTATION_STYLE_ASSIGNMENT((#208));
#117=ADVANCED_FACE('',(#209),#210,.F.);
#118=PRESENTATION_STYLE_ASSIGNMENT((#211));
#119=VERTEX_POINT('',#212);
#120=PRESENTATION_STYLE_ASSIGNMENT((#213));
#121=EDGE_CURVE('',#65,#125,#214,.T.);
#122=PRESENTATION_STYLE_ASSIGNMENT((#215));
#123=ADVANCED_FACE('',(#216,#217),#218,.T.);
#124=PRESENTATION_STYLE_ASSIGNMENT((#219));
#125=VERTEX_POINT('',#220);
#126=PRESENTATION_STYLE_ASSIGNMENT((#221));
#127=ADVANCED_FACE('',(#222),#223,.T.);
#128=PRODUCT('1','1','PART-1-DESC',(#224));
#129=PRODUCT_DEFINITION('NONE','NONE',#225,#2);
#130=AXIS2_PLACEMENT_3D('',#226,#227,#228);
#133=LENGTH_MEASURE_WITH_UNIT(LENGTH_MEASURE(1.0),#229);
#136=DIMENSIONAL_EXPONENTS(1.0,0.0,0.0,0.0,0.0,0.0,0.0);
#138=DIMENSIONAL_EXPONENTS(0.0,0.0,0.0,0.0,0.0,0.0,0.0);
#144=POINT_STYLE(' ',#230,POSITIVE_LENGTH_MEASURE(1.0E-006),#231);
#145=CARTESIAN_POINT('',(5.5,1.25095603709376E-014,2.79999999999998));
#146=SURFACE_STYLE_USAGE(.BOTH.,#232);
#147=FACE_OUTER_BOUND('',#233,.T.);
#148=CYLINDRICAL_SURFACE('',#234,5.99999999999997);
#149=CURVE_STYLE('',#235,POSITIVE_LENGTH_MEASURE(1.0E-006),#236);
#150=LINE('',#237,#238);
#151=POINT_STYLE(' ',#239,POSITIVE_LENGTH_MEASURE(1.0E-006),#240);
#152=CARTESIAN_POINT('',(6.0,1.26561504151242E-014,-2.8421709430404E-014));
#153=CURVE_STYLE('',#241,POSITIVE_LENGTH_MEASURE(1.0E-006),#242);
#154=CIRCLE('',#243,5.99999999999997);
#155=CURVE_STYLE('',#244,POSITIVE_LENGTH_MEASURE(1.0E-006),#245);
#156=CIRCLE('',#246,5.49999999999997);
#157=SURFACE_STYLE_USAGE(.BOTH.,#247);
#158=FACE_OUTER_BOUND('',#248,.T.);
#159=CYLINDRICAL_SURFACE('',#249,3.54999999999998);
#160=CURVE_STYLE('',#250,POSITIVE_LENGTH_MEASURE(1.0E-006),#251);
#161=CIRCLE('',#252,3.54999999999998);
#162=POINT_STYLE(' ',#253,POSITIVE_LENGTH_MEASURE(1.0E-006),#254);
#163=CARTESIAN_POINT('',(-5.99999999999994,1.01623060725916E-014,2.79999999999998));
#164=SURFACE_STYLE_USAGE(.BOTH.,#255);
#165=FACE_OUTER_BOUND('',#256,.T.);
#166=CYLINDRICAL_SURFACE('',#257,3.54999999999998);
#167=POINT_STYLE(' ',#258,POSITIVE_LENGTH_MEASURE(1.0E-006),#259);
#168=CARTESIAN_POINT('',(3.55000000000001,1.19378591986099E-014,1.6741669750802));
#169=SURFACE_STYLE_USAGE(.BOTH.,#260);
#170=FACE_OUTER_BOUND('',#261,.T.);
#171=FACE_BOUND('',#262,.T.);
#172=PLANE('',#263);
#173=CURVE_STYLE('',#264,POSITIVE_LENGTH_MEASURE(1.0E-006),#265);
#174=LINE('',#266,#267);
#175=CURVE_STYLE('',#268,POSITIVE_LENGTH_MEASURE(1.0E-006),#269);
#176=CIRCLE('',#270,5.99999999999997);
#177=SURFACE_STYLE_USAGE(.BOTH.,#271);
#178=FACE_OUTER_BOUND('',#272,.T.);
#179=CONICAL_SURFACE('',#273,4.52499999999998,1.04719755119659);
#180=CURVE_STYLE('',#274,POSITIVE_LENGTH_MEASURE(1.0E-006),#275);
#181=CIRCLE('',#276,5.99999999999997);
#182=SURFACE_STYLE_USAGE(.BOTH.,#277);
#183=CLOSED_SHELL('',(#77,#61,#117,#87,#81,#127,#123,#71));
#184=CURVE_STYLE('',#278,POSITIVE_LENGTH_MEASURE(1.0E-006),#279);
#185=CIRCLE('',#280,3.54999999999998);
#186=CURVE_STYLE('',#281,POSITIVE_LENGTH_MEASURE(1.0E-006),#282);
#187=CIRCLE('',#283,3.54999999999998);
#188=CURVE_STYLE('',#284,POSITIVE_LENGTH_MEASURE(1.0E-006),#285);
#189=LINE('',#286,#287);
#190=POINT_STYLE(' ',#288,POSITIVE_LENGTH_MEASURE(1.0E-006),#289);
#191=CARTESIAN_POINT('',(-5.99999999999994,9.99086118305649E-015,-2.8421709430404E-014));
#192=CURVE_STYLE('',#290,POSITIVE_LENGTH_MEASURE(1.0E-006),#291);
#193=CIRCLE('',#292,5.49999999999997);
#194=CURVE_STYLE('',#293,POSITIVE_LENGTH_MEASURE(1.0E-006),#294);
#195=CIRCLE('',#295,3.54999999999998);
#196=POINT_STYLE(' ',#296,POSITIVE_LENGTH_MEASURE(1.0E-006),#297);
#197=CARTESIAN_POINT('',(-3.54999999999995,1.03933995154951E-014,1.6741669750802));
#198=CURVE_STYLE('',#298,POSITIVE_LENGTH_MEASURE(1.0E-006),#299);
#199=CIRCLE('',#300,5.99999999999997);
#200=CURVE_STYLE('',#301,POSITIVE_LENGTH_MEASURE(1.0E-006),#302);
#201=LINE('',#303,#304);
#202=POINT_STYLE(' ',#305,POSITIVE_LENGTH_MEASURE(1.0E-006),#306);
#203=CARTESIAN_POINT('',(3.55000000000001,1.19378591986099E-014,-2.8421709430404E-014));
#204=POINT_STYLE(' ',#307,POSITIVE_LENGTH_MEASURE(1.0E-006),#308);
#205=CARTESIAN_POINT('',(-5.49999999999994,1.02235363902827E-014,2.79999999999998));
#206=CURVE_STYLE('',#309,POSITIVE_LENGTH_MEASURE(1.0E-006),#310);
#207=LINE('',#311,#312);
#208=SURFACE_STYLE_USAGE(.BOTH.,#313);
#209=FACE_OUTER_BOUND('',#314,.T.);
#210=CONICAL_SURFACE('',#315,4.52499999999998,1.04719755119659);
#211=POINT_STYLE(' ',#316,POSITIVE_LENGTH_MEASURE(1.0E-006),#317);
#212=CARTESIAN_POINT('',(-3.54999999999995,1.0290889739743E-014,-2.8421709430404E-014));
#213=CURVE_STYLE('',#318,POSITIVE_LENGTH_MEASURE(1.0E-006),#319);
#214=LINE('',#320,#321);
#215=SURFACE_STYLE_USAGE(.BOTH.,#322);
#216=FACE_BOUND('',#323,.T.);
#217=FACE_OUTER_BOUND('',#324,.T.);
#218=PLANE('',#325);
#219=POINT_STYLE(' ',#326,POSITIVE_LENGTH_MEASURE(1.0E-006),#327);
#220=CARTESIAN_POINT('',(6.0,1.26561504151242E-014,2.79999999999998));
#221=SURFACE_STYLE_USAGE(.BOTH.,#328);
#222=FACE_OUTER_BOUND('',#329,.T.);
#223=CYLINDRICAL_SURFACE('',#330,5.99999999999997);
#224=PRODUCT_CONTEXT('',#45,'mechanical');
#225=PRODUCT_DEFINITION_FORMATION_WITH_SPECIFIED_SOURCE(' ','NONE',#128,.NOT_KNOWN.);
#226=CARTESIAN_POINT('',(0.0,0.0,0.0));
#227=DIRECTION('',(0.0,0.0,1.0));
#228=DIRECTION('',(1.0,0.0,0.0));
#229= (NAMED_UNIT(#136)LENGTH_UNIT()SI_UNIT(.MILLI.,.METRE.));
#230=PRE_DEFINED_MARKER('');
#231=COLOUR_RGB('',0.509803950786591,0.509803950786591,0.588235318660736);
#232=SURFACE_SIDE_STYLE('',(#332));
#233=EDGE_LOOP('',(#333,#334,#335,#336));
#234=AXIS2_PLACEMENT_3D('',#337,#338,#339);
#235=DRAUGHTING_PRE_DEFINED_CURVE_FONT('continuous');
#236=COLOUR_RGB('',0.509803950786591,0.509803950786591,0.588235318660736);
#237=CARTESIAN_POINT('',(3.55000000000001,1.19378591986099E-014,0.837083487540085));
#238=VECTOR('',#340,1.0);
#239=PRE_DEFINED_MARKER('');
#240=COLOUR_RGB('',0.509803950786591,0.509803950786591,0.588235318660736);
#241=DRAUGHTING_PRE_DEFINED_CURVE_FONT('continuous');
#242=COLOUR_RGB('',0.509803950786591,0.509803950786591,0.588235318660736);
#243=AXIS2_PLACEMENT_3D('',#341,#342,#343);
#244=DRAUGHTING_PRE_DEFINED_CURVE_FONT('continuous');
#245=COLOUR_RGB('',0.509803950786591,0.509803950786591,0.588235318660736);
#246=AXIS2_PLACEMENT_3D('',#344,#345,#346);
#247=SURFACE_SIDE_STYLE('',(#347));
#248=EDGE_LOOP('',(#348,#349,#350,#351));
#249=AXIS2_PLACEMENT_3D('',#352,#353,#354);
#250=DRAUGHTING_PRE_DEFINED_CURVE_FONT('continuous');
#251=COLOUR_RGB('',0.509803950786591,0.509803950786591,0.588235318660736);
#252=AXIS2_PLACEMENT_3D('',#355,#356,#357);
#253=PRE_DEFINED_MARKER('');
#254=COLOUR_RGB('',0.509803950786591,0.509803950786591,0.588235318660736);
#255=SURFACE_SIDE_STYLE('',(#358));
#256=EDGE_LOOP('',(#359,#360,#361,#362));
#257=AXIS2_PLACEMENT_3D('',#363,#364,#365);
#258=PRE_DEFINED_MARKER('');
#259=COLOUR_RGB('',0.509803950786591,0.509803950786591,0.588235318660736);
#260=SURFACE_SIDE_STYLE('',(#366));
#261=EDGE_LOOP('',(#367,#368));
#262=EDGE_LOOP('',(#369,#370));
#263=AXIS2_PLACEMENT_3D('',#371,#372,#373);
#264=DRAUGHTING_PRE_DEFINED_CURVE_FONT('continuous');
#265=COLOUR_RGB('',0.509803950786591,0.509803950786591,0.588235318660736);
#266=CARTESIAN_POINT('',(-5.99999999999994,9.13798935464588E-015,1.39999999999998));
#267=VECTOR('',#374,1.0);
#268=DRAUGHTING_PRE_DEFINED_CURVE_FONT('continuous');
#269=COLOUR_RGB('',0.509803950786591,0.509803950786591,0.588235318660736);
#270=AXIS2_PLACEMENT_3D('',#375,#376,#377);
#271=SURFACE_SIDE_STYLE('',(#378));
#272=EDGE_LOOP('',(#379,#380,#381,#382));
#273=AXIS2_PLACEMENT_3D('',#383,#384,#385);
#274=DRAUGHTING_PRE_DEFINED_CURVE_FONT('continuous');
#275=COLOUR_RGB('',0.509803950786591,0.509803950786591,0.588235318660736);
#276=AXIS2_PLACEMENT_3D('',#386,#387,#388);
#277=SURFACE_SIDE_STYLE('',(#389));
#278=DRAUGHTING_PRE_DEFINED_CURVE_FONT('continuous');
#279=COLOUR_RGB('',0.509803950786591,0.509803950786591,0.588235318660736);
#280=AXIS2_PLACEMENT_3D('',#390,#391,#392);
#281=DRAUGHTING_PRE_DEFINED_CURVE_FONT('continuous');
#282=COLOUR_RGB('',0.509803950786591,0.509803950786591,0.588235318660736);
#283=AXIS2_PLACEMENT_3D('',#393,#394,#395);
#284=DRAUGHTING_PRE_DEFINED_CURVE_FONT('continuous');
#285=COLOUR_RGB('',0.509803950786591,0.509803950786591,0.588235318660736);
#286=CARTESIAN_POINT('',(-4.52499999999995,9.57042998499634E-015,2.23708348754009));
#287=VECTOR('',#396,1.0);
#288=PRE_DEFINED_MARKER('');
#289=COLOUR_RGB('',0.509803950786591,0.509803950786591,0.588235318660736);
#290=DRAUGHTING_PRE_DEFINED_CURVE_FONT('continuous');
#291=COLOUR_RGB('',0.509803950786591,0.509803950786591,0.588235318660736);
#292=AXIS2_PLACEMENT_3D('',#397,#398,#399);
#293=DRAUGHTING_PRE_DEFINED_CURVE_FONT('continuous');
#294=COLOUR_RGB('',0.509803950786591,0.509803950786591,0.588235318660736);
#295=AXIS2_PLACEMENT_3D('',#400,#401,#402);
#296=PRE_DEFINED_MARKER('');
#297=COLOUR_RGB('',0.509803950786591,0.509803950786591,0.588235318660736);
#298=DRAUGHTING_PRE_DEFINED_CURVE_FONT('continuous');
#299=COLOUR_RGB('',0.509803950786591,0.509803950786591,0.588235318660736);
#300=AXIS2_PLACEMENT_3D('',#403,#404,#405);
#301=DRAUGHTING_PRE_DEFINED_CURVE_FONT('continuous');
#302=COLOUR_RGB('',0.509803950786591,0.509803950786591,0.588235318660736);
#303=CARTESIAN_POINT('',(-3.54999999999995,9.8562805711602E-015,0.837083487540085));
#304=VECTOR('',#406,1.0);
#305=PRE_DEFINED_MARKER('');
#306=COLOUR_RGB('',0.509803950786591,0.509803950786591,0.588235318660736);
#307=PRE_DEFINED_MARKER('');
#308=COLOUR_RGB('',0.509803950786591,0.509803950786591,0.588235318660736);
#309=DRAUGHTING_PRE_DEFINED_CURVE_FONT('continuous');
#310=COLOUR_RGB('',0.509803950786591,0.509803950786591,0.588235318660736);
#311=CARTESIAN_POINT('',(4.52500000000001,1.22237097847738E-014,2.23708348754009));
#312=VECTOR('',#407,1.0);
#313=SURFACE_SIDE_STYLE('',(#408));
#314=EDGE_LOOP('',(#409,#410,#411,#412));
#315=AXIS2_PLACEMENT_3D('',#413,#414,#415);
#316=PRE_DEFINED_MARKER('');
#317=COLOUR_RGB('',0.509803950786591,0.509803950786591,0.588235318660736);
#318=DRAUGHTING_PRE_DEFINED_CURVE_FONT('continuous');
#319=COLOUR_RGB('',0.509803950786591,0.509803950786591,0.588235318660736);
#320=CARTESIAN_POINT('',(6.0,1.26561504151242E-014,1.39999999999998));
#321=VECTOR('',#416,1.0);
#322=SURFACE_SIDE_STYLE('',(#417));
#323=EDGE_LOOP('',(#418,#419));
#324=EDGE_LOOP('',(#420,#421));
#325=AXIS2_PLACEMENT_3D('',#422,#423,#424);
#326=PRE_DEFINED_MARKER('');
#327=COLOUR_RGB('',0.509803950786591,0.509803950786591,0.588235318660736);
#328=SURFACE_SIDE_STYLE('',(#425));
#329=EDGE_LOOP('',(#426,#427,#428,#429));
#330=AXIS2_PLACEMENT_3D('',#430,#431,#432);
#332=SURFACE_STYLE_FILL_AREA(#433);
#333=ORIENTED_EDGE('',*,*,#83,.F.);
#334=ORIENTED_EDGE('',*,*,#107,.T.);
#335=ORIENTED_EDGE('',*,*,#121,.F.);
#336=ORIENTED_EDGE('',*,*,#67,.F.);
#337=CARTESIAN_POINT('',(2.8421709430404E-014,1.0897069884885E-014,1.39999999999998));
#338=DIRECTION('',(0.0,-0.0,1.0));
#339=DIRECTION('',(-1.0,-1.70719452990959E-016,0.0));
#340=DIRECTION('',(0.0,0.0,1.0));
#341=CARTESIAN_POINT('',(2.8421709430404E-014,1.0897069884885E-014,-2.8421709430404E-014));
#342=DIRECTION('',(-0.0,0.0,-1.0));
#343=DIRECTION('',(-1.0,-1.70719452990959E-016,0.0));
#344=CARTESIAN_POINT('',(2.8421709430404E-014,1.0897069884885E-014,2.79999999999998));
#345=DIRECTION('',(-0.0,0.0,-1.0));
#346=DIRECTION('',(-1.0,-1.70719452990959E-016,0.0));
#347=SURFACE_STYLE_FILL_AREA(#434);
#348=ORIENTED_EDGE('',*,*,#109,.T.);
#349=ORIENTED_EDGE('',*,*,#93,.T.);
#350=ORIENTED_EDGE('',*,*,#63,.T.);
#351=ORIENTED_EDGE('',*,*,#103,.F.);
#352=CARTESIAN_POINT('',(2.8421709430404E-014,1.0897069884885E-014,0.837083487540085));
#353=DIRECTION('',(0.0,-0.0,1.0));
#354=DIRECTION('',(-1.0,-1.70719452990959E-016,0.0));
#355=CARTESIAN_POINT('',(2.8421709430404E-014,1.0897069884885E-014,1.6741669750802));
#356=DIRECTION('',(-0.0,0.0,-1.0));
#357=DIRECTION('',(-1.0,-1.70719452990959E-016,0.0));
#358=SURFACE_STYLE_FILL_AREA(#435);
#359=ORIENTED_EDGE('',*,*,#109,.F.);
#360=ORIENTED_EDGE('',*,*,#73,.F.);
#361=ORIENTED_EDGE('',*,*,#63,.F.);
#362=ORIENTED_EDGE('',*,*,#95,.T.);
#363=CARTESIAN_POINT('',(2.8421709430404E-014,1.0897069884885E-014,0.837083487540085));
#364=DIRECTION('',(0.0,-0.0,1.0));
#365=DIRECTION('',(-1.0,-1.70719452990959E-016,0.0));
#366=SURFACE_STYLE_FILL_AREA(#436);
#367=ORIENTED_EDGE('',*,*,#107,.F.);
#368=ORIENTED_EDGE('',*,*,#85,.F.);
#369=ORIENTED_EDGE('',*,*,#69,.T.);
#370=ORIENTED_EDGE('',*,*,#101,.T.);
#371=CARTESIAN_POINT('',(-5.74999999999994,1.01929212314372E-014,2.79999999999998));
#372=DIRECTION('',(0.0,0.0,1.0));
#373=DIRECTION('',(-1.0,-1.22460635382238E-016,0.0));
#374=DIRECTION('',(0.0,0.0,-1.0));
#375=CARTESIAN_POINT('',(2.8421709430404E-014,1.0897069884885E-014,2.79999999999998));
#376=DIRECTION('',(-0.0,0.0,-1.0));
#377=DIRECTION('',(-1.0,-1.70719452990959E-016,0.0));
#378=SURFACE_STYLE_FILL_AREA(#437);
#379=ORIENTED_EDGE('',*,*,#97,.T.);
#380=ORIENTED_EDGE('',*,*,#103,.T.);
#381=ORIENTED_EDGE('',*,*,#115,.T.);
#382=ORIENTED_EDGE('',*,*,#69,.F.);
#383=CARTESIAN_POINT('',(2.8421709430404E-014,1.0897069884885E-014,2.23708348754009));
#384=DIRECTION('',(0.0,-0.0,1.0));
#385=DIRECTION('',(-1.0,-1.70719452990959E-016,0.0));
#386=CARTESIAN_POINT('',(2.8421709430404E-014,1.0897069884885E-014,-2.8421709430404E-014));
#387=DIRECTION('',(-0.0,0.0,-1.0));
#388=DIRECTION('',(-1.0,-1.70719452990959E-016,0.0));
#389=SURFACE_STYLE_FILL_AREA(#438);
#390=CARTESIAN_POINT('',(2.8421709430404E-014,1.0897069884885E-014,-2.8421709430404E-014));
#391=DIRECTION('',(-0.0,0.0,-1.0));
#392=DIRECTION('',(-1.0,-1.70719452990959E-016,0.0));
#393=CARTESIAN_POINT('',(2.8421709430404E-014,1.0897069884885E-014,-2.8421709430404E-014));
#394=DIRECTION('',(-0.0,0.0,-1.0));
#395=DIRECTION('',(-1.0,-1.70719452990959E-016,0.0));
#396=DIRECTION('',(0.866025403784434,2.53901404414954E-016,-0.500000000000007));
#397=CARTESIAN_POINT('',(2.8421709430404E-014,1.0897069884885E-014,2.79999999999998));
#398=DIRECTION('',(-0.0,0.0,-1.0));
#399=DIRECTION('',(-1.0,-1.70719452990959E-016,0.0));
#400=CARTESIAN_POINT('',(2.8421709430404E-014,1.0897069884885E-014,1.6741669750802));
#401=DIRECTION('',(-0.0,0.0,-1.0));
#402=DIRECTION('',(-1.0,-1.70719452990959E-016,0.0));
#403=CARTESIAN_POINT('',(2.8421709430404E-014,1.0897069884885E-014,2.79999999999998));
#404=DIRECTION('',(-0.0,0.0,-1.0));
#405=DIRECTION('',(-1.0,-1.70719452990959E-016,0.0));
#406=DIRECTION('',(0.0,0.0,-1.0));
#407=DIRECTION('',(0.866025403784434,2.53901404414954E-016,0.500000000000007));
#408=SURFACE_STYLE_FILL_AREA(#439);
#409=ORIENTED_EDGE('',*,*,#97,.F.);
#410=ORIENTED_EDGE('',*,*,#101,.F.);
#411=ORIENTED_EDGE('',*,*,#115,.F.);
#412=ORIENTED_EDGE('',*,*,#73,.T.);
#413=CARTESIAN_POINT('',(2.8421709430404E-014,1.0897069884885E-014,2.23708348754009));
#414=DIRECTION('',(0.0,-0.0,1.0));
#415=DIRECTION('',(-1.0,-1.70719452990959E-016,0.0));
#416=DIRECTION('',(-0.0,-0.0,1.0));
#417=SURFACE_STYLE_FILL_AREA(#440);
#418=ORIENTED_EDGE('',*,*,#93,.F.);
#419=ORIENTED_EDGE('',*,*,#95,.F.);
#420=ORIENTED_EDGE('',*,*,#67,.T.);
#421=ORIENTED_EDGE('',*,*,#89,.T.);
#422=CARTESIAN_POINT('',(-4.77499999999995,1.01408754613997E-014,-2.8421709430404E-014));
#423=DIRECTION('',(0.0,0.0,-1.0));
#424=DIRECTION('',(1.0,1.22460635382238E-016,0.0));
#425=SURFACE_STYLE_FILL_AREA(#441);
#426=ORIENTED_EDGE('',*,*,#83,.T.);
#427=ORIENTED_EDGE('',*,*,#89,.F.);
#428=ORIENTED_EDGE('',*,*,#121,.T.);
#429=ORIENTED_EDGE('',*,*,#85,.T.);
#430=CARTESIAN_POINT('',(2.8421709430404E-014,1.0897069884885E-014,1.39999999999998));
#431=DIRECTION('',(0.0,-0.0,1.0));
#432=DIRECTION('',(-1.0,-1.70719452990959E-016,0.0));
#433=FILL_AREA_STYLE('',(#442));
#434=FILL_AREA_STYLE('',(#443));
#435=FILL_AREA_STYLE('',(#444));
#436=FILL_AREA_STYLE('',(#445));
#437=FILL_AREA_STYLE('',(#446));
#438=FILL_AREA_STYLE('',(#447));
#439=FILL_AREA_STYLE('',(#448));
#440=FILL_AREA_STYLE('',(#449));
#441=FILL_AREA_STYLE('',(#450));
#442=FILL_AREA_STYLE_COLOUR('',#451);
#443=FILL_AREA_STYLE_COLOUR('',#452);
#444=FILL_AREA_STYLE_COLOUR('',#453);
#445=FILL_AREA_STYLE_COLOUR('',#454);
#446=FILL_AREA_STYLE_COLOUR('',#455);
#447=FILL_AREA_STYLE_COLOUR('',#456);
#448=FILL_AREA_STYLE_COLOUR('',#457);
#449=FILL_AREA_STYLE_COLOUR('',#458);
#450=FILL_AREA_STYLE_COLOUR('',#459);
#451=COLOUR_RGB('',0.509803950786591,0.509803950786591,0.588235318660736);
#452=COLOUR_RGB('',0.509803950786591,0.509803950786591,0.588235318660736);
#453=COLOUR_RGB('',0.509803950786591,0.509803950786591,0.588235318660736);
#454=COLOUR_RGB('',0.509803950786591,0.509803950786591,0.588235318660736);
#455=COLOUR_RGB('',0.509803950786591,0.509803950786591,0.588235318660736);
#456=COLOUR_RGB('',0.509803950786591,0.509803950786591,0.588235318660736);
#457=COLOUR_RGB('',0.509803950786591,0.509803950786591,0.588235318660736);
#458=COLOUR_RGB('',0.509803950786591,0.509803950786591,0.588235318660736);
#459=COLOUR_RGB('',0.509803950786591,0.509803950786591,0.588235318660736);
ENDSEC;
END-ISO-10303-21;
