ISO-10303-21;
HEADER;
FILE_DESCRIPTION(('STEP AP214'),'1');
FILE_NAME(' ','  ',('TraceParts'),('TraceParts S.A.'),'XStep 1.0',' ',' ');
FILE_SCHEMA(('automotive_design'));
ENDSEC;
DATA;
#1=MECHANICAL_DESIGN_GEOMETRIC_PRESENTATION_REPRESENTATION(' ',(#10,#11,#12,#13,#14,#15,#16,#17,#18,#19,#20,#21,#22,#23,#24,#25,#26,#27,#28,#29,#30,#31,#32,#33,#34,#35,#36,#37,#38,#39,#40,#41,#42,#43,#44,#45,#46,#47,#48,#49,#50,#51,#52),#6);
#2=PRODUCT_DEFINITION_CONTEXT('',#53,'design');
#3=APPLICATION_PROTOCOL_DEFINITION('INTERNATIONAL STANDARD','automotive_design',1994,#53);
#4=PRODUCT_CATEGORY_RELATIONSHIP('NONE','NONE',#54,#55);
#5=SHAPE_DEFINITION_REPRESENTATION(#56,#57);
#6= (GEOMETRIC_REPRESENTATION_CONTEXT(3)GLOBAL_UNCERTAINTY_ASSIGNED_CONTEXT((#60))GLOBAL_UNIT_ASSIGNED_CONTEXT((#62,#63,#64))REPRESENTATION_CONTEXT('NONE','WORKSPACE'));
#10=STYLED_ITEM('',(#66),#67);
#11=STYLED_ITEM('',(#68),#69);
#12=STYLED_ITEM('',(#70),#71);
#13=STYLED_ITEM('',(#72),#73);
#14=STYLED_ITEM('',(#74),#75);
#15=STYLED_ITEM('',(#76),#77);
#16=STYLED_ITEM('',(#78),#79);
#17=STYLED_ITEM('',(#80),#81);
#18=STYLED_ITEM('',(#82),#83);
#19=STYLED_ITEM('',(#84),#85);
#20=STYLED_ITEM('',(#86),#87);
#21=STYLED_ITEM('',(#88),#89);
#22=STYLED_ITEM('',(#90),#91);
#23=STYLED_ITEM('',(#92),#93);
#24=STYLED_ITEM('',(#94),#95);
#25=STYLED_ITEM('',(#96),#97);
#26=STYLED_ITEM('',(#98),#99);
#27=STYLED_ITEM('',(#100),#101);
#28=STYLED_ITEM('',(#102),#103);
#29=STYLED_ITEM('',(#104),#105);
#30=STYLED_ITEM('',(#106),#107);
#31=STYLED_ITEM('',(#108),#109);
#32=STYLED_ITEM('',(#110),#111);
#33=STYLED_ITEM('',(#112),#113);
#34=STYLED_ITEM('',(#114),#115);
#35=STYLED_ITEM('',(#116),#117);
#36=STYLED_ITEM('',(#118),#119);
#37=STYLED_ITEM('',(#120),#121);
#38=STYLED_ITEM('',(#122),#123);
#39=STYLED_ITEM('',(#124),#125);
#40=STYLED_ITEM('',(#126),#127);
#41=STYLED_ITEM('',(#128),#129);
#42=STYLED_ITEM('',(#130),#131);
#43=STYLED_ITEM('',(#132),#133);
#44=STYLED_ITEM('',(#134),#135);
#45=STYLED_ITEM('',(#136),#137);
#46=STYLED_ITEM('',(#138),#139);
#47=STYLED_ITEM('',(#140),#141);
#48=STYLED_ITEM('',(#142),#143);
#49=STYLED_ITEM('',(#144),#145);
#50=STYLED_ITEM('',(#146),#147);
#51=STYLED_ITEM('',(#148),#149);
#52=STYLED_ITEM('',(#150),#151);
#53=APPLICATION_CONTEXT(' ');
#54=PRODUCT_CATEGORY('part','NONE');
#55=PRODUCT_RELATED_PRODUCT_CATEGORY('detail',' ',(#152));
#56=PRODUCT_DEFINITION_SHAPE('NONE','NONE',#153);
#57=ADVANCED_BREP_SHAPE_REPRESENTATION('1',(#69,#154),#6);
#60=UNCERTAINTY_MEASURE_WITH_UNIT(LENGTH_MEASURE(1.0E-006),#62,'','');
#62= (CONVERSION_BASED_UNIT('MILLIMETRE',#157)LENGTH_UNIT()NAMED_UNIT(#160));
#63= (NAMED_UNIT(#162)PLANE_ANGLE_UNIT()SI_UNIT($,.RADIAN.));
#64= (NAMED_UNIT(#162)SOLID_ANGLE_UNIT()SI_UNIT($,.STERADIAN.));
#66=PRESENTATION_STYLE_ASSIGNMENT((#168));
#67=EDGE_CURVE('',#151,#73,#169,.T.);
#68=PRESENTATION_STYLE_ASSIGNMENT((#170));
#69=MANIFOLD_SOLID_BREP('1',#171);
#70=PRESENTATION_STYLE_ASSIGNMENT((#172));
#71=ADVANCED_FACE('',(#173),#174,.F.);
#72=PRESENTATION_STYLE_ASSIGNMENT((#175));
#73=VERTEX_POINT('',#176);
#74=PRESENTATION_STYLE_ASSIGNMENT((#177));
#75=EDGE_CURVE('',#139,#85,#178,.T.);
#76=PRESENTATION_STYLE_ASSIGNMENT((#179));
#77=EDGE_CURVE('',#91,#135,#180,.T.);
#78=PRESENTATION_STYLE_ASSIGNMENT((#181));
#79=EDGE_CURVE('',#85,#139,#182,.T.);
#80=PRESENTATION_STYLE_ASSIGNMENT((#183));
#81=ADVANCED_FACE('',(#184),#185,.T.);
#82=PRESENTATION_STYLE_ASSIGNMENT((#186));
#83=ADVANCED_FACE('',(#187),#188,.F.);
#84=PRESENTATION_STYLE_ASSIGNMENT((#189));
#85=VERTEX_POINT('',#190);
#86=PRESENTATION_STYLE_ASSIGNMENT((#191));
#87=ADVANCED_FACE('',(#192,#193),#194,.T.);
#88=PRESENTATION_STYLE_ASSIGNMENT((#195));
#89=EDGE_CURVE('',#73,#149,#196,.T.);
#90=PRESENTATION_STYLE_ASSIGNMENT((#197));
#91=VERTEX_POINT('',#198);
#92=PRESENTATION_STYLE_ASSIGNMENT((#199));
#93=EDGE_CURVE('',#101,#151,#200,.T.);
#94=PRESENTATION_STYLE_ASSIGNMENT((#201));
#95=ADVANCED_FACE('',(#202,#203),#204,.T.);
#96=PRESENTATION_STYLE_ASSIGNMENT((#205));
#97=EDGE_CURVE('',#151,#101,#206,.T.);
#98=PRESENTATION_STYLE_ASSIGNMENT((#207));
#99=EDGE_CURVE('',#149,#101,#208,.T.);
#100=PRESENTATION_STYLE_ASSIGNMENT((#209));
#101=VERTEX_POINT('',#210);
#102=PRESENTATION_STYLE_ASSIGNMENT((#211));
#103=EDGE_CURVE('',#135,#137,#212,.T.);
#104=PRESENTATION_STYLE_ASSIGNMENT((#213));
#105=VERTEX_POINT('',#214);
#106=PRESENTATION_STYLE_ASSIGNMENT((#215));
#107=EDGE_CURVE('',#145,#133,#216,.T.);
#108=PRESENTATION_STYLE_ASSIGNMENT((#217));
#109=EDGE_CURVE('',#135,#91,#218,.T.);
#110=PRESENTATION_STYLE_ASSIGNMENT((#219));
#111=EDGE_CURVE('',#137,#105,#220,.T.);
#112=PRESENTATION_STYLE_ASSIGNMENT((#221));
#113=ADVANCED_FACE('',(#222),#223,.F.);
#114=PRESENTATION_STYLE_ASSIGNMENT((#224));
#115=EDGE_CURVE('',#85,#151,#225,.T.);
#116=PRESENTATION_STYLE_ASSIGNMENT((#226));
#117=EDGE_CURVE('',#105,#91,#227,.T.);
#118=PRESENTATION_STYLE_ASSIGNMENT((#228));
#119=ADVANCED_FACE('',(#229),#230,.F.);
#120=PRESENTATION_STYLE_ASSIGNMENT((#231));
#121=ADVANCED_FACE('',(#232),#233,.T.);
#122=PRESENTATION_STYLE_ASSIGNMENT((#234));
#123=EDGE_CURVE('',#137,#133,#235,.T.);
#124=PRESENTATION_STYLE_ASSIGNMENT((#236));
#125=EDGE_CURVE('',#101,#139,#237,.T.);
#126=PRESENTATION_STYLE_ASSIGNMENT((#238));
#127=ADVANCED_FACE('',(#239),#240,.T.);
#128=PRESENTATION_STYLE_ASSIGNMENT((#241));
#129=EDGE_CURVE('',#105,#137,#242,.T.);
#130=PRESENTATION_STYLE_ASSIGNMENT((#243));
#131=EDGE_CURVE('',#133,#145,#244,.T.);
#132=PRESENTATION_STYLE_ASSIGNMENT((#245));
#133=VERTEX_POINT('',#246);
#134=PRESENTATION_STYLE_ASSIGNMENT((#247));
#135=VERTEX_POINT('',#248);
#136=PRESENTATION_STYLE_ASSIGNMENT((#249));
#137=VERTEX_POINT('',#250);
#138=PRESENTATION_STYLE_ASSIGNMENT((#251));
#139=VERTEX_POINT('',#252);
#140=PRESENTATION_STYLE_ASSIGNMENT((#253));
#141=EDGE_CURVE('',#145,#105,#254,.T.);
#142=PRESENTATION_STYLE_ASSIGNMENT((#255));
#143=ADVANCED_FACE('',(#256),#257,.T.);
#144=PRESENTATION_STYLE_ASSIGNMENT((#258));
#145=VERTEX_POINT('',#259);
#146=PRESENTATION_STYLE_ASSIGNMENT((#260));
#147=EDGE_CURVE('',#149,#73,#261,.T.);
#148=PRESENTATION_STYLE_ASSIGNMENT((#262));
#149=VERTEX_POINT('',#263);
#150=PRESENTATION_STYLE_ASSIGNMENT((#264));
#151=VERTEX_POINT('',#265);
#152=PRODUCT('1','1','PART-1-DESC',(#266));
#153=PRODUCT_DEFINITION('NONE','NONE',#267,#2);
#154=AXIS2_PLACEMENT_3D('',#268,#269,#270);
#157=LENGTH_MEASURE_WITH_UNIT(LENGTH_MEASURE(1.0),#271);
#160=DIMENSIONAL_EXPONENTS(1.0,0.0,0.0,0.0,0.0,0.0,0.0);
#162=DIMENSIONAL_EXPONENTS(0.0,0.0,0.0,0.0,0.0,0.0,0.0);
#168=CURVE_STYLE('',#272,POSITIVE_LENGTH_MEASURE(1.0E-006),#273);
#169=LINE('',#274,#275);
#170=SURFACE_STYLE_USAGE(.BOTH.,#276);
#171=CLOSED_SHELL('',(#71,#81,#83,#143,#121,#113,#95,#127,#87,#119));
#172=SURFACE_STYLE_USAGE(.BOTH.,#277);
#173=FACE_OUTER_BOUND('',#278,.T.);
#174=CYLINDRICAL_SURFACE('',#279,25.0);
#175=POINT_STYLE(' ',#280,POSITIVE_LENGTH_MEASURE(1.0E-006),#281);
#176=CARTESIAN_POINT('',(-25.0,5.93168696360718E-015,-2.8421709430404E-014));
#177=CURVE_STYLE('',#282,POSITIVE_LENGTH_MEASURE(1.0E-006),#283);
#178=CIRCLE('',#284,26.0);
#179=CURVE_STYLE('',#285,POSITIVE_LENGTH_MEASURE(1.0E-006),#286);
#180=CIRCLE('',#287,46.0);
#181=CURVE_STYLE('',#288,POSITIVE_LENGTH_MEASURE(1.0E-006),#289);
#182=CIRCLE('',#290,26.0);
#183=SURFACE_STYLE_USAGE(.BOTH.,#291);
#184=FACE_OUTER_BOUND('',#292,.T.);
#185=CYLINDRICAL_SURFACE('',#293,46.0);
#186=SURFACE_STYLE_USAGE(.BOTH.,#294);
#187=FACE_OUTER_BOUND('',#295,.T.);
#188=CONICAL_SURFACE('',#296,25.5,0.785398163397448);
#189=POINT_STYLE(' ',#297,POSITIVE_LENGTH_MEASURE(1.0E-006),#298);
#190=CARTESIAN_POINT('',(-26.0,7.09506299973844E-015,21.0));
#191=SURFACE_STYLE_USAGE(.BOTH.,#299);
#192=FACE_OUTER_BOUND('',#300,.T.);
#193=FACE_BOUND('',#301,.T.);
#194=PLANE('',#302);
#195=CURVE_STYLE('',#303,POSITIVE_LENGTH_MEASURE(1.0E-006),#304);
#196=CIRCLE('',#305,25.0);
#197=POINT_STYLE(' ',#306,POSITIVE_LENGTH_MEASURE(1.0E-006),#307);
#198=CARTESIAN_POINT('',(46.0,2.39085859213274E-014,21.0));
#199=CURVE_STYLE('',#308,POSITIVE_LENGTH_MEASURE(1.0E-006),#309);
#200=CIRCLE('',#310,25.0);
#201=SURFACE_STYLE_USAGE(.BOTH.,#311);
#202=FACE_OUTER_BOUND('',#312,.T.);
#203=FACE_BOUND('',#313,.T.);
#204=PLANE('',#314);
#205=CURVE_STYLE('',#315,POSITIVE_LENGTH_MEASURE(1.0E-006),#316);
#206=CIRCLE('',#317,25.0);
#207=CURVE_STYLE('',#318,POSITIVE_LENGTH_MEASURE(1.0E-006),#319);
#208=LINE('',#320,#321);
#209=POINT_STYLE(' ',#322,POSITIVE_LENGTH_MEASURE(1.0E-006),#323);
#210=CARTESIAN_POINT('',(25.0,1.76864016944868E-014,20.0));
#211=CURVE_STYLE('',#324,POSITIVE_LENGTH_MEASURE(1.0E-006),#325);
#212=LINE('',#326,#327);
#213=POINT_STYLE(' ',#328,POSITIVE_LENGTH_MEASURE(1.0E-006),#329);
#214=CARTESIAN_POINT('',(46.0,2.40383153200971E-014,12.9999999999998));
#215=CURVE_STYLE('',#330,POSITIVE_LENGTH_MEASURE(1.0E-006),#331);
#216=CIRCLE('',#332,26.0854433790746);
#217=CURVE_STYLE('',#333,POSITIVE_LENGTH_MEASURE(1.0E-006),#334);
#218=CIRCLE('',#335,46.0);
#219=CURVE_STYLE('',#336,POSITIVE_LENGTH_MEASURE(1.0E-006),#337);
#220=CIRCLE('',#338,46.0);
#221=SURFACE_STYLE_USAGE(.BOTH.,#339);
#222=FACE_OUTER_BOUND('',#340,.T.);
#223=CONICAL_SURFACE('',#341,25.5,0.785398163397448);
#224=CURVE_STYLE('',#342,POSITIVE_LENGTH_MEASURE(1.0E-006),#343);
#225=LINE('',#344,#345);
#226=CURVE_STYLE('',#346,POSITIVE_LENGTH_MEASURE(1.0E-006),#347);
#227=LINE('',#348,#349);
#228=SURFACE_STYLE_USAGE(.BOTH.,#350);
#229=FACE_OUTER_BOUND('',#351,.T.);
#230=CYLINDRICAL_SURFACE('',#352,25.0);
#231=SURFACE_STYLE_USAGE(.BOTH.,#353);
#232=FACE_OUTER_BOUND('',#354,.T.);
#233=SPHERICAL_SURFACE('',#355,67.0000000000002);
#234=CURVE_STYLE('',#356,POSITIVE_LENGTH_MEASURE(1.0E-006),#357);
#235=CIRCLE('',#358,67.0000000000002);
#236=CURVE_STYLE('',#359,POSITIVE_LENGTH_MEASURE(1.0E-006),#360);
#237=LINE('',#361,#362);
#238=SURFACE_STYLE_USAGE(.BOTH.,#363);
#239=FACE_OUTER_BOUND('',#364,.T.);
#240=CYLINDRICAL_SURFACE('',#365,46.0);
#241=CURVE_STYLE('',#366,POSITIVE_LENGTH_MEASURE(1.0E-006),#367);
#242=CIRCLE('',#368,46.0);
#243=CURVE_STYLE('',#369,POSITIVE_LENGTH_MEASURE(1.0E-006),#370);
#244=CIRCLE('',#371,26.0854433790746);
#245=POINT_STYLE(' ',#372,POSITIVE_LENGTH_MEASURE(1.0E-006),#373);
#246=CARTESIAN_POINT('',(-26.0854433790737,5.79876287773437E-015,-4.9737991503207E-014));
#247=POINT_STYLE(' ',#374,POSITIVE_LENGTH_MEASURE(1.0E-006),#375);
#248=CARTESIAN_POINT('',(-46.0,4.64585029209369E-015,21.0));
#249=POINT_STYLE(' ',#376,POSITIVE_LENGTH_MEASURE(1.0E-006),#377);
#250=CARTESIAN_POINT('',(-45.9999999999999,4.15600775056475E-015,13.0));
#251=POINT_STYLE(' ',#378,POSITIVE_LENGTH_MEASURE(1.0E-006),#379);
#252=CARTESIAN_POINT('',(26.0,1.79826961814792E-014,21.0));
#253=CURVE_STYLE('',#380,POSITIVE_LENGTH_MEASURE(1.0E-006),#381);
#254=CIRCLE('',#382,67.0000000000002);
#255=SURFACE_STYLE_USAGE(.BOTH.,#383);
#256=FACE_OUTER_BOUND('',#384,.T.);
#257=SPHERICAL_SURFACE('',#385,67.0000000000002);
#258=POINT_STYLE(' ',#386,POSITIVE_LENGTH_MEASURE(1.0E-006),#387);
#259=CARTESIAN_POINT('',(26.0854433790748,1.9160816805789E-014,-1.4210854715202E-014));
#260=CURVE_STYLE('',#388,POSITIVE_LENGTH_MEASURE(1.0E-006),#389);
#261=CIRCLE('',#390,25.0);
#262=POINT_STYLE(' ',#391,POSITIVE_LENGTH_MEASURE(1.0E-006),#392);
#263=CARTESIAN_POINT('',(25.0,1.76864016944868E-014,-2.8421709430404E-014));
#264=POINT_STYLE(' ',#393,POSITIVE_LENGTH_MEASURE(1.0E-006),#394);
#265=CARTESIAN_POINT('',(-25.0,7.15629331742956E-015,20.0));
#266=PRODUCT_CONTEXT('',#53,'mechanical');
#267=PRODUCT_DEFINITION_FORMATION_WITH_SPECIFIED_SOURCE(' ','NONE',#152,.NOT_KNOWN.);
#268=CARTESIAN_POINT('',(0.0,0.0,0.0));
#269=DIRECTION('',(0.0,0.0,1.0));
#270=DIRECTION('',(1.0,0.0,0.0));
#271= (NAMED_UNIT(#160)LENGTH_UNIT()SI_UNIT(.MILLI.,.METRE.));
#272=DRAUGHTING_PRE_DEFINED_CURVE_FONT('continuous');
#273=COLOUR_RGB('',0.509803950786591,0.509803950786591,0.588235318660736);
#274=CARTESIAN_POINT('',(-25.0,2.87167734486643E-015,9.99999999999999));
#275=VECTOR('',#396,1.0);
#276=SURFACE_SIDE_STYLE('',(#397));
#277=SURFACE_SIDE_STYLE('',(#398));
#278=EDGE_LOOP('',(#399,#400,#401,#402));
#279=AXIS2_PLACEMENT_3D('',#403,#404,#405);
#280=PRE_DEFINED_MARKER('');
#281=COLOUR_RGB('',0.509803950786591,0.509803950786591,0.588235318660736);
#282=DRAUGHTING_PRE_DEFINED_CURVE_FONT('continuous');
#283=COLOUR_RGB('',0.509803950786591,0.509803950786591,0.588235318660736);
#284=AXIS2_PLACEMENT_3D('',#406,#407,#408);
#285=DRAUGHTING_PRE_DEFINED_CURVE_FONT('continuous');
#286=COLOUR_RGB('',0.509803950786591,0.509803950786591,0.588235318660736);
#287=AXIS2_PLACEMENT_3D('',#409,#410,#411);
#288=DRAUGHTING_PRE_DEFINED_CURVE_FONT('continuous');
#289=COLOUR_RGB('',0.509803950786591,0.509803950786591,0.588235318660736);
#290=AXIS2_PLACEMENT_3D('',#412,#413,#414);
#291=SURFACE_SIDE_STYLE('',(#415));
#292=EDGE_LOOP('',(#416,#417,#418,#419));
#293=AXIS2_PLACEMENT_3D('',#420,#421,#422);
#294=SURFACE_SIDE_STYLE('',(#423));
#295=EDGE_LOOP('',(#424,#425,#426,#427));
#296=AXIS2_PLACEMENT_3D('',#428,#429,#430);
#297=PRE_DEFINED_MARKER('');
#298=COLOUR_RGB('',0.509803950786591,0.509803950786591,0.588235318660736);
#299=SURFACE_SIDE_STYLE('',(#431));
#300=EDGE_LOOP('',(#432,#433));
#301=EDGE_LOOP('',(#434,#435));
#302=AXIS2_PLACEMENT_3D('',#436,#437,#438);
#303=DRAUGHTING_PRE_DEFINED_CURVE_FONT('continuous');
#304=COLOUR_RGB('',0.509803950786591,0.509803950786591,0.588235318660736);
#305=AXIS2_PLACEMENT_3D('',#439,#440,#441);
#306=PRE_DEFINED_MARKER('');
#307=COLOUR_RGB('',0.509803950786591,0.509803950786591,0.588235318660736);
#308=DRAUGHTING_PRE_DEFINED_CURVE_FONT('continuous');
#309=COLOUR_RGB('',0.509803950786591,0.509803950786591,0.588235318660736);
#310=AXIS2_PLACEMENT_3D('',#442,#443,#444);
#311=SURFACE_SIDE_STYLE('',(#445));
#312=EDGE_LOOP('',(#446,#447));
#313=EDGE_LOOP('',(#448,#449));
#314=AXIS2_PLACEMENT_3D('',#450,#451,#452);
#315=DRAUGHTING_PRE_DEFINED_CURVE_FONT('continuous');
#316=COLOUR_RGB('',0.509803950786591,0.509803950786591,0.588235318660736);
#317=AXIS2_PLACEMENT_3D('',#453,#454,#455);
#318=DRAUGHTING_PRE_DEFINED_CURVE_FONT('continuous');
#319=COLOUR_RGB('',0.509803950786591,0.509803950786591,0.588235318660736);
#320=CARTESIAN_POINT('',(25.0,1.76864016944868E-014,9.99999999999999));
#321=VECTOR('',#456,1.0);
#322=PRE_DEFINED_MARKER('');
#323=COLOUR_RGB('',0.509803950786591,0.509803950786591,0.588235318660736);
#324=DRAUGHTING_PRE_DEFINED_CURVE_FONT('continuous');
#325=COLOUR_RGB('',0.509803950786591,0.509803950786591,0.588235318660736);
#326=CARTESIAN_POINT('',(-46.0,-3.35050688197411E-015,16.9999999999999));
#327=VECTOR('',#457,1.0);
#328=PRE_DEFINED_MARKER('');
#329=COLOUR_RGB('',0.509803950786591,0.509803950786591,0.588235318660736);
#330=DRAUGHTING_PRE_DEFINED_CURVE_FONT('continuous');
#331=COLOUR_RGB('',0.509803950786591,0.509803950786591,0.588235318660736);
#332=AXIS2_PLACEMENT_3D('',#458,#459,#460);
#333=DRAUGHTING_PRE_DEFINED_CURVE_FONT('continuous');
#334=COLOUR_RGB('',0.509803950786591,0.509803950786591,0.588235318660736);
#335=AXIS2_PLACEMENT_3D('',#461,#462,#463);
#336=DRAUGHTING_PRE_DEFINED_CURVE_FONT('continuous');
#337=COLOUR_RGB('',0.509803950786591,0.509803950786591,0.588235318660736);
#338=AXIS2_PLACEMENT_3D('',#464,#465,#466);
#339=SURFACE_SIDE_STYLE('',(#467));
#340=EDGE_LOOP('',(#468,#469,#470,#471));
#341=AXIS2_PLACEMENT_3D('',#472,#473,#474);
#342=DRAUGHTING_PRE_DEFINED_CURVE_FONT('continuous');
#343=COLOUR_RGB('',0.509803950786591,0.509803950786591,0.588235318660736);
#344=CARTESIAN_POINT('',(-25.5,2.72353010137023E-015,20.5));
#345=VECTOR('',#475,1.0);
#346=DRAUGHTING_PRE_DEFINED_CURVE_FONT('continuous');
#347=COLOUR_RGB('',0.509803950786591,0.509803950786591,0.588235318660736);
#348=CARTESIAN_POINT('',(46.0,2.39085859213274E-014,16.9999999999999));
#349=VECTOR('',#476,1.0);
#350=SURFACE_SIDE_STYLE('',(#477));
#351=EDGE_LOOP('',(#478,#479,#480,#481));
#352=AXIS2_PLACEMENT_3D('',#482,#483,#484);
#353=SURFACE_SIDE_STYLE('',(#485));
#354=EDGE_LOOP('',(#486,#487,#488,#489));
#355=AXIS2_PLACEMENT_3D('',#490,#491,#492);
#356=DRAUGHTING_PRE_DEFINED_CURVE_FONT('continuous');
#357=COLOUR_RGB('',0.509803950786591,0.509803950786591,0.588235318660736);
#358=AXIS2_PLACEMENT_3D('',#493,#494,#495);
#359=DRAUGHTING_PRE_DEFINED_CURVE_FONT('continuous');
#360=COLOUR_RGB('',0.509803950786591,0.509803950786591,0.588235318660736);
#361=CARTESIAN_POINT('',(25.5,1.7834548937983E-014,20.5));
#362=VECTOR('',#496,1.0);
#363=SURFACE_SIDE_STYLE('',(#497));
#364=EDGE_LOOP('',(#498,#499,#500,#501));
#365=AXIS2_PLACEMENT_3D('',#502,#503,#504);
#366=DRAUGHTING_PRE_DEFINED_CURVE_FONT('continuous');
#367=COLOUR_RGB('',0.509803950786591,0.509803950786591,0.588235318660736);
#368=AXIS2_PLACEMENT_3D('',#505,#506,#507);
#369=DRAUGHTING_PRE_DEFINED_CURVE_FONT('continuous');
#370=COLOUR_RGB('',0.509803950786591,0.509803950786591,0.588235318660736);
#371=AXIS2_PLACEMENT_3D('',#508,#509,#510);
#372=PRE_DEFINED_MARKER('');
#373=COLOUR_RGB('',0.509803950786591,0.509803950786591,0.588235318660736);
#374=PRE_DEFINED_MARKER('');
#375=COLOUR_RGB('',0.509803950786591,0.509803950786591,0.588235318660736);
#376=PRE_DEFINED_MARKER('');
#377=COLOUR_RGB('',0.509803950786591,0.509803950786591,0.588235318660736);
#378=PRE_DEFINED_MARKER('');
#379=COLOUR_RGB('',0.509803950786591,0.509803950786591,0.588235318660736);
#380=DRAUGHTING_PRE_DEFINED_CURVE_FONT('continuous');
#381=COLOUR_RGB('',0.509803950786591,0.509803950786591,0.588235318660736);
#382=AXIS2_PLACEMENT_3D('',#511,#512,#513);
#383=SURFACE_SIDE_STYLE('',(#514));
#384=EDGE_LOOP('',(#515,#516,#517,#518));
#385=AXIS2_PLACEMENT_3D('',#519,#520,#521);
#386=PRE_DEFINED_MARKER('');
#387=COLOUR_RGB('',0.509803950786591,0.509803950786591,0.588235318660736);
#388=DRAUGHTING_PRE_DEFINED_CURVE_FONT('continuous');
#389=COLOUR_RGB('',0.509803950786591,0.509803950786591,0.588235318660736);
#390=AXIS2_PLACEMENT_3D('',#522,#523,#524);
#391=PRE_DEFINED_MARKER('');
#392=COLOUR_RGB('',0.509803950786591,0.509803950786591,0.588235318660736);
#393=PRE_DEFINED_MARKER('');
#394=COLOUR_RGB('',0.509803950786591,0.509803950786591,0.588235318660736);
#396=DIRECTION('',(0.0,0.0,-1.0));
#397=SURFACE_STYLE_FILL_AREA(#525);
#398=SURFACE_STYLE_FILL_AREA(#526);
#399=ORIENTED_EDGE('',*,*,#67,.F.);
#400=ORIENTED_EDGE('',*,*,#93,.F.);
#401=ORIENTED_EDGE('',*,*,#99,.F.);
#402=ORIENTED_EDGE('',*,*,#147,.T.);
#403=CARTESIAN_POINT('',(0.0,1.02790395196766E-014,9.99999999999999));
#404=DIRECTION('',(0.0,-0.0,1.0));
#405=DIRECTION('',(-1.0,-1.73833851610169E-016,0.0));
#406=CARTESIAN_POINT('',(0.0,1.02790395196766E-014,21.0));
#407=DIRECTION('',(-0.0,0.0,-1.0));
#408=DIRECTION('',(-1.0,-1.73833851610169E-016,0.0));
#409=CARTESIAN_POINT('',(0.0,1.02790395196766E-014,21.0));
#410=DIRECTION('',(-0.0,0.0,-1.0));
#411=DIRECTION('',(-1.0,-1.73833851610169E-016,0.0));
#412=CARTESIAN_POINT('',(0.0,1.02790395196766E-014,21.0));
#413=DIRECTION('',(-0.0,0.0,-1.0));
#414=DIRECTION('',(-1.0,-1.73833851610169E-016,0.0));
#415=SURFACE_STYLE_FILL_AREA(#527);
#416=ORIENTED_EDGE('',*,*,#103,.F.);
#417=ORIENTED_EDGE('',*,*,#109,.T.);
#418=ORIENTED_EDGE('',*,*,#117,.F.);
#419=ORIENTED_EDGE('',*,*,#129,.T.);
#420=CARTESIAN_POINT('',(0.0,1.02790395196766E-014,10.5));
#421=DIRECTION('',(0.0,-0.0,1.0));
#422=DIRECTION('',(-1.0,-1.73833851610169E-016,0.0));
#423=SURFACE_STYLE_FILL_AREA(#528);
#424=ORIENTED_EDGE('',*,*,#115,.F.);
#425=ORIENTED_EDGE('',*,*,#75,.F.);
#426=ORIENTED_EDGE('',*,*,#125,.F.);
#427=ORIENTED_EDGE('',*,*,#93,.T.);
#428=CARTESIAN_POINT('',(0.0,1.02790395196766E-014,20.5));
#429=DIRECTION('',(0.0,-0.0,1.0));
#430=DIRECTION('',(-1.0,-1.73833851610169E-016,0.0));
#431=SURFACE_STYLE_FILL_AREA(#529);
#432=ORIENTED_EDGE('',*,*,#131,.T.);
#433=ORIENTED_EDGE('',*,*,#107,.T.);
#434=ORIENTED_EDGE('',*,*,#89,.F.);
#435=ORIENTED_EDGE('',*,*,#147,.F.);
#436=CARTESIAN_POINT('',(-35.5,4.64585029209369E-015,-1.4210854715202E-014));
#437=DIRECTION('',(0.0,0.0,-1.0));
#438=DIRECTION('',(1.0,1.22460635382238E-016,0.0));
#439=CARTESIAN_POINT('',(0.0,1.02790395196766E-014,-2.8421709430404E-014));
#440=DIRECTION('',(-0.0,0.0,-1.0));
#441=DIRECTION('',(-1.0,-1.73833851610169E-016,0.0));
#442=CARTESIAN_POINT('',(0.0,1.02790395196766E-014,20.0));
#443=DIRECTION('',(-0.0,0.0,-1.0));
#444=DIRECTION('',(-1.0,-1.73833851610169E-016,0.0));
#445=SURFACE_STYLE_FILL_AREA(#530);
#446=ORIENTED_EDGE('',*,*,#109,.F.);
#447=ORIENTED_EDGE('',*,*,#77,.F.);
#448=ORIENTED_EDGE('',*,*,#79,.T.);
#449=ORIENTED_EDGE('',*,*,#75,.T.);
#450=CARTESIAN_POINT('',(-36.0,5.87045664591606E-015,21.0));
#451=DIRECTION('',(0.0,0.0,1.0));
#452=DIRECTION('',(-1.0,-1.22460635382238E-016,0.0));
#453=CARTESIAN_POINT('',(0.0,1.02790395196766E-014,20.0));
#454=DIRECTION('',(-0.0,0.0,-1.0));
#455=DIRECTION('',(-1.0,-1.73833851610169E-016,0.0));
#456=DIRECTION('',(0.0,0.0,1.0));
#457=DIRECTION('',(0.0,0.0,-1.0));
#458=CARTESIAN_POINT('',(2.20268248085631E-013,1.27719368649313E-014,-1.4210854715202E-014));
#459=DIRECTION('',(0.0,0.0,-1.0));
#460=DIRECTION('',(0.0,-1.0,0.0));
#461=CARTESIAN_POINT('',(0.0,1.02790395196766E-014,21.0));
#462=DIRECTION('',(-0.0,0.0,-1.0));
#463=DIRECTION('',(-1.0,-1.73833851610169E-016,0.0));
#464=CARTESIAN_POINT('',(0.0,1.02790395196766E-014,12.9999999999998));
#465=DIRECTION('',(0.0,0.0,1.0));
#466=DIRECTION('',(-1.0,-1.73833851610169E-016,0.0));
#467=SURFACE_STYLE_FILL_AREA(#531);
#468=ORIENTED_EDGE('',*,*,#115,.T.);
#469=ORIENTED_EDGE('',*,*,#97,.T.);
#470=ORIENTED_EDGE('',*,*,#125,.T.);
#471=ORIENTED_EDGE('',*,*,#79,.F.);
#472=CARTESIAN_POINT('',(0.0,1.02790395196766E-014,20.5));
#473=DIRECTION('',(0.0,-0.0,1.0));
#474=DIRECTION('',(-1.0,-1.73833851610169E-016,0.0));
#475=DIRECTION('',(0.707106781186548,2.0951184098052E-016,-0.707106781186547));
#476=DIRECTION('',(-0.0,-0.0,1.0));
#477=SURFACE_STYLE_FILL_AREA(#532);
#478=ORIENTED_EDGE('',*,*,#67,.T.);
#479=ORIENTED_EDGE('',*,*,#89,.T.);
#480=ORIENTED_EDGE('',*,*,#99,.T.);
#481=ORIENTED_EDGE('',*,*,#97,.F.);
#482=CARTESIAN_POINT('',(0.0,1.02790395196766E-014,9.99999999999999));
#483=DIRECTION('',(0.0,-0.0,1.0));
#484=DIRECTION('',(-1.0,-1.73833851610169E-016,0.0));
#485=SURFACE_STYLE_FILL_AREA(#533);
#486=ORIENTED_EDGE('',*,*,#141,.T.);
#487=ORIENTED_EDGE('',*,*,#111,.F.);
#488=ORIENTED_EDGE('',*,*,#123,.T.);
#489=ORIENTED_EDGE('',*,*,#107,.F.);
#490=CARTESIAN_POINT('',(2.20268248085631E-013,1.27719368649313E-014,61.7134478352742));
#491=DIRECTION('',(0.0,0.0,-1.0));
#492=DIRECTION('',(1.0,1.22460635382238E-016,0.0));
#493=CARTESIAN_POINT('',(2.20268248085631E-013,1.27719368649313E-014,61.7134478352742));
#494=DIRECTION('',(2.44921270764475E-016,-1.0,0.0));
#495=DIRECTION('',(-0.0,0.0,1.0));
#496=DIRECTION('',(0.707106781186548,2.0951184098052E-016,0.707106781186547));
#497=SURFACE_STYLE_FILL_AREA(#534);
#498=ORIENTED_EDGE('',*,*,#103,.T.);
#499=ORIENTED_EDGE('',*,*,#111,.T.);
#500=ORIENTED_EDGE('',*,*,#117,.T.);
#501=ORIENTED_EDGE('',*,*,#77,.T.);
#502=CARTESIAN_POINT('',(0.0,1.02790395196766E-014,10.5));
#503=DIRECTION('',(0.0,-0.0,1.0));
#504=DIRECTION('',(-1.0,-1.73833851610169E-016,0.0));
#505=CARTESIAN_POINT('',(0.0,1.02790395196766E-014,12.9999999999998));
#506=DIRECTION('',(0.0,0.0,1.0));
#507=DIRECTION('',(-1.0,-1.73833851610169E-016,0.0));
#508=CARTESIAN_POINT('',(2.20268248085631E-013,1.27719368649313E-014,-1.4210854715202E-014));
#509=DIRECTION('',(0.0,0.0,-1.0));
#510=DIRECTION('',(0.0,-1.0,0.0));
#511=CARTESIAN_POINT('',(2.20268248085631E-013,1.27719368649313E-014,61.7134478352742));
#512=DIRECTION('',(2.44921270764475E-016,-1.0,0.0));
#513=DIRECTION('',(-0.0,0.0,1.0));
#514=SURFACE_STYLE_FILL_AREA(#535);
#515=ORIENTED_EDGE('',*,*,#141,.F.);
#516=ORIENTED_EDGE('',*,*,#131,.F.);
#517=ORIENTED_EDGE('',*,*,#123,.F.);
#518=ORIENTED_EDGE('',*,*,#129,.F.);
#519=CARTESIAN_POINT('',(2.20268248085631E-013,1.27719368649313E-014,61.7134478352742));
#520=DIRECTION('',(0.0,0.0,-1.0));
#521=DIRECTION('',(1.0,1.22460635382238E-016,0.0));
#522=CARTESIAN_POINT('',(0.0,1.02790395196766E-014,-2.8421709430404E-014));
#523=DIRECTION('',(-0.0,0.0,-1.0));
#524=DIRECTION('',(-1.0,-1.73833851610169E-016,0.0));
#525=FILL_AREA_STYLE('',(#536));
#526=FILL_AREA_STYLE('',(#537));
#527=FILL_AREA_STYLE('',(#538));
#528=FILL_AREA_STYLE('',(#539));
#529=FILL_AREA_STYLE('',(#540));
#530=FILL_AREA_STYLE('',(#541));
#531=FILL_AREA_STYLE('',(#542));
#532=FILL_AREA_STYLE('',(#543));
#533=FILL_AREA_STYLE('',(#544));
#534=FILL_AREA_STYLE('',(#545));
#535=FILL_AREA_STYLE('',(#546));
#536=FILL_AREA_STYLE_COLOUR('',#547);
#537=FILL_AREA_STYLE_COLOUR('',#548);
#538=FILL_AREA_STYLE_COLOUR('',#549);
#539=FILL_AREA_STYLE_COLOUR('',#550);
#540=FILL_AREA_STYLE_COLOUR('',#551);
#541=FILL_AREA_STYLE_COLOUR('',#552);
#542=FILL_AREA_STYLE_COLOUR('',#553);
#543=FILL_AREA_STYLE_COLOUR('',#554);
#544=FILL_AREA_STYLE_COLOUR('',#555);
#545=FILL_AREA_STYLE_COLOUR('',#556);
#546=FILL_AREA_STYLE_COLOUR('',#557);
#547=COLOUR_RGB('',0.509803950786591,0.509803950786591,0.588235318660736);
#548=COLOUR_RGB('',0.509803950786591,0.509803950786591,0.588235318660736);
#549=COLOUR_RGB('',0.509803950786591,0.509803950786591,0.588235318660736);
#550=COLOUR_RGB('',0.509803950786591,0.509803950786591,0.588235318660736);
#551=COLOUR_RGB('',0.509803950786591,0.509803950786591,0.588235318660736);
#552=COLOUR_RGB('',0.509803950786591,0.509803950786591,0.588235318660736);
#553=COLOUR_RGB('',0.509803950786591,0.509803950786591,0.588235318660736);
#554=COLOUR_RGB('',0.509803950786591,0.509803950786591,0.588235318660736);
#555=COLOUR_RGB('',0.509803950786591,0.509803950786591,0.588235318660736);
#556=COLOUR_RGB('',0.509803950786591,0.509803950786591,0.588235318660736);
#557=COLOUR_RGB('',0.509803950786591,0.509803950786591,0.588235318660736);
ENDSEC;
END-ISO-10303-21;
