ISO-10303-21;
HEADER;
FILE_DESCRIPTION(('STEP AP214'),'1');
FILE_NAME(' ','  ',('TraceParts'),('TraceParts S.A.'),'XStep 1.0',' ',' ');
FILE_SCHEMA(('automotive_design'));
ENDSEC;
DATA;
#1=MECHANICAL_DESIGN_GEOMETRIC_PRESENTATION_REPRESENTATION(' ',(#10,#11,#12,#13,#14,#15,#16,#17,#18,#19,#20,#21,#22,#23,#24,#25,#26,#27,#28,#29,#30,#31,#32,#33,#34,#35,#36,#37,#38,#39,#40,#41,#42,#43,#44,#45,#46,#47,#48,#49,#50,#51,#52),#6);
#2=PRODUCT_DEFINITION_CONTEXT('',#53,'design');
#3=APPLICATION_PROTOCOL_DEFINITION('INTERNATIONAL STANDARD','automotive_design',1994,#53);
#4=PRODUCT_CATEGORY_RELATIONSHIP('NONE','NONE',#54,#55);
#5=SHAPE_DEFINITION_REPRESENTATION(#56,#57);
#6= (GEOMETRIC_REPRESENTATION_CONTEXT(3)GLOBAL_UNCERTAINTY_ASSIGNED_CONTEXT((#60))GLOBAL_UNIT_ASSIGNED_CONTEXT((#62,#63,#64))REPRESENTATION_CONTEXT('NONE','WORKSPACE'));
#10=STYLED_ITEM('',(#66),#67);
#11=STYLED_ITEM('',(#68),#69);
#12=STYLED_ITEM('',(#70),#71);
#13=STYLED_ITEM('',(#72),#73);
#14=STYLED_ITEM('',(#74),#75);
#15=STYLED_ITEM('',(#76),#77);
#16=STYLED_ITEM('',(#78),#79);
#17=STYLED_ITEM('',(#80),#81);
#18=STYLED_ITEM('',(#82),#83);
#19=STYLED_ITEM('',(#84),#85);
#20=STYLED_ITEM('',(#86),#87);
#21=STYLED_ITEM('',(#88),#89);
#22=STYLED_ITEM('',(#90),#91);
#23=STYLED_ITEM('',(#92),#93);
#24=STYLED_ITEM('',(#94),#95);
#25=STYLED_ITEM('',(#96),#97);
#26=STYLED_ITEM('',(#98),#99);
#27=STYLED_ITEM('',(#100),#101);
#28=STYLED_ITEM('',(#102),#103);
#29=STYLED_ITEM('',(#104),#105);
#30=STYLED_ITEM('',(#106),#107);
#31=STYLED_ITEM('',(#108),#109);
#32=STYLED_ITEM('',(#110),#111);
#33=STYLED_ITEM('',(#112),#113);
#34=STYLED_ITEM('',(#114),#115);
#35=STYLED_ITEM('',(#116),#117);
#36=STYLED_ITEM('',(#118),#119);
#37=STYLED_ITEM('',(#120),#121);
#38=STYLED_ITEM('',(#122),#123);
#39=STYLED_ITEM('',(#124),#125);
#40=STYLED_ITEM('',(#126),#127);
#41=STYLED_ITEM('',(#128),#129);
#42=STYLED_ITEM('',(#130),#131);
#43=STYLED_ITEM('',(#132),#133);
#44=STYLED_ITEM('',(#134),#135);
#45=STYLED_ITEM('',(#136),#137);
#46=STYLED_ITEM('',(#138),#139);
#47=STYLED_ITEM('',(#140),#141);
#48=STYLED_ITEM('',(#142),#143);
#49=STYLED_ITEM('',(#144),#145);
#50=STYLED_ITEM('',(#146),#147);
#51=STYLED_ITEM('',(#148),#149);
#52=STYLED_ITEM('',(#150),#151);
#53=APPLICATION_CONTEXT(' ');
#54=PRODUCT_CATEGORY('part','NONE');
#55=PRODUCT_RELATED_PRODUCT_CATEGORY('detail',' ',(#152));
#56=PRODUCT_DEFINITION_SHAPE('NONE','NONE',#153);
#57=ADVANCED_BREP_SHAPE_REPRESENTATION('1',(#73,#154),#6);
#60=UNCERTAINTY_MEASURE_WITH_UNIT(LENGTH_MEASURE(1.0E-006),#62,'','');
#62= (CONVERSION_BASED_UNIT('MILLIMETRE',#157)LENGTH_UNIT()NAMED_UNIT(#160));
#63= (NAMED_UNIT(#162)PLANE_ANGLE_UNIT()SI_UNIT($,.RADIAN.));
#64= (NAMED_UNIT(#162)SOLID_ANGLE_UNIT()SI_UNIT($,.STERADIAN.));
#66=PRESENTATION_STYLE_ASSIGNMENT((#168));
#67=ADVANCED_FACE('',(#169),#170,.F.);
#68=PRESENTATION_STYLE_ASSIGNMENT((#171));
#69=EDGE_CURVE('',#145,#125,#172,.T.);
#70=PRESENTATION_STYLE_ASSIGNMENT((#173));
#71=EDGE_CURVE('',#101,#81,#174,.T.);
#72=PRESENTATION_STYLE_ASSIGNMENT((#175));
#73=MANIFOLD_SOLID_BREP('1',#176);
#74=PRESENTATION_STYLE_ASSIGNMENT((#177));
#75=EDGE_CURVE('',#81,#101,#178,.T.);
#76=PRESENTATION_STYLE_ASSIGNMENT((#179));
#77=EDGE_CURVE('',#149,#117,#180,.T.);
#78=PRESENTATION_STYLE_ASSIGNMENT((#181));
#79=ADVANCED_FACE('',(#182),#183,.T.);
#80=PRESENTATION_STYLE_ASSIGNMENT((#184));
#81=VERTEX_POINT('',#185);
#82=PRESENTATION_STYLE_ASSIGNMENT((#186));
#83=VERTEX_POINT('',#187);
#84=PRESENTATION_STYLE_ASSIGNMENT((#188));
#85=EDGE_CURVE('',#133,#123,#189,.T.);
#86=PRESENTATION_STYLE_ASSIGNMENT((#190));
#87=EDGE_CURVE('',#125,#145,#191,.T.);
#88=PRESENTATION_STYLE_ASSIGNMENT((#192));
#89=VERTEX_POINT('',#193);
#90=PRESENTATION_STYLE_ASSIGNMENT((#194));
#91=ADVANCED_FACE('',(#195),#196,.T.);
#92=PRESENTATION_STYLE_ASSIGNMENT((#197));
#93=EDGE_CURVE('',#89,#123,#198,.T.);
#94=PRESENTATION_STYLE_ASSIGNMENT((#199));
#95=ADVANCED_FACE('',(#200),#201,.F.);
#96=PRESENTATION_STYLE_ASSIGNMENT((#202));
#97=EDGE_CURVE('',#147,#127,#203,.T.);
#98=PRESENTATION_STYLE_ASSIGNMENT((#204));
#99=EDGE_CURVE('',#123,#133,#205,.T.);
#100=PRESENTATION_STYLE_ASSIGNMENT((#206));
#101=VERTEX_POINT('',#207);
#102=PRESENTATION_STYLE_ASSIGNMENT((#208));
#103=ADVANCED_FACE('',(#209),#210,.F.);
#104=PRESENTATION_STYLE_ASSIGNMENT((#211));
#105=ADVANCED_FACE('',(#212),#213,.F.);
#106=PRESENTATION_STYLE_ASSIGNMENT((#214));
#107=ADVANCED_FACE('',(#215,#216),#217,.T.);
#108=PRESENTATION_STYLE_ASSIGNMENT((#218));
#109=EDGE_CURVE('',#117,#127,#219,.T.);
#110=PRESENTATION_STYLE_ASSIGNMENT((#220));
#111=ADVANCED_FACE('',(#221),#222,.T.);
#112=PRESENTATION_STYLE_ASSIGNMENT((#223));
#113=EDGE_CURVE('',#117,#149,#224,.T.);
#114=PRESENTATION_STYLE_ASSIGNMENT((#225));
#115=EDGE_CURVE('',#83,#89,#226,.T.);
#116=PRESENTATION_STYLE_ASSIGNMENT((#227));
#117=VERTEX_POINT('',#228);
#118=PRESENTATION_STYLE_ASSIGNMENT((#229));
#119=EDGE_CURVE('',#127,#147,#230,.T.);
#120=PRESENTATION_STYLE_ASSIGNMENT((#231));
#121=EDGE_CURVE('',#133,#83,#232,.T.);
#122=PRESENTATION_STYLE_ASSIGNMENT((#233));
#123=VERTEX_POINT('',#234);
#124=PRESENTATION_STYLE_ASSIGNMENT((#235));
#125=VERTEX_POINT('',#236);
#126=PRESENTATION_STYLE_ASSIGNMENT((#237));
#127=VERTEX_POINT('',#238);
#128=PRESENTATION_STYLE_ASSIGNMENT((#239));
#129=ADVANCED_FACE('',(#240),#241,.T.);
#130=PRESENTATION_STYLE_ASSIGNMENT((#242));
#131=EDGE_CURVE('',#149,#101,#243,.T.);
#132=PRESENTATION_STYLE_ASSIGNMENT((#244));
#133=VERTEX_POINT('',#245);
#134=PRESENTATION_STYLE_ASSIGNMENT((#246));
#135=EDGE_CURVE('',#89,#83,#247,.T.);
#136=PRESENTATION_STYLE_ASSIGNMENT((#248));
#137=EDGE_CURVE('',#147,#149,#249,.T.);
#138=PRESENTATION_STYLE_ASSIGNMENT((#250));
#139=EDGE_CURVE('',#145,#133,#251,.T.);
#140=PRESENTATION_STYLE_ASSIGNMENT((#252));
#141=EDGE_CURVE('',#123,#125,#253,.T.);
#142=PRESENTATION_STYLE_ASSIGNMENT((#254));
#143=EDGE_CURVE('',#81,#117,#255,.T.);
#144=PRESENTATION_STYLE_ASSIGNMENT((#256));
#145=VERTEX_POINT('',#257);
#146=PRESENTATION_STYLE_ASSIGNMENT((#258));
#147=VERTEX_POINT('',#259);
#148=PRESENTATION_STYLE_ASSIGNMENT((#260));
#149=VERTEX_POINT('',#261);
#150=PRESENTATION_STYLE_ASSIGNMENT((#262));
#151=ADVANCED_FACE('',(#263,#264),#265,.T.);
#152=PRODUCT('1','1','PART-1-DESC',(#266));
#153=PRODUCT_DEFINITION('NONE','NONE',#267,#2);
#154=AXIS2_PLACEMENT_3D('',#268,#269,#270);
#157=LENGTH_MEASURE_WITH_UNIT(LENGTH_MEASURE(1.0),#271);
#160=DIMENSIONAL_EXPONENTS(1.0,0.0,0.0,0.0,0.0,0.0,0.0);
#162=DIMENSIONAL_EXPONENTS(0.0,0.0,0.0,0.0,0.0,0.0,0.0);
#168=SURFACE_STYLE_USAGE(.BOTH.,#272);
#169=FACE_OUTER_BOUND('',#273,.T.);
#170=CONICAL_SURFACE('',#274,10.75,0.785398163397448);
#171=CURVE_STYLE('',#275,POSITIVE_LENGTH_MEASURE(1.0E-006),#276);
#172=CIRCLE('',#277,11.0);
#173=CURVE_STYLE('',#278,POSITIVE_LENGTH_MEASURE(1.0E-006),#279);
#174=CIRCLE('',#280,18.0);
#175=SURFACE_STYLE_USAGE(.BOTH.,#281);
#176=CLOSED_SHELL('',(#95,#129,#67,#79,#111,#103,#151,#91,#107,#105));
#177=CURVE_STYLE('',#282,POSITIVE_LENGTH_MEASURE(1.0E-006),#283);
#178=CIRCLE('',#284,18.0);
#179=CURVE_STYLE('',#285,POSITIVE_LENGTH_MEASURE(1.0E-006),#286);
#180=CIRCLE('',#287,18.0);
#181=SURFACE_STYLE_USAGE(.BOTH.,#288);
#182=FACE_OUTER_BOUND('',#289,.T.);
#183=SPHERICAL_SURFACE('',#290,27.0000000000003);
#184=POINT_STYLE(' ',#291,POSITIVE_LENGTH_MEASURE(1.0E-006),#292);
#185=CARTESIAN_POINT('',(-18.0,4.64585029209369E-015,6.30000000000001));
#186=POINT_STYLE(' ',#293,POSITIVE_LENGTH_MEASURE(1.0E-006),#294);
#187=CARTESIAN_POINT('',(-10.5,5.17855405600642E-015,-2.8421709430404E-014));
#188=CURVE_STYLE('',#295,POSITIVE_LENGTH_MEASURE(1.0E-006),#296);
#189=CIRCLE('',#297,10.5);
#190=CURVE_STYLE('',#298,POSITIVE_LENGTH_MEASURE(1.0E-006),#299);
#191=CIRCLE('',#300,11.0);
#192=POINT_STYLE(' ',#301,POSITIVE_LENGTH_MEASURE(1.0E-006),#302);
#193=CARTESIAN_POINT('',(10.5000000000001,9.80712925636861E-015,-2.8421709430404E-014));
#194=SURFACE_STYLE_USAGE(.BOTH.,#303);
#195=FACE_OUTER_BOUND('',#304,.T.);
#196=CYLINDRICAL_SURFACE('',#305,18.0);
#197=CURVE_STYLE('',#306,POSITIVE_LENGTH_MEASURE(1.0E-006),#307);
#198=LINE('',#308,#309);
#199=SURFACE_STYLE_USAGE(.BOTH.,#310);
#200=FACE_OUTER_BOUND('',#311,.T.);
#201=CYLINDRICAL_SURFACE('',#312,10.5);
#202=CURVE_STYLE('',#313,POSITIVE_LENGTH_MEASURE(1.0E-006),#314);
#203=CIRCLE('',#315,11.5081857189362);
#204=CURVE_STYLE('',#316,POSITIVE_LENGTH_MEASURE(1.0E-006),#317);
#205=CIRCLE('',#318,10.5);
#206=POINT_STYLE(' ',#319,POSITIVE_LENGTH_MEASURE(1.0E-006),#320);
#207=CARTESIAN_POINT('',(18.0000000000001,1.19192632045076E-014,6.30000000000001));
#208=SURFACE_STYLE_USAGE(.BOTH.,#321);
#209=FACE_OUTER_BOUND('',#322,.T.);
#210=CONICAL_SURFACE('',#323,10.75,0.785398163397448);
#211=SURFACE_STYLE_USAGE(.BOTH.,#324);
#212=FACE_OUTER_BOUND('',#325,.T.);
#213=CYLINDRICAL_SURFACE('',#326,10.5);
#214=SURFACE_STYLE_USAGE(.BOTH.,#327);
#215=FACE_OUTER_BOUND('',#328,.T.);
#216=FACE_BOUND('',#329,.T.);
#217=PLANE('',#330);
#218=CURVE_STYLE('',#331,POSITIVE_LENGTH_MEASURE(1.0E-006),#332);
#219=CIRCLE('',#333,27.0000000000003);
#220=SURFACE_STYLE_USAGE(.BOTH.,#334);
#221=FACE_OUTER_BOUND('',#335,.T.);
#222=SPHERICAL_SURFACE('',#336,27.0000000000003);
#223=CURVE_STYLE('',#337,POSITIVE_LENGTH_MEASURE(1.0E-006),#338);
#224=CIRCLE('',#339,18.0);
#225=CURVE_STYLE('',#340,POSITIVE_LENGTH_MEASURE(1.0E-006),#341);
#226=CIRCLE('',#342,10.5);
#227=POINT_STYLE(' ',#343,POSITIVE_LENGTH_MEASURE(1.0E-006),#344);
#228=CARTESIAN_POINT('',(-17.9999999999999,4.52338965671145E-015,4.29999999999997));
#229=CURVE_STYLE('',#345,POSITIVE_LENGTH_MEASURE(1.0E-006),#346);
#230=CIRCLE('',#347,11.5081857189362);
#231=CURVE_STYLE('',#348,POSITIVE_LENGTH_MEASURE(1.0E-006),#349);
#232=LINE('',#350,#351);
#233=POINT_STYLE(' ',#352,POSITIVE_LENGTH_MEASURE(1.0E-006),#353);
#234=CARTESIAN_POINT('',(10.5000000000001,9.80712925636861E-015,5.80000000000001));
#235=POINT_STYLE(' ',#354,POSITIVE_LENGTH_MEASURE(1.0E-006),#355);
#236=CARTESIAN_POINT('',(11.0000000000001,9.94793818624454E-015,6.30000000000001));
#237=POINT_STYLE(' ',#356,POSITIVE_LENGTH_MEASURE(1.0E-006),#357);
#238=CARTESIAN_POINT('',(-11.5081857189356,5.05509099228226E-015,-4.2632564145606E-014));
#239=SURFACE_STYLE_USAGE(.BOTH.,#358);
#240=FACE_OUTER_BOUND('',#359,.T.);
#241=CYLINDRICAL_SURFACE('',#360,18.0);
#242=CURVE_STYLE('',#361,POSITIVE_LENGTH_MEASURE(1.0E-006),#362);
#243=LINE('',#363,#364);
#244=POINT_STYLE(' ',#365,POSITIVE_LENGTH_MEASURE(1.0E-006),#366);
#245=CARTESIAN_POINT('',(-10.5,5.53368989861491E-015,5.80000000000001));
#246=CURVE_STYLE('',#367,POSITIVE_LENGTH_MEASURE(1.0E-006),#368);
#247=CIRCLE('',#369,10.5);
#248=CURVE_STYLE('',#370,POSITIVE_LENGTH_MEASURE(1.0E-006),#371);
#249=CIRCLE('',#372,27.0000000000003);
#250=CURVE_STYLE('',#373,POSITIVE_LENGTH_MEASURE(1.0E-006),#374);
#251=LINE('',#375,#376);
#252=CURVE_STYLE('',#377,POSITIVE_LENGTH_MEASURE(1.0E-006),#378);
#253=LINE('',#379,#380);
#254=CURVE_STYLE('',#381,POSITIVE_LENGTH_MEASURE(1.0E-006),#382);
#255=LINE('',#383,#384);
#256=POINT_STYLE(' ',#385,POSITIVE_LENGTH_MEASURE(1.0E-006),#386);
#257=CARTESIAN_POINT('',(-11.0,5.50307473976935E-015,6.30000000000001));
#258=POINT_STYLE(' ',#387,POSITIVE_LENGTH_MEASURE(1.0E-006),#388);
#259=CARTESIAN_POINT('',(11.5081857189363,1.07785169378384E-014,-1.4210854715202E-014));
#260=POINT_STYLE(' ',#389,POSITIVE_LENGTH_MEASURE(1.0E-006),#390);
#261=CARTESIAN_POINT('',(18.0000000000001,1.23685003411235E-014,4.29999999999984));
#262=SURFACE_STYLE_USAGE(.BOTH.,#391);
#263=FACE_OUTER_BOUND('',#392,.T.);
#264=FACE_BOUND('',#393,.T.);
#265=PLANE('',#394);
#266=PRODUCT_CONTEXT('',#53,'mechanical');
#267=PRODUCT_DEFINITION_FORMATION_WITH_SPECIFIED_SOURCE(' ','NONE',#152,.NOT_KNOWN.);
#268=CARTESIAN_POINT('',(0.0,0.0,0.0));
#269=DIRECTION('',(0.0,0.0,1.0));
#270=DIRECTION('',(1.0,0.0,0.0));
#271= (NAMED_UNIT(#160)LENGTH_UNIT()SI_UNIT(.MILLI.,.METRE.));
#272=SURFACE_SIDE_STYLE('',(#396));
#273=EDGE_LOOP('',(#397,#398,#399,#400));
#274=AXIS2_PLACEMENT_3D('',#401,#402,#403);
#275=DRAUGHTING_PRE_DEFINED_CURVE_FONT('continuous');
#276=COLOUR_RGB('',0.509803950786591,0.509803950786591,0.588235318660736);
#277=AXIS2_PLACEMENT_3D('',#404,#405,#406);
#278=DRAUGHTING_PRE_DEFINED_CURVE_FONT('continuous');
#279=COLOUR_RGB('',0.509803950786591,0.509803950786591,0.588235318660736);
#280=AXIS2_PLACEMENT_3D('',#407,#408,#409);
#281=SURFACE_SIDE_STYLE('',(#410));
#282=DRAUGHTING_PRE_DEFINED_CURVE_FONT('continuous');
#283=COLOUR_RGB('',0.509803950786591,0.509803950786591,0.588235318660736);
#284=AXIS2_PLACEMENT_3D('',#411,#412,#413);
#285=DRAUGHTING_PRE_DEFINED_CURVE_FONT('continuous');
#286=COLOUR_RGB('',0.509803950786591,0.509803950786591,0.588235318660736);
#287=AXIS2_PLACEMENT_3D('',#414,#415,#416);
#288=SURFACE_SIDE_STYLE('',(#417));
#289=EDGE_LOOP('',(#418,#419,#420,#421));
#290=AXIS2_PLACEMENT_3D('',#422,#423,#424);
#291=PRE_DEFINED_MARKER('');
#292=COLOUR_RGB('',0.509803950786591,0.509803950786591,0.588235318660736);
#293=PRE_DEFINED_MARKER('');
#294=COLOUR_RGB('',0.509803950786591,0.509803950786591,0.588235318660736);
#295=DRAUGHTING_PRE_DEFINED_CURVE_FONT('continuous');
#296=COLOUR_RGB('',0.509803950786591,0.509803950786591,0.588235318660736);
#297=AXIS2_PLACEMENT_3D('',#425,#426,#427);
#298=DRAUGHTING_PRE_DEFINED_CURVE_FONT('continuous');
#299=COLOUR_RGB('',0.509803950786591,0.509803950786591,0.588235318660736);
#300=AXIS2_PLACEMENT_3D('',#428,#429,#430);
#301=PRE_DEFINED_MARKER('');
#302=COLOUR_RGB('',0.509803950786591,0.509803950786591,0.588235318660736);
#303=SURFACE_SIDE_STYLE('',(#431));
#304=EDGE_LOOP('',(#432,#433,#434,#435));
#305=AXIS2_PLACEMENT_3D('',#436,#437,#438);
#306=DRAUGHTING_PRE_DEFINED_CURVE_FONT('continuous');
#307=COLOUR_RGB('',0.509803950786591,0.509803950786591,0.588235318660736);
#308=CARTESIAN_POINT('',(10.5000000000001,9.80712925636861E-015,2.89999999999999));
#309=VECTOR('',#439,1.0);
#310=SURFACE_SIDE_STYLE('',(#440));
#311=EDGE_LOOP('',(#441,#442,#443,#444));
#312=AXIS2_PLACEMENT_3D('',#445,#446,#447);
#313=DRAUGHTING_PRE_DEFINED_CURVE_FONT('continuous');
#314=COLOUR_RGB('',0.509803950786591,0.509803950786591,0.588235318660736);
#315=AXIS2_PLACEMENT_3D('',#448,#449,#450);
#316=DRAUGHTING_PRE_DEFINED_CURVE_FONT('continuous');
#317=COLOUR_RGB('',0.509803950786591,0.509803950786591,0.588235318660736);
#318=AXIS2_PLACEMENT_3D('',#451,#452,#453);
#319=PRE_DEFINED_MARKER('');
#320=COLOUR_RGB('',0.509803950786591,0.509803950786591,0.588235318660736);
#321=SURFACE_SIDE_STYLE('',(#454));
#322=EDGE_LOOP('',(#455,#456,#457,#458));
#323=AXIS2_PLACEMENT_3D('',#459,#460,#461);
#324=SURFACE_SIDE_STYLE('',(#462));
#325=EDGE_LOOP('',(#463,#464,#465,#466));
#326=AXIS2_PLACEMENT_3D('',#467,#468,#469);
#327=SURFACE_SIDE_STYLE('',(#470));
#328=EDGE_LOOP('',(#471,#472));
#329=EDGE_LOOP('',(#473,#474));
#330=AXIS2_PLACEMENT_3D('',#475,#476,#477);
#331=DRAUGHTING_PRE_DEFINED_CURVE_FONT('continuous');
#332=COLOUR_RGB('',0.509803950786591,0.509803950786591,0.588235318660736);
#333=AXIS2_PLACEMENT_3D('',#478,#479,#480);
#334=SURFACE_SIDE_STYLE('',(#481));
#335=EDGE_LOOP('',(#482,#483,#484,#485));
#336=AXIS2_PLACEMENT_3D('',#486,#487,#488);
#337=DRAUGHTING_PRE_DEFINED_CURVE_FONT('continuous');
#338=COLOUR_RGB('',0.509803950786591,0.509803950786591,0.588235318660736);
#339=AXIS2_PLACEMENT_3D('',#489,#490,#491);
#340=DRAUGHTING_PRE_DEFINED_CURVE_FONT('continuous');
#341=COLOUR_RGB('',0.509803950786591,0.509803950786591,0.588235318660736);
#342=AXIS2_PLACEMENT_3D('',#492,#493,#494);
#343=PRE_DEFINED_MARKER('');
#344=COLOUR_RGB('',0.509803950786591,0.509803950786591,0.588235318660736);
#345=DRAUGHTING_PRE_DEFINED_CURVE_FONT('continuous');
#346=COLOUR_RGB('',0.509803950786591,0.509803950786591,0.588235318660736);
#347=AXIS2_PLACEMENT_3D('',#495,#496,#497);
#348=DRAUGHTING_PRE_DEFINED_CURVE_FONT('continuous');
#349=COLOUR_RGB('',0.509803950786591,0.509803950786591,0.588235318660736);
#350=CARTESIAN_POINT('',(-10.5,3.89315420157933E-015,2.89999999999999));
#351=VECTOR('',#498,1.0);
#352=PRE_DEFINED_MARKER('');
#353=COLOUR_RGB('',0.509803950786591,0.509803950786591,0.588235318660736);
#354=PRE_DEFINED_MARKER('');
#355=COLOUR_RGB('',0.509803950786591,0.509803950786591,0.588235318660736);
#356=PRE_DEFINED_MARKER('');
#357=COLOUR_RGB('',0.509803950786591,0.509803950786591,0.588235318660736);
#358=SURFACE_SIDE_STYLE('',(#499));
#359=EDGE_LOOP('',(#500,#501,#502,#503));
#360=AXIS2_PLACEMENT_3D('',#504,#505,#506);
#361=DRAUGHTING_PRE_DEFINED_CURVE_FONT('continuous');
#362=COLOUR_RGB('',0.509803950786591,0.509803950786591,0.588235318660736);
#363=CARTESIAN_POINT('',(18.0000000000001,1.19192632045076E-014,5.29999999999993));
#364=VECTOR('',#507,1.0);
#365=PRE_DEFINED_MARKER('');
#366=COLOUR_RGB('',0.509803950786591,0.509803950786591,0.588235318660736);
#367=DRAUGHTING_PRE_DEFINED_CURVE_FONT('continuous');
#368=COLOUR_RGB('',0.509803950786591,0.509803950786591,0.588235318660736);
#369=AXIS2_PLACEMENT_3D('',#508,#509,#510);
#370=DRAUGHTING_PRE_DEFINED_CURVE_FONT('continuous');
#371=COLOUR_RGB('',0.509803950786591,0.509803950786591,0.588235318660736);
#372=AXIS2_PLACEMENT_3D('',#511,#512,#513);
#373=DRAUGHTING_PRE_DEFINED_CURVE_FONT('continuous');
#374=COLOUR_RGB('',0.509803950786591,0.509803950786591,0.588235318660736);
#375=CARTESIAN_POINT('',(-10.75,3.82274973664136E-015,6.05000000000001));
#376=VECTOR('',#514,1.0);
#377=DRAUGHTING_PRE_DEFINED_CURVE_FONT('continuous');
#378=COLOUR_RGB('',0.509803950786591,0.509803950786591,0.588235318660736);
#379=CARTESIAN_POINT('',(10.7500000000001,9.87753372130658E-015,6.05000000000001));
#380=VECTOR('',#515,1.0);
#381=DRAUGHTING_PRE_DEFINED_CURVE_FONT('continuous');
#382=COLOUR_RGB('',0.509803950786591,0.509803950786591,0.588235318660736);
#383=CARTESIAN_POINT('',(-18.0,1.78102025344031E-015,5.29999999999993));
#384=VECTOR('',#516,1.0);
#385=PRE_DEFINED_MARKER('');
#386=COLOUR_RGB('',0.509803950786591,0.509803950786591,0.588235318660736);
#387=PRE_DEFINED_MARKER('');
#388=COLOUR_RGB('',0.509803950786591,0.509803950786591,0.588235318660736);
#389=PRE_DEFINED_MARKER('');
#390=COLOUR_RGB('',0.509803950786591,0.509803950786591,0.588235318660736);
#391=SURFACE_SIDE_STYLE('',(#517));
#392=EDGE_LOOP('',(#518,#519));
#393=EDGE_LOOP('',(#520,#521));
#394=AXIS2_PLACEMENT_3D('',#522,#523,#524);
#396=SURFACE_STYLE_FILL_AREA(#525);
#397=ORIENTED_EDGE('',*,*,#139,.F.);
#398=ORIENTED_EDGE('',*,*,#87,.F.);
#399=ORIENTED_EDGE('',*,*,#141,.F.);
#400=ORIENTED_EDGE('',*,*,#99,.T.);
#401=CARTESIAN_POINT('',(2.8421709430404E-014,6.85014172897397E-015,6.05000000000001));
#402=DIRECTION('',(0.0,-0.0,1.0));
#403=DIRECTION('',(-1.0,-1.59157224369632E-016,0.0));
#404=CARTESIAN_POINT('',(2.8421709430404E-014,6.85014172897397E-015,6.30000000000001));
#405=DIRECTION('',(-0.0,0.0,-1.0));
#406=DIRECTION('',(-1.0,-1.59157224369632E-016,0.0));
#407=CARTESIAN_POINT('',(2.8421709430404E-014,6.85014172897397E-015,6.30000000000001));
#408=DIRECTION('',(-0.0,0.0,-1.0));
#409=DIRECTION('',(-1.0,-1.59157224369632E-016,0.0));
#410=SURFACE_STYLE_FILL_AREA(#526);
#411=CARTESIAN_POINT('',(2.8421709430404E-014,6.85014172897397E-015,6.30000000000001));
#412=DIRECTION('',(-0.0,0.0,-1.0));
#413=DIRECTION('',(-1.0,-1.59157224369632E-016,0.0));
#414=CARTESIAN_POINT('',(2.8421709430404E-014,6.85014172897397E-015,4.29999999999984));
#415=DIRECTION('',(0.0,0.0,1.0));
#416=DIRECTION('',(-1.0,-1.59157224369632E-016,0.0));
#417=SURFACE_STYLE_FILL_AREA(#527);
#418=ORIENTED_EDGE('',*,*,#137,.F.);
#419=ORIENTED_EDGE('',*,*,#119,.F.);
#420=ORIENTED_EDGE('',*,*,#109,.F.);
#421=ORIENTED_EDGE('',*,*,#77,.F.);
#422=CARTESIAN_POINT('',(1.58095758706622E-013,7.95991746736301E-015,24.4246117974983));
#423=DIRECTION('',(0.0,0.0,-1.0));
#424=DIRECTION('',(1.0,1.22460635382238E-016,0.0));
#425=CARTESIAN_POINT('',(2.8421709430404E-014,6.85014172897397E-015,5.80000000000001));
#426=DIRECTION('',(-0.0,0.0,-1.0));
#427=DIRECTION('',(-1.0,-1.59157224369632E-016,0.0));
#428=CARTESIAN_POINT('',(2.8421709430404E-014,6.85014172897397E-015,6.30000000000001));
#429=DIRECTION('',(-0.0,0.0,-1.0));
#430=DIRECTION('',(-1.0,-1.59157224369632E-016,0.0));
#431=SURFACE_STYLE_FILL_AREA(#528);
#432=ORIENTED_EDGE('',*,*,#143,.T.);
#433=ORIENTED_EDGE('',*,*,#113,.T.);
#434=ORIENTED_EDGE('',*,*,#131,.T.);
#435=ORIENTED_EDGE('',*,*,#71,.T.);
#436=CARTESIAN_POINT('',(2.8421709430404E-014,6.85014172897397E-015,3.15000000000001));
#437=DIRECTION('',(0.0,-0.0,1.0));
#438=DIRECTION('',(-1.0,-1.59157224369632E-016,0.0));
#439=DIRECTION('',(0.0,0.0,1.0));
#440=SURFACE_STYLE_FILL_AREA(#529);
#441=ORIENTED_EDGE('',*,*,#121,.F.);
#442=ORIENTED_EDGE('',*,*,#99,.F.);
#443=ORIENTED_EDGE('',*,*,#93,.F.);
#444=ORIENTED_EDGE('',*,*,#135,.T.);
#445=CARTESIAN_POINT('',(2.8421709430404E-014,6.85014172897397E-015,2.89999999999999));
#446=DIRECTION('',(0.0,-0.0,1.0));
#447=DIRECTION('',(-1.0,-1.59157224369632E-016,0.0));
#448=CARTESIAN_POINT('',(1.58095758706622E-013,7.95991746736301E-015,-1.4210854715202E-014));
#449=DIRECTION('',(0.0,0.0,-1.0));
#450=DIRECTION('',(0.0,-1.0,0.0));
#451=CARTESIAN_POINT('',(2.8421709430404E-014,6.85014172897397E-015,5.80000000000001));
#452=DIRECTION('',(-0.0,0.0,-1.0));
#453=DIRECTION('',(-1.0,-1.59157224369632E-016,0.0));
#454=SURFACE_STYLE_FILL_AREA(#530);
#455=ORIENTED_EDGE('',*,*,#139,.T.);
#456=ORIENTED_EDGE('',*,*,#85,.T.);
#457=ORIENTED_EDGE('',*,*,#141,.T.);
#458=ORIENTED_EDGE('',*,*,#69,.F.);
#459=CARTESIAN_POINT('',(2.8421709430404E-014,6.85014172897397E-015,6.05000000000001));
#460=DIRECTION('',(0.0,-0.0,1.0));
#461=DIRECTION('',(-1.0,-1.59157224369632E-016,0.0));
#462=SURFACE_STYLE_FILL_AREA(#531);
#463=ORIENTED_EDGE('',*,*,#121,.T.);
#464=ORIENTED_EDGE('',*,*,#115,.T.);
#465=ORIENTED_EDGE('',*,*,#93,.T.);
#466=ORIENTED_EDGE('',*,*,#85,.F.);
#467=CARTESIAN_POINT('',(2.8421709430404E-014,6.85014172897397E-015,2.89999999999999));
#468=DIRECTION('',(0.0,-0.0,1.0));
#469=DIRECTION('',(-1.0,-1.59157224369632E-016,0.0));
#470=SURFACE_STYLE_FILL_AREA(#532);
#471=ORIENTED_EDGE('',*,*,#119,.T.);
#472=ORIENTED_EDGE('',*,*,#97,.T.);
#473=ORIENTED_EDGE('',*,*,#115,.F.);
#474=ORIENTED_EDGE('',*,*,#135,.F.);
#475=CARTESIAN_POINT('',(-14.25,4.71932667332303E-015,-1.4210854715202E-014));
#476=DIRECTION('',(0.0,0.0,-1.0));
#477=DIRECTION('',(1.0,1.22460635382238E-016,0.0));
#478=CARTESIAN_POINT('',(1.58095758706622E-013,7.95991746736301E-015,24.4246117974983));
#479=DIRECTION('',(2.44921270764476E-016,-1.0,0.0));
#480=DIRECTION('',(-0.0,0.0,1.0));
#481=SURFACE_STYLE_FILL_AREA(#533);
#482=ORIENTED_EDGE('',*,*,#137,.T.);
#483=ORIENTED_EDGE('',*,*,#113,.F.);
#484=ORIENTED_EDGE('',*,*,#109,.T.);
#485=ORIENTED_EDGE('',*,*,#97,.F.);
#486=CARTESIAN_POINT('',(1.58095758706622E-013,7.95991746736301E-015,24.4246117974983));
#487=DIRECTION('',(0.0,0.0,-1.0));
#488=DIRECTION('',(1.0,1.22460635382238E-016,0.0));
#489=CARTESIAN_POINT('',(2.8421709430404E-014,6.85014172897397E-015,4.29999999999984));
#490=DIRECTION('',(0.0,0.0,1.0));
#491=DIRECTION('',(-1.0,-1.59157224369632E-016,0.0));
#492=CARTESIAN_POINT('',(2.8421709430404E-014,6.85014172897397E-015,-2.8421709430404E-014));
#493=DIRECTION('',(-0.0,0.0,-1.0));
#494=DIRECTION('',(-1.0,-1.59157224369632E-016,0.0));
#495=CARTESIAN_POINT('',(1.58095758706622E-013,7.95991746736301E-015,-1.4210854715202E-014));
#496=DIRECTION('',(0.0,0.0,-1.0));
#497=DIRECTION('',(0.0,-1.0,0.0));
#498=DIRECTION('',(0.0,0.0,-1.0));
#499=SURFACE_STYLE_FILL_AREA(#534);
#500=ORIENTED_EDGE('',*,*,#143,.F.);
#501=ORIENTED_EDGE('',*,*,#75,.T.);
#502=ORIENTED_EDGE('',*,*,#131,.F.);
#503=ORIENTED_EDGE('',*,*,#77,.T.);
#504=CARTESIAN_POINT('',(2.8421709430404E-014,6.85014172897397E-015,3.15000000000001));
#505=DIRECTION('',(0.0,-0.0,1.0));
#506=DIRECTION('',(-1.0,-1.59157224369632E-016,0.0));
#507=DIRECTION('',(-0.0,-0.0,1.0));
#508=CARTESIAN_POINT('',(2.8421709430404E-014,6.85014172897397E-015,-2.8421709430404E-014));
#509=DIRECTION('',(-0.0,0.0,-1.0));
#510=DIRECTION('',(-1.0,-1.59157224369632E-016,0.0));
#511=CARTESIAN_POINT('',(1.58095758706622E-013,7.95991746736301E-015,24.4246117974983));
#512=DIRECTION('',(2.44921270764476E-016,-1.0,0.0));
#513=DIRECTION('',(-0.0,0.0,1.0));
#514=DIRECTION('',(0.707106781186548,1.99133898333789E-016,-0.707106781186547));
#515=DIRECTION('',(0.707106781186548,1.99133898333789E-016,0.707106781186547));
#516=DIRECTION('',(0.0,0.0,-1.0));
#517=SURFACE_STYLE_FILL_AREA(#535);
#518=ORIENTED_EDGE('',*,*,#75,.F.);
#519=ORIENTED_EDGE('',*,*,#71,.F.);
#520=ORIENTED_EDGE('',*,*,#69,.T.);
#521=ORIENTED_EDGE('',*,*,#87,.T.);
#522=CARTESIAN_POINT('',(-14.5,5.07446251593152E-015,6.30000000000001));
#523=DIRECTION('',(0.0,0.0,1.0));
#524=DIRECTION('',(-1.0,-1.22460635382238E-016,0.0));
#525=FILL_AREA_STYLE('',(#536));
#526=FILL_AREA_STYLE('',(#537));
#527=FILL_AREA_STYLE('',(#538));
#528=FILL_AREA_STYLE('',(#539));
#529=FILL_AREA_STYLE('',(#540));
#530=FILL_AREA_STYLE('',(#541));
#531=FILL_AREA_STYLE('',(#542));
#532=FILL_AREA_STYLE('',(#543));
#533=FILL_AREA_STYLE('',(#544));
#534=FILL_AREA_STYLE('',(#545));
#535=FILL_AREA_STYLE('',(#546));
#536=FILL_AREA_STYLE_COLOUR('',#547);
#537=FILL_AREA_STYLE_COLOUR('',#548);
#538=FILL_AREA_STYLE_COLOUR('',#549);
#539=FILL_AREA_STYLE_COLOUR('',#550);
#540=FILL_AREA_STYLE_COLOUR('',#551);
#541=FILL_AREA_STYLE_COLOUR('',#552);
#542=FILL_AREA_STYLE_COLOUR('',#553);
#543=FILL_AREA_STYLE_COLOUR('',#554);
#544=FILL_AREA_STYLE_COLOUR('',#555);
#545=FILL_AREA_STYLE_COLOUR('',#556);
#546=FILL_AREA_STYLE_COLOUR('',#557);
#547=COLOUR_RGB('',0.509803950786591,0.509803950786591,0.588235318660736);
#548=COLOUR_RGB('',0.509803950786591,0.509803950786591,0.588235318660736);
#549=COLOUR_RGB('',0.509803950786591,0.509803950786591,0.588235318660736);
#550=COLOUR_RGB('',0.509803950786591,0.509803950786591,0.588235318660736);
#551=COLOUR_RGB('',0.509803950786591,0.509803950786591,0.588235318660736);
#552=COLOUR_RGB('',0.509803950786591,0.509803950786591,0.588235318660736);
#553=COLOUR_RGB('',0.509803950786591,0.509803950786591,0.588235318660736);
#554=COLOUR_RGB('',0.509803950786591,0.509803950786591,0.588235318660736);
#555=COLOUR_RGB('',0.509803950786591,0.509803950786591,0.588235318660736);
#556=COLOUR_RGB('',0.509803950786591,0.509803950786591,0.588235318660736);
#557=COLOUR_RGB('',0.509803950786591,0.509803950786591,0.588235318660736);
ENDSEC;
END-ISO-10303-21;
