ISO-10303-21;
HEADER;
FILE_DESCRIPTION(('STEP AP214'),'1');
FILE_NAME(' ','  ',('TraceParts'),('TraceParts S.A.'),'XStep 1.0',' ',' ');
FILE_SCHEMA(('automotive_design'));
ENDSEC;
DATA;
#1=MECHANICAL_DESIGN_GEOMETRIC_PRESENTATION_REPRESENTATION(' ',(#10,#11,#12,#13,#14,#15,#16,#17,#18,#19,#20,#21,#22,#23,#24,#25,#26,#27,#28,#29,#30,#31,#32,#33,#34,#35,#36,#37,#38,#39,#40,#41,#42,#43,#44,#45,#46,#47,#48,#49,#50,#51,#52),#6);
#2=PRODUCT_DEFINITION_CONTEXT('',#53,'design');
#3=APPLICATION_PROTOCOL_DEFINITION('INTERNATIONAL STANDARD','automotive_design',1994,#53);
#4=PRODUCT_CATEGORY_RELATIONSHIP('NONE','NONE',#54,#55);
#5=SHAPE_DEFINITION_REPRESENTATION(#56,#57);
#6= (GEOMETRIC_REPRESENTATION_CONTEXT(3)GLOBAL_UNCERTAINTY_ASSIGNED_CONTEXT((#60))GLOBAL_UNIT_ASSIGNED_CONTEXT((#62,#63,#64))REPRESENTATION_CONTEXT('NONE','WORKSPACE'));
#10=STYLED_ITEM('',(#66),#67);
#11=STYLED_ITEM('',(#68),#69);
#12=STYLED_ITEM('',(#70),#71);
#13=STYLED_ITEM('',(#72),#73);
#14=STYLED_ITEM('',(#74),#75);
#15=STYLED_ITEM('',(#76),#77);
#16=STYLED_ITEM('',(#78),#79);
#17=STYLED_ITEM('',(#80),#81);
#18=STYLED_ITEM('',(#82),#83);
#19=STYLED_ITEM('',(#84),#85);
#20=STYLED_ITEM('',(#86),#87);
#21=STYLED_ITEM('',(#88),#89);
#22=STYLED_ITEM('',(#90),#91);
#23=STYLED_ITEM('',(#92),#93);
#24=STYLED_ITEM('',(#94),#95);
#25=STYLED_ITEM('',(#96),#97);
#26=STYLED_ITEM('',(#98),#99);
#27=STYLED_ITEM('',(#100),#101);
#28=STYLED_ITEM('',(#102),#103);
#29=STYLED_ITEM('',(#104),#105);
#30=STYLED_ITEM('',(#106),#107);
#31=STYLED_ITEM('',(#108),#109);
#32=STYLED_ITEM('',(#110),#111);
#33=STYLED_ITEM('',(#112),#113);
#34=STYLED_ITEM('',(#114),#115);
#35=STYLED_ITEM('',(#116),#117);
#36=STYLED_ITEM('',(#118),#119);
#37=STYLED_ITEM('',(#120),#121);
#38=STYLED_ITEM('',(#122),#123);
#39=STYLED_ITEM('',(#124),#125);
#40=STYLED_ITEM('',(#126),#127);
#41=STYLED_ITEM('',(#128),#129);
#42=STYLED_ITEM('',(#130),#131);
#43=STYLED_ITEM('',(#132),#133);
#44=STYLED_ITEM('',(#134),#135);
#45=STYLED_ITEM('',(#136),#137);
#46=STYLED_ITEM('',(#138),#139);
#47=STYLED_ITEM('',(#140),#141);
#48=STYLED_ITEM('',(#142),#143);
#49=STYLED_ITEM('',(#144),#145);
#50=STYLED_ITEM('',(#146),#147);
#51=STYLED_ITEM('',(#148),#149);
#52=STYLED_ITEM('',(#150),#151);
#53=APPLICATION_CONTEXT(' ');
#54=PRODUCT_CATEGORY('part','NONE');
#55=PRODUCT_RELATED_PRODUCT_CATEGORY('detail',' ',(#152));
#56=PRODUCT_DEFINITION_SHAPE('NONE','NONE',#153);
#57=ADVANCED_BREP_SHAPE_REPRESENTATION('1',(#107,#154),#6);
#60=UNCERTAINTY_MEASURE_WITH_UNIT(LENGTH_MEASURE(1.0E-006),#62,'','');
#62= (CONVERSION_BASED_UNIT('MILLIMETRE',#157)LENGTH_UNIT()NAMED_UNIT(#160));
#63= (NAMED_UNIT(#162)PLANE_ANGLE_UNIT()SI_UNIT($,.RADIAN.));
#64= (NAMED_UNIT(#162)SOLID_ANGLE_UNIT()SI_UNIT($,.STERADIAN.));
#66=PRESENTATION_STYLE_ASSIGNMENT((#168));
#67=ADVANCED_FACE('',(#169,#170),#171,.T.);
#68=PRESENTATION_STYLE_ASSIGNMENT((#172));
#69=ADVANCED_FACE('',(#173),#174,.F.);
#70=PRESENTATION_STYLE_ASSIGNMENT((#175));
#71=EDGE_CURVE('',#145,#109,#176,.T.);
#72=PRESENTATION_STYLE_ASSIGNMENT((#177));
#73=ADVANCED_FACE('',(#178),#179,.F.);
#74=PRESENTATION_STYLE_ASSIGNMENT((#180));
#75=EDGE_CURVE('',#111,#149,#181,.T.);
#76=PRESENTATION_STYLE_ASSIGNMENT((#182));
#77=EDGE_CURVE('',#149,#119,#183,.T.);
#78=PRESENTATION_STYLE_ASSIGNMENT((#184));
#79=EDGE_CURVE('',#125,#109,#185,.T.);
#80=PRESENTATION_STYLE_ASSIGNMENT((#186));
#81=EDGE_CURVE('',#101,#139,#187,.T.);
#82=PRESENTATION_STYLE_ASSIGNMENT((#188));
#83=EDGE_CURVE('',#149,#111,#189,.T.);
#84=PRESENTATION_STYLE_ASSIGNMENT((#190));
#85=EDGE_CURVE('',#151,#139,#191,.T.);
#86=PRESENTATION_STYLE_ASSIGNMENT((#192));
#87=EDGE_CURVE('',#125,#151,#193,.T.);
#88=PRESENTATION_STYLE_ASSIGNMENT((#194));
#89=ADVANCED_FACE('',(#195,#196),#197,.T.);
#90=PRESENTATION_STYLE_ASSIGNMENT((#198));
#91=EDGE_CURVE('',#151,#145,#199,.T.);
#92=PRESENTATION_STYLE_ASSIGNMENT((#200));
#93=EDGE_CURVE('',#139,#101,#201,.T.);
#94=PRESENTATION_STYLE_ASSIGNMENT((#202));
#95=VERTEX_POINT('',#203);
#96=PRESENTATION_STYLE_ASSIGNMENT((#204));
#97=ADVANCED_FACE('',(#205),#206,.T.);
#98=PRESENTATION_STYLE_ASSIGNMENT((#207));
#99=ADVANCED_FACE('',(#208),#209,.T.);
#100=PRESENTATION_STYLE_ASSIGNMENT((#210));
#101=VERTEX_POINT('',#211);
#102=PRESENTATION_STYLE_ASSIGNMENT((#212));
#103=EDGE_CURVE('',#147,#133,#213,.T.);
#104=PRESENTATION_STYLE_ASSIGNMENT((#214));
#105=EDGE_CURVE('',#119,#95,#215,.T.);
#106=PRESENTATION_STYLE_ASSIGNMENT((#216));
#107=MANIFOLD_SOLID_BREP('1',#217);
#108=PRESENTATION_STYLE_ASSIGNMENT((#218));
#109=VERTEX_POINT('',#219);
#110=PRESENTATION_STYLE_ASSIGNMENT((#220));
#111=VERTEX_POINT('',#221);
#112=PRESENTATION_STYLE_ASSIGNMENT((#222));
#113=EDGE_CURVE('',#119,#133,#223,.T.);
#114=PRESENTATION_STYLE_ASSIGNMENT((#224));
#115=ADVANCED_FACE('',(#225),#226,.F.);
#116=PRESENTATION_STYLE_ASSIGNMENT((#227));
#117=EDGE_CURVE('',#145,#151,#228,.T.);
#118=PRESENTATION_STYLE_ASSIGNMENT((#229));
#119=VERTEX_POINT('',#230);
#120=PRESENTATION_STYLE_ASSIGNMENT((#231));
#121=ADVANCED_FACE('',(#232),#233,.T.);
#122=PRESENTATION_STYLE_ASSIGNMENT((#234));
#123=ADVANCED_FACE('',(#235),#236,.F.);
#124=PRESENTATION_STYLE_ASSIGNMENT((#237));
#125=VERTEX_POINT('',#238);
#126=PRESENTATION_STYLE_ASSIGNMENT((#239));
#127=ADVANCED_FACE('',(#240),#241,.T.);
#128=PRESENTATION_STYLE_ASSIGNMENT((#242));
#129=EDGE_CURVE('',#109,#125,#243,.T.);
#130=PRESENTATION_STYLE_ASSIGNMENT((#244));
#131=EDGE_CURVE('',#95,#111,#245,.T.);
#132=PRESENTATION_STYLE_ASSIGNMENT((#246));
#133=VERTEX_POINT('',#247);
#134=PRESENTATION_STYLE_ASSIGNMENT((#248));
#135=EDGE_CURVE('',#133,#147,#249,.T.);
#136=PRESENTATION_STYLE_ASSIGNMENT((#250));
#137=EDGE_CURVE('',#95,#119,#251,.T.);
#138=PRESENTATION_STYLE_ASSIGNMENT((#252));
#139=VERTEX_POINT('',#253);
#140=PRESENTATION_STYLE_ASSIGNMENT((#254));
#141=EDGE_CURVE('',#101,#145,#255,.T.);
#142=PRESENTATION_STYLE_ASSIGNMENT((#256));
#143=EDGE_CURVE('',#147,#95,#257,.T.);
#144=PRESENTATION_STYLE_ASSIGNMENT((#258));
#145=VERTEX_POINT('',#259);
#146=PRESENTATION_STYLE_ASSIGNMENT((#260));
#147=VERTEX_POINT('',#261);
#148=PRESENTATION_STYLE_ASSIGNMENT((#262));
#149=VERTEX_POINT('',#263);
#150=PRESENTATION_STYLE_ASSIGNMENT((#264));
#151=VERTEX_POINT('',#265);
#152=PRODUCT('1','1','PART-1-DESC',(#266));
#153=PRODUCT_DEFINITION('NONE','NONE',#267,#2);
#154=AXIS2_PLACEMENT_3D('',#268,#269,#270);
#157=LENGTH_MEASURE_WITH_UNIT(LENGTH_MEASURE(1.0),#271);
#160=DIMENSIONAL_EXPONENTS(1.0,0.0,0.0,0.0,0.0,0.0,0.0);
#162=DIMENSIONAL_EXPONENTS(0.0,0.0,0.0,0.0,0.0,0.0,0.0);
#168=SURFACE_STYLE_USAGE(.BOTH.,#272);
#169=FACE_OUTER_BOUND('',#273,.T.);
#170=FACE_BOUND('',#274,.T.);
#171=PLANE('',#275);
#172=SURFACE_STYLE_USAGE(.BOTH.,#276);
#173=FACE_OUTER_BOUND('',#277,.T.);
#174=CYLINDRICAL_SURFACE('',#278,6.50000000000003);
#175=CURVE_STYLE('',#279,POSITIVE_LENGTH_MEASURE(1.0E-006),#280);
#176=LINE('',#281,#282);
#177=SURFACE_STYLE_USAGE(.BOTH.,#283);
#178=FACE_OUTER_BOUND('',#284,.T.);
#179=CYLINDRICAL_SURFACE('',#285,6.50000000000003);
#180=CURVE_STYLE('',#286,POSITIVE_LENGTH_MEASURE(1.0E-006),#287);
#181=CIRCLE('',#288,12.0);
#182=CURVE_STYLE('',#289,POSITIVE_LENGTH_MEASURE(1.0E-006),#290);
#183=LINE('',#291,#292);
#184=CURVE_STYLE('',#293,POSITIVE_LENGTH_MEASURE(1.0E-006),#294);
#185=CIRCLE('',#295,7.00000000000003);
#186=CURVE_STYLE('',#296,POSITIVE_LENGTH_MEASURE(1.0E-006),#297);
#187=CIRCLE('',#298,6.50000000000003);
#188=CURVE_STYLE('',#299,POSITIVE_LENGTH_MEASURE(1.0E-006),#300);
#189=CIRCLE('',#301,12.0);
#190=CURVE_STYLE('',#302,POSITIVE_LENGTH_MEASURE(1.0E-006),#303);
#191=LINE('',#304,#305);
#192=CURVE_STYLE('',#306,POSITIVE_LENGTH_MEASURE(1.0E-006),#307);
#193=LINE('',#308,#309);
#194=SURFACE_STYLE_USAGE(.BOTH.,#310);
#195=FACE_OUTER_BOUND('',#311,.T.);
#196=FACE_BOUND('',#312,.T.);
#197=PLANE('',#313);
#198=CURVE_STYLE('',#314,POSITIVE_LENGTH_MEASURE(1.0E-006),#315);
#199=CIRCLE('',#316,6.50000000000003);
#200=CURVE_STYLE('',#317,POSITIVE_LENGTH_MEASURE(1.0E-006),#318);
#201=CIRCLE('',#319,6.50000000000003);
#202=POINT_STYLE(' ',#320,POSITIVE_LENGTH_MEASURE(1.0E-006),#321);
#203=CARTESIAN_POINT('',(12.0000000000001,9.72439047796114E-015,3.49999999999987));
#204=SURFACE_STYLE_USAGE(.BOTH.,#322);
#205=FACE_OUTER_BOUND('',#323,.T.);
#206=SPHERICAL_SURFACE('',#324,17.0);
#207=SURFACE_STYLE_USAGE(.BOTH.,#325);
#208=FACE_OUTER_BOUND('',#326,.T.);
#209=SPHERICAL_SURFACE('',#327,17.0);
#210=POINT_STYLE(' ',#328,POSITIVE_LENGTH_MEASURE(1.0E-006),#329);
#211=CARTESIAN_POINT('',(6.50000000000006,7.98871685353667E-015,-2.8421709430404E-014));
#212=CURVE_STYLE('',#330,POSITIVE_LENGTH_MEASURE(1.0E-006),#331);
#213=CIRCLE('',#332,6.88903751974513);
#214=CURVE_STYLE('',#333,POSITIVE_LENGTH_MEASURE(1.0E-006),#334);
#215=CIRCLE('',#335,12.0);
#216=SURFACE_STYLE_USAGE(.BOTH.,#336);
#217=CLOSED_SHELL('',(#73,#127,#123,#97,#99,#115,#89,#121,#67,#69));
#218=POINT_STYLE(' ',#337,POSITIVE_LENGTH_MEASURE(1.0E-006),#338);
#219=CARTESIAN_POINT('',(7.00000000000006,8.13281984867945E-015,4.59999999999999));
#220=POINT_STYLE(' ',#339,POSITIVE_LENGTH_MEASURE(1.0E-006),#340);
#221=CARTESIAN_POINT('',(12.0000000000001,9.57384980010723E-015,4.59999999999999));
#222=CURVE_STYLE('',#341,POSITIVE_LENGTH_MEASURE(1.0E-006),#342);
#223=CIRCLE('',#343,17.0);
#224=SURFACE_STYLE_USAGE(.BOTH.,#344);
#225=FACE_OUTER_BOUND('',#345,.T.);
#226=CONICAL_SURFACE('',#346,6.75000000000003,0.785398163397448);
#227=CURVE_STYLE('',#347,POSITIVE_LENGTH_MEASURE(1.0E-006),#348);
#228=CIRCLE('',#349,6.50000000000003);
#229=POINT_STYLE(' ',#350,POSITIVE_LENGTH_MEASURE(1.0E-006),#351);
#230=CARTESIAN_POINT('',(-12.0,4.57849694263346E-015,3.49999999999996));
#231=SURFACE_STYLE_USAGE(.BOTH.,#352);
#232=FACE_OUTER_BOUND('',#353,.T.);
#233=CYLINDRICAL_SURFACE('',#354,12.0);
#234=SURFACE_STYLE_USAGE(.BOTH.,#355);
#235=FACE_OUTER_BOUND('',#356,.T.);
#236=CONICAL_SURFACE('',#357,6.75000000000003,0.785398163397448);
#237=POINT_STYLE(' ',#358,POSITIVE_LENGTH_MEASURE(1.0E-006),#359);
#238=CARTESIAN_POINT('',(-7.0,5.25815346900488E-015,4.59999999999999));
#239=SURFACE_STYLE_USAGE(.BOTH.,#360);
#240=FACE_OUTER_BOUND('',#361,.T.);
#241=CYLINDRICAL_SURFACE('',#362,12.0);
#242=CURVE_STYLE('',#363,POSITIVE_LENGTH_MEASURE(1.0E-006),#364);
#243=CIRCLE('',#365,7.00000000000003);
#244=CURVE_STYLE('',#366,POSITIVE_LENGTH_MEASURE(1.0E-006),#367);
#245=LINE('',#368,#369);
#246=POINT_STYLE(' ',#370,POSITIVE_LENGTH_MEASURE(1.0E-006),#371);
#247=CARTESIAN_POINT('',(-6.88903751974492,4.99008254346135E-015,-3.5527136788005E-014));
#248=CURVE_STYLE('',#372,POSITIVE_LENGTH_MEASURE(1.0E-006),#373);
#249=CIRCLE('',#374,6.88903751974513);
#250=CURVE_STYLE('',#375,POSITIVE_LENGTH_MEASURE(1.0E-006),#376);
#251=CIRCLE('',#377,12.0);
#252=POINT_STYLE(' ',#378,POSITIVE_LENGTH_MEASURE(1.0E-006),#379);
#253=CARTESIAN_POINT('',(-6.5,5.03772432531685E-015,-2.8421709430404E-014));
#254=CURVE_STYLE('',#380,POSITIVE_LENGTH_MEASURE(1.0E-006),#381);
#255=LINE('',#382,#383);
#256=CURVE_STYLE('',#384,POSITIVE_LENGTH_MEASURE(1.0E-006),#385);
#257=CIRCLE('',#386,17.0);
#258=POINT_STYLE(' ',#387,POSITIVE_LENGTH_MEASURE(1.0E-006),#388);
#259=CARTESIAN_POINT('',(6.50000000000006,7.98871685353667E-015,4.09999999999999));
#260=POINT_STYLE(' ',#389,POSITIVE_LENGTH_MEASURE(1.0E-006),#390);
#261=CARTESIAN_POINT('',(6.88903751974507,8.47260705246753E-015,-1.4210854715202E-014));
#262=POINT_STYLE(' ',#391,POSITIVE_LENGTH_MEASURE(1.0E-006),#392);
#263=CARTESIAN_POINT('',(-12.0,4.64585029209369E-015,4.59999999999999));
#264=POINT_STYLE(' ',#393,POSITIVE_LENGTH_MEASURE(1.0E-006),#394);
#265=CARTESIAN_POINT('',(-6.5,5.28876862785044E-015,4.09999999999999));
#266=PRODUCT_CONTEXT('',#53,'mechanical');
#267=PRODUCT_DEFINITION_FORMATION_WITH_SPECIFIED_SOURCE(' ','NONE',#152,.NOT_KNOWN.);
#268=CARTESIAN_POINT('',(0.0,0.0,0.0));
#269=DIRECTION('',(0.0,0.0,1.0));
#270=DIRECTION('',(1.0,0.0,0.0));
#271= (NAMED_UNIT(#160)LENGTH_UNIT()SI_UNIT(.MILLI.,.METRE.));
#272=SURFACE_SIDE_STYLE('',(#396));
#273=EDGE_LOOP('',(#397,#398));
#274=EDGE_LOOP('',(#399,#400));
#275=AXIS2_PLACEMENT_3D('',#401,#402,#403);
#276=SURFACE_SIDE_STYLE('',(#404));
#277=EDGE_LOOP('',(#405,#406,#407,#408));
#278=AXIS2_PLACEMENT_3D('',#409,#410,#411);
#279=DRAUGHTING_PRE_DEFINED_CURVE_FONT('continuous');
#280=COLOUR_RGB('',0.509803950786591,0.509803950786591,0.588235318660736);
#281=CARTESIAN_POINT('',(6.75000000000006,8.06076835110806E-015,4.34999999999999));
#282=VECTOR('',#412,1.0);
#283=SURFACE_SIDE_STYLE('',(#413));
#284=EDGE_LOOP('',(#414,#415,#416,#417));
#285=AXIS2_PLACEMENT_3D('',#418,#419,#420);
#286=DRAUGHTING_PRE_DEFINED_CURVE_FONT('continuous');
#287=COLOUR_RGB('',0.509803950786591,0.509803950786591,0.588235318660736);
#288=AXIS2_PLACEMENT_3D('',#421,#422,#423);
#289=DRAUGHTING_PRE_DEFINED_CURVE_FONT('continuous');
#290=COLOUR_RGB('',0.509803950786591,0.509803950786591,0.588235318660736);
#291=CARTESIAN_POINT('',(-12.0,2.65690603325385E-015,4.04999999999993));
#292=VECTOR('',#424,1.0);
#293=DRAUGHTING_PRE_DEFINED_CURVE_FONT('continuous');
#294=COLOUR_RGB('',0.509803950786591,0.509803950786591,0.588235318660736);
#295=AXIS2_PLACEMENT_3D('',#425,#426,#427);
#296=DRAUGHTING_PRE_DEFINED_CURVE_FONT('continuous');
#297=COLOUR_RGB('',0.509803950786591,0.509803950786591,0.588235318660736);
#298=AXIS2_PLACEMENT_3D('',#428,#429,#430);
#299=DRAUGHTING_PRE_DEFINED_CURVE_FONT('continuous');
#300=COLOUR_RGB('',0.509803950786591,0.509803950786591,0.588235318660736);
#301=AXIS2_PLACEMENT_3D('',#431,#432,#433);
#302=DRAUGHTING_PRE_DEFINED_CURVE_FONT('continuous');
#303=COLOUR_RGB('',0.509803950786591,0.509803950786591,0.588235318660736);
#304=CARTESIAN_POINT('',(-6.5,4.24203897982441E-015,2.04999999999998));
#305=VECTOR('',#434,1.0);
#306=DRAUGHTING_PRE_DEFINED_CURVE_FONT('continuous');
#307=COLOUR_RGB('',0.509803950786591,0.509803950786591,0.588235318660736);
#308=CARTESIAN_POINT('',(-6.75,4.16998748225302E-015,4.34999999999999));
#309=VECTOR('',#435,1.0);
#310=SURFACE_SIDE_STYLE('',(#436));
#311=EDGE_LOOP('',(#437,#438));
#312=EDGE_LOOP('',(#439,#440));
#313=AXIS2_PLACEMENT_3D('',#441,#442,#443);
#314=DRAUGHTING_PRE_DEFINED_CURVE_FONT('continuous');
#315=COLOUR_RGB('',0.509803950786591,0.509803950786591,0.588235318660736);
#316=AXIS2_PLACEMENT_3D('',#444,#445,#446);
#317=DRAUGHTING_PRE_DEFINED_CURVE_FONT('continuous');
#318=COLOUR_RGB('',0.509803950786591,0.509803950786591,0.588235318660736);
#319=AXIS2_PLACEMENT_3D('',#447,#448,#449);
#320=PRE_DEFINED_MARKER('');
#321=COLOUR_RGB('',0.509803950786591,0.509803950786591,0.588235318660736);
#322=SURFACE_SIDE_STYLE('',(#450));
#323=EDGE_LOOP('',(#451,#452,#453,#454));
#324=AXIS2_PLACEMENT_3D('',#455,#456,#457);
#325=SURFACE_SIDE_STYLE('',(#458));
#326=EDGE_LOOP('',(#459,#460,#461,#462));
#327=AXIS2_PLACEMENT_3D('',#463,#464,#465);
#328=PRE_DEFINED_MARKER('');
#329=COLOUR_RGB('',0.509803950786591,0.509803950786591,0.588235318660736);
#330=DRAUGHTING_PRE_DEFINED_CURVE_FONT('continuous');
#331=COLOUR_RGB('',0.509803950786591,0.509803950786591,0.588235318660736);
#332=AXIS2_PLACEMENT_3D('',#466,#467,#468);
#333=DRAUGHTING_PRE_DEFINED_CURVE_FONT('continuous');
#334=COLOUR_RGB('',0.509803950786591,0.509803950786591,0.588235318660736);
#335=AXIS2_PLACEMENT_3D('',#469,#470,#471);
#336=SURFACE_SIDE_STYLE('',(#472));
#337=PRE_DEFINED_MARKER('');
#338=COLOUR_RGB('',0.509803950786591,0.509803950786591,0.588235318660736);
#339=PRE_DEFINED_MARKER('');
#340=COLOUR_RGB('',0.509803950786591,0.509803950786591,0.588235318660736);
#341=DRAUGHTING_PRE_DEFINED_CURVE_FONT('continuous');
#342=COLOUR_RGB('',0.509803950786591,0.509803950786591,0.588235318660736);
#343=AXIS2_PLACEMENT_3D('',#473,#474,#475);
#344=SURFACE_SIDE_STYLE('',(#476));
#345=EDGE_LOOP('',(#477,#478,#479,#480));
#346=AXIS2_PLACEMENT_3D('',#481,#482,#483);
#347=DRAUGHTING_PRE_DEFINED_CURVE_FONT('continuous');
#348=COLOUR_RGB('',0.509803950786591,0.509803950786591,0.588235318660736);
#349=AXIS2_PLACEMENT_3D('',#484,#485,#486);
#350=PRE_DEFINED_MARKER('');
#351=COLOUR_RGB('',0.509803950786591,0.509803950786591,0.588235318660736);
#352=SURFACE_SIDE_STYLE('',(#487));
#353=EDGE_LOOP('',(#488,#489,#490,#491));
#354=AXIS2_PLACEMENT_3D('',#492,#493,#494);
#355=SURFACE_SIDE_STYLE('',(#495));
#356=EDGE_LOOP('',(#496,#497,#498,#499));
#357=AXIS2_PLACEMENT_3D('',#500,#501,#502);
#358=PRE_DEFINED_MARKER('');
#359=COLOUR_RGB('',0.509803950786591,0.509803950786591,0.588235318660736);
#360=SURFACE_SIDE_STYLE('',(#503));
#361=EDGE_LOOP('',(#504,#505,#506,#507));
#362=AXIS2_PLACEMENT_3D('',#508,#509,#510);
#363=DRAUGHTING_PRE_DEFINED_CURVE_FONT('continuous');
#364=COLOUR_RGB('',0.509803950786591,0.509803950786591,0.588235318660736);
#365=AXIS2_PLACEMENT_3D('',#511,#512,#513);
#366=DRAUGHTING_PRE_DEFINED_CURVE_FONT('continuous');
#367=COLOUR_RGB('',0.509803950786591,0.509803950786591,0.588235318660736);
#368=CARTESIAN_POINT('',(12.0000000000001,9.57384980010723E-015,4.04999999999993));
#369=VECTOR('',#514,1.0);
#370=PRE_DEFINED_MARKER('');
#371=COLOUR_RGB('',0.509803950786591,0.509803950786591,0.588235318660736);
#372=DRAUGHTING_PRE_DEFINED_CURVE_FONT('continuous');
#373=COLOUR_RGB('',0.509803950786591,0.509803950786591,0.588235318660736);
#374=AXIS2_PLACEMENT_3D('',#515,#516,#517);
#375=DRAUGHTING_PRE_DEFINED_CURVE_FONT('continuous');
#376=COLOUR_RGB('',0.509803950786591,0.509803950786591,0.588235318660736);
#377=AXIS2_PLACEMENT_3D('',#518,#519,#520);
#378=PRE_DEFINED_MARKER('');
#379=COLOUR_RGB('',0.509803950786591,0.509803950786591,0.588235318660736);
#380=DRAUGHTING_PRE_DEFINED_CURVE_FONT('continuous');
#381=COLOUR_RGB('',0.509803950786591,0.509803950786591,0.588235318660736);
#382=CARTESIAN_POINT('',(6.50000000000006,7.98871685353667E-015,2.04999999999998));
#383=VECTOR('',#521,1.0);
#384=DRAUGHTING_PRE_DEFINED_CURVE_FONT('continuous');
#385=COLOUR_RGB('',0.509803950786591,0.509803950786591,0.588235318660736);
#386=AXIS2_PLACEMENT_3D('',#522,#523,#524);
#387=PRE_DEFINED_MARKER('');
#388=COLOUR_RGB('',0.509803950786591,0.509803950786591,0.588235318660736);
#389=PRE_DEFINED_MARKER('');
#390=COLOUR_RGB('',0.509803950786591,0.509803950786591,0.588235318660736);
#391=PRE_DEFINED_MARKER('');
#392=COLOUR_RGB('',0.509803950786591,0.509803950786591,0.588235318660736);
#393=PRE_DEFINED_MARKER('');
#394=COLOUR_RGB('',0.509803950786591,0.509803950786591,0.588235318660736);
#396=SURFACE_STYLE_FILL_AREA(#525);
#397=ORIENTED_EDGE('',*,*,#135,.T.);
#398=ORIENTED_EDGE('',*,*,#103,.T.);
#399=ORIENTED_EDGE('',*,*,#93,.F.);
#400=ORIENTED_EDGE('',*,*,#81,.F.);
#401=CARTESIAN_POINT('',(-9.25,4.70095757801569E-015,-1.4210854715202E-014));
#402=DIRECTION('',(0.0,0.0,-1.0));
#403=DIRECTION('',(1.0,1.22460635382238E-016,0.0));
#404=SURFACE_STYLE_FILL_AREA(#526);
#405=ORIENTED_EDGE('',*,*,#85,.T.);
#406=ORIENTED_EDGE('',*,*,#93,.T.);
#407=ORIENTED_EDGE('',*,*,#141,.T.);
#408=ORIENTED_EDGE('',*,*,#91,.F.);
#409=CARTESIAN_POINT('',(2.8421709430404E-014,6.11537791668054E-015,2.04999999999998));
#410=DIRECTION('',(0.0,-0.0,1.0));
#411=DIRECTION('',(-1.0,-1.65745354903319E-016,0.0));
#412=DIRECTION('',(0.707106781186548,2.03792410109501E-016,0.707106781186547));
#413=SURFACE_STYLE_FILL_AREA(#527);
#414=ORIENTED_EDGE('',*,*,#85,.F.);
#415=ORIENTED_EDGE('',*,*,#117,.F.);
#416=ORIENTED_EDGE('',*,*,#141,.F.);
#417=ORIENTED_EDGE('',*,*,#81,.T.);
#418=CARTESIAN_POINT('',(2.8421709430404E-014,6.11537791668054E-015,2.04999999999998));
#419=DIRECTION('',(0.0,-0.0,1.0));
#420=DIRECTION('',(-1.0,-1.65745354903319E-016,0.0));
#421=CARTESIAN_POINT('',(2.8421709430404E-014,6.11537791668054E-015,4.59999999999999));
#422=DIRECTION('',(-0.0,0.0,-1.0));
#423=DIRECTION('',(-1.0,-1.65745354903319E-016,0.0));
#424=DIRECTION('',(0.0,0.0,-1.0));
#425=CARTESIAN_POINT('',(2.8421709430404E-014,6.11537791668054E-015,4.59999999999999));
#426=DIRECTION('',(-0.0,0.0,-1.0));
#427=DIRECTION('',(-1.0,-1.65745354903319E-016,0.0));
#428=CARTESIAN_POINT('',(2.8421709430404E-014,6.11537791668054E-015,-2.8421709430404E-014));
#429=DIRECTION('',(-0.0,0.0,-1.0));
#430=DIRECTION('',(-1.0,-1.65745354903319E-016,0.0));
#431=CARTESIAN_POINT('',(2.8421709430404E-014,6.11537791668054E-015,4.59999999999999));
#432=DIRECTION('',(-0.0,0.0,-1.0));
#433=DIRECTION('',(-1.0,-1.65745354903319E-016,0.0));
#434=DIRECTION('',(0.0,0.0,-1.0));
#435=DIRECTION('',(0.707106781186548,2.03792410109501E-016,-0.707106781186547));
#436=SURFACE_STYLE_FILL_AREA(#528);
#437=ORIENTED_EDGE('',*,*,#83,.F.);
#438=ORIENTED_EDGE('',*,*,#75,.F.);
#439=ORIENTED_EDGE('',*,*,#79,.T.);
#440=ORIENTED_EDGE('',*,*,#129,.T.);
#441=CARTESIAN_POINT('',(-9.5,4.95200188054928E-015,4.59999999999999));
#442=DIRECTION('',(0.0,0.0,1.0));
#443=DIRECTION('',(-1.0,-1.22460635382238E-016,0.0));
#444=CARTESIAN_POINT('',(2.8421709430404E-014,6.11537791668054E-015,4.09999999999999));
#445=DIRECTION('',(-0.0,0.0,-1.0));
#446=DIRECTION('',(-1.0,-1.65745354903319E-016,0.0));
#447=CARTESIAN_POINT('',(2.8421709430404E-014,6.11537791668054E-015,-2.8421709430404E-014));
#448=DIRECTION('',(-0.0,0.0,-1.0));
#449=DIRECTION('',(-1.0,-1.65745354903319E-016,0.0));
#450=SURFACE_STYLE_FILL_AREA(#529);
#451=ORIENTED_EDGE('',*,*,#143,.F.);
#452=ORIENTED_EDGE('',*,*,#135,.F.);
#453=ORIENTED_EDGE('',*,*,#113,.F.);
#454=ORIENTED_EDGE('',*,*,#137,.F.);
#455=CARTESIAN_POINT('',(-5.15143483426073E-014,6.7853352287874E-015,15.5415945787922));
#456=DIRECTION('',(0.0,0.0,-1.0));
#457=DIRECTION('',(1.0,1.22460635382238E-016,0.0));
#458=SURFACE_STYLE_FILL_AREA(#530);
#459=ORIENTED_EDGE('',*,*,#143,.T.);
#460=ORIENTED_EDGE('',*,*,#105,.F.);
#461=ORIENTED_EDGE('',*,*,#113,.T.);
#462=ORIENTED_EDGE('',*,*,#103,.F.);
#463=CARTESIAN_POINT('',(-5.15143483426073E-014,6.7853352287874E-015,15.5415945787922));
#464=DIRECTION('',(0.0,0.0,-1.0));
#465=DIRECTION('',(1.0,1.22460635382238E-016,0.0));
#466=CARTESIAN_POINT('',(-5.15143483426073E-014,6.7853352287874E-015,-1.4210854715202E-014));
#467=DIRECTION('',(0.0,0.0,-1.0));
#468=DIRECTION('',(0.0,-1.0,0.0));
#469=CARTESIAN_POINT('',(2.8421709430404E-014,6.11537791668054E-015,3.49999999999987));
#470=DIRECTION('',(0.0,0.0,1.0));
#471=DIRECTION('',(-1.0,-1.65745354903319E-016,0.0));
#472=SURFACE_STYLE_FILL_AREA(#531);
#473=CARTESIAN_POINT('',(-5.15143483426073E-014,6.7853352287874E-015,15.5415945787922));
#474=DIRECTION('',(2.44921270764475E-016,-1.0,0.0));
#475=DIRECTION('',(-0.0,0.0,1.0));
#476=SURFACE_STYLE_FILL_AREA(#532);
#477=ORIENTED_EDGE('',*,*,#87,.T.);
#478=ORIENTED_EDGE('',*,*,#91,.T.);
#479=ORIENTED_EDGE('',*,*,#71,.T.);
#480=ORIENTED_EDGE('',*,*,#79,.F.);
#481=CARTESIAN_POINT('',(2.8421709430404E-014,6.11537791668054E-015,4.34999999999999));
#482=DIRECTION('',(0.0,-0.0,1.0));
#483=DIRECTION('',(-1.0,-1.65745354903319E-016,0.0));
#484=CARTESIAN_POINT('',(2.8421709430404E-014,6.11537791668054E-015,4.09999999999999));
#485=DIRECTION('',(-0.0,0.0,-1.0));
#486=DIRECTION('',(-1.0,-1.65745354903319E-016,0.0));
#487=SURFACE_STYLE_FILL_AREA(#533);
#488=ORIENTED_EDGE('',*,*,#77,.T.);
#489=ORIENTED_EDGE('',*,*,#105,.T.);
#490=ORIENTED_EDGE('',*,*,#131,.T.);
#491=ORIENTED_EDGE('',*,*,#75,.T.);
#492=CARTESIAN_POINT('',(2.8421709430404E-014,6.11537791668054E-015,2.3));
#493=DIRECTION('',(0.0,-0.0,1.0));
#494=DIRECTION('',(-1.0,-1.65745354903319E-016,0.0));
#495=SURFACE_STYLE_FILL_AREA(#534);
#496=ORIENTED_EDGE('',*,*,#87,.F.);
#497=ORIENTED_EDGE('',*,*,#129,.F.);
#498=ORIENTED_EDGE('',*,*,#71,.F.);
#499=ORIENTED_EDGE('',*,*,#117,.T.);
#500=CARTESIAN_POINT('',(2.8421709430404E-014,6.11537791668054E-015,4.34999999999999));
#501=DIRECTION('',(0.0,-0.0,1.0));
#502=DIRECTION('',(-1.0,-1.65745354903319E-016,0.0));
#503=SURFACE_STYLE_FILL_AREA(#535);
#504=ORIENTED_EDGE('',*,*,#77,.F.);
#505=ORIENTED_EDGE('',*,*,#83,.T.);
#506=ORIENTED_EDGE('',*,*,#131,.F.);
#507=ORIENTED_EDGE('',*,*,#137,.T.);
#508=CARTESIAN_POINT('',(2.8421709430404E-014,6.11537791668054E-015,2.3));
#509=DIRECTION('',(0.0,-0.0,1.0));
#510=DIRECTION('',(-1.0,-1.65745354903319E-016,0.0));
#511=CARTESIAN_POINT('',(2.8421709430404E-014,6.11537791668054E-015,4.59999999999999));
#512=DIRECTION('',(-0.0,0.0,-1.0));
#513=DIRECTION('',(-1.0,-1.65745354903319E-016,0.0));
#514=DIRECTION('',(-0.0,-0.0,1.0));
#515=CARTESIAN_POINT('',(-5.15143483426073E-014,6.7853352287874E-015,-1.4210854715202E-014));
#516=DIRECTION('',(0.0,0.0,-1.0));
#517=DIRECTION('',(0.0,-1.0,0.0));
#518=CARTESIAN_POINT('',(2.8421709430404E-014,6.11537791668054E-015,3.49999999999987));
#519=DIRECTION('',(0.0,0.0,1.0));
#520=DIRECTION('',(-1.0,-1.65745354903319E-016,0.0));
#521=DIRECTION('',(0.0,0.0,1.0));
#522=CARTESIAN_POINT('',(-5.15143483426073E-014,6.7853352287874E-015,15.5415945787922));
#523=DIRECTION('',(2.44921270764475E-016,-1.0,0.0));
#524=DIRECTION('',(-0.0,0.0,1.0));
#525=FILL_AREA_STYLE('',(#536));
#526=FILL_AREA_STYLE('',(#537));
#527=FILL_AREA_STYLE('',(#538));
#528=FILL_AREA_STYLE('',(#539));
#529=FILL_AREA_STYLE('',(#540));
#530=FILL_AREA_STYLE('',(#541));
#531=FILL_AREA_STYLE('',(#542));
#532=FILL_AREA_STYLE('',(#543));
#533=FILL_AREA_STYLE('',(#544));
#534=FILL_AREA_STYLE('',(#545));
#535=FILL_AREA_STYLE('',(#546));
#536=FILL_AREA_STYLE_COLOUR('',#547);
#537=FILL_AREA_STYLE_COLOUR('',#548);
#538=FILL_AREA_STYLE_COLOUR('',#549);
#539=FILL_AREA_STYLE_COLOUR('',#550);
#540=FILL_AREA_STYLE_COLOUR('',#551);
#541=FILL_AREA_STYLE_COLOUR('',#552);
#542=FILL_AREA_STYLE_COLOUR('',#553);
#543=FILL_AREA_STYLE_COLOUR('',#554);
#544=FILL_AREA_STYLE_COLOUR('',#555);
#545=FILL_AREA_STYLE_COLOUR('',#556);
#546=FILL_AREA_STYLE_COLOUR('',#557);
#547=COLOUR_RGB('',0.509803950786591,0.509803950786591,0.588235318660736);
#548=COLOUR_RGB('',0.509803950786591,0.509803950786591,0.588235318660736);
#549=COLOUR_RGB('',0.509803950786591,0.509803950786591,0.588235318660736);
#550=COLOUR_RGB('',0.509803950786591,0.509803950786591,0.588235318660736);
#551=COLOUR_RGB('',0.509803950786591,0.509803950786591,0.588235318660736);
#552=COLOUR_RGB('',0.509803950786591,0.509803950786591,0.588235318660736);
#553=COLOUR_RGB('',0.509803950786591,0.509803950786591,0.588235318660736);
#554=COLOUR_RGB('',0.509803950786591,0.509803950786591,0.588235318660736);
#555=COLOUR_RGB('',0.509803950786591,0.509803950786591,0.588235318660736);
#556=COLOUR_RGB('',0.509803950786591,0.509803950786591,0.588235318660736);
#557=COLOUR_RGB('',0.509803950786591,0.509803950786591,0.588235318660736);
ENDSEC;
END-ISO-10303-21;
