ISO-10303-21;
HEADER;
FILE_DESCRIPTION(('STEP AP214'),'1');
FILE_NAME(' ','  ',('TraceParts'),('TraceParts S.A.'),'XStep 1.0',' ',' ');
FILE_SCHEMA(('automotive_design'));
ENDSEC;
DATA;
#1=MECHANICAL_DESIGN_GEOMETRIC_PRESENTATION_REPRESENTATION(' ',(#10,#11,#12,#13,#14,#15,#16,#17,#18,#19,#20,#21,#22,#23,#24,#25,#26,#27,#28,#29,#30,#31,#32,#33,#34,#35,#36,#37,#38,#39,#40,#41,#42,#43,#44,#45,#46,#47,#48,#49,#50,#51,#52),#6);
#2=PRODUCT_DEFINITION_CONTEXT('',#53,'design');
#3=APPLICATION_PROTOCOL_DEFINITION('INTERNATIONAL STANDARD','automotive_design',1994,#53);
#4=PRODUCT_CATEGORY_RELATIONSHIP('NONE','NONE',#54,#55);
#5=SHAPE_DEFINITION_REPRESENTATION(#56,#57);
#6= (GEOMETRIC_REPRESENTATION_CONTEXT(3)GLOBAL_UNCERTAINTY_ASSIGNED_CONTEXT((#60))GLOBAL_UNIT_ASSIGNED_CONTEXT((#62,#63,#64))REPRESENTATION_CONTEXT('NONE','WORKSPACE'));
#10=STYLED_ITEM('',(#66),#67);
#11=STYLED_ITEM('',(#68),#69);
#12=STYLED_ITEM('',(#70),#71);
#13=STYLED_ITEM('',(#72),#73);
#14=STYLED_ITEM('',(#74),#75);
#15=STYLED_ITEM('',(#76),#77);
#16=STYLED_ITEM('',(#78),#79);
#17=STYLED_ITEM('',(#80),#81);
#18=STYLED_ITEM('',(#82),#83);
#19=STYLED_ITEM('',(#84),#85);
#20=STYLED_ITEM('',(#86),#87);
#21=STYLED_ITEM('',(#88),#89);
#22=STYLED_ITEM('',(#90),#91);
#23=STYLED_ITEM('',(#92),#93);
#24=STYLED_ITEM('',(#94),#95);
#25=STYLED_ITEM('',(#96),#97);
#26=STYLED_ITEM('',(#98),#99);
#27=STYLED_ITEM('',(#100),#101);
#28=STYLED_ITEM('',(#102),#103);
#29=STYLED_ITEM('',(#104),#105);
#30=STYLED_ITEM('',(#106),#107);
#31=STYLED_ITEM('',(#108),#109);
#32=STYLED_ITEM('',(#110),#111);
#33=STYLED_ITEM('',(#112),#113);
#34=STYLED_ITEM('',(#114),#115);
#35=STYLED_ITEM('',(#116),#117);
#36=STYLED_ITEM('',(#118),#119);
#37=STYLED_ITEM('',(#120),#121);
#38=STYLED_ITEM('',(#122),#123);
#39=STYLED_ITEM('',(#124),#125);
#40=STYLED_ITEM('',(#126),#127);
#41=STYLED_ITEM('',(#128),#129);
#42=STYLED_ITEM('',(#130),#131);
#43=STYLED_ITEM('',(#132),#133);
#44=STYLED_ITEM('',(#134),#135);
#45=STYLED_ITEM('',(#136),#137);
#46=STYLED_ITEM('',(#138),#139);
#47=STYLED_ITEM('',(#140),#141);
#48=STYLED_ITEM('',(#142),#143);
#49=STYLED_ITEM('',(#144),#145);
#50=STYLED_ITEM('',(#146),#147);
#51=STYLED_ITEM('',(#148),#149);
#52=STYLED_ITEM('',(#150),#151);
#53=APPLICATION_CONTEXT(' ');
#54=PRODUCT_CATEGORY('part','NONE');
#55=PRODUCT_RELATED_PRODUCT_CATEGORY('detail',' ',(#152));
#56=PRODUCT_DEFINITION_SHAPE('NONE','NONE',#153);
#57=ADVANCED_BREP_SHAPE_REPRESENTATION('1',(#125,#154),#6);
#60=UNCERTAINTY_MEASURE_WITH_UNIT(LENGTH_MEASURE(1.0E-006),#62,'','');
#62= (CONVERSION_BASED_UNIT('MILLIMETRE',#157)LENGTH_UNIT()NAMED_UNIT(#160));
#63= (NAMED_UNIT(#162)PLANE_ANGLE_UNIT()SI_UNIT($,.RADIAN.));
#64= (NAMED_UNIT(#162)SOLID_ANGLE_UNIT()SI_UNIT($,.STERADIAN.));
#66=PRESENTATION_STYLE_ASSIGNMENT((#168));
#67=ADVANCED_FACE('',(#169),#170,.T.);
#68=PRESENTATION_STYLE_ASSIGNMENT((#171));
#69=ADVANCED_FACE('',(#172,#173),#174,.T.);
#70=PRESENTATION_STYLE_ASSIGNMENT((#175));
#71=EDGE_CURVE('',#95,#85,#176,.T.);
#72=PRESENTATION_STYLE_ASSIGNMENT((#177));
#73=EDGE_CURVE('',#145,#93,#178,.T.);
#74=PRESENTATION_STYLE_ASSIGNMENT((#179));
#75=EDGE_CURVE('',#143,#95,#180,.T.);
#76=PRESENTATION_STYLE_ASSIGNMENT((#181));
#77=EDGE_CURVE('',#145,#87,#182,.T.);
#78=PRESENTATION_STYLE_ASSIGNMENT((#183));
#79=EDGE_CURVE('',#143,#123,#184,.T.);
#80=PRESENTATION_STYLE_ASSIGNMENT((#185));
#81=EDGE_CURVE('',#133,#99,#186,.T.);
#82=PRESENTATION_STYLE_ASSIGNMENT((#187));
#83=EDGE_CURVE('',#87,#145,#188,.T.);
#84=PRESENTATION_STYLE_ASSIGNMENT((#189));
#85=VERTEX_POINT('',#190);
#86=PRESENTATION_STYLE_ASSIGNMENT((#191));
#87=VERTEX_POINT('',#192);
#88=PRESENTATION_STYLE_ASSIGNMENT((#193));
#89=EDGE_CURVE('',#139,#129,#194,.T.);
#90=PRESENTATION_STYLE_ASSIGNMENT((#195));
#91=ADVANCED_FACE('',(#196,#197),#198,.T.);
#92=PRESENTATION_STYLE_ASSIGNMENT((#199));
#93=VERTEX_POINT('',#200);
#94=PRESENTATION_STYLE_ASSIGNMENT((#201));
#95=VERTEX_POINT('',#202);
#96=PRESENTATION_STYLE_ASSIGNMENT((#203));
#97=EDGE_CURVE('',#133,#143,#204,.T.);
#98=PRESENTATION_STYLE_ASSIGNMENT((#205));
#99=VERTEX_POINT('',#206);
#100=PRESENTATION_STYLE_ASSIGNMENT((#207));
#101=EDGE_CURVE('',#123,#99,#208,.T.);
#102=PRESENTATION_STYLE_ASSIGNMENT((#209));
#103=EDGE_CURVE('',#93,#149,#210,.T.);
#104=PRESENTATION_STYLE_ASSIGNMENT((#211));
#105=EDGE_CURVE('',#149,#93,#212,.T.);
#106=PRESENTATION_STYLE_ASSIGNMENT((#213));
#107=ADVANCED_FACE('',(#214),#215,.F.);
#108=PRESENTATION_STYLE_ASSIGNMENT((#216));
#109=ADVANCED_FACE('',(#217),#218,.F.);
#110=PRESENTATION_STYLE_ASSIGNMENT((#219));
#111=EDGE_CURVE('',#85,#123,#220,.T.);
#112=PRESENTATION_STYLE_ASSIGNMENT((#221));
#113=EDGE_CURVE('',#99,#133,#222,.T.);
#114=PRESENTATION_STYLE_ASSIGNMENT((#223));
#115=EDGE_CURVE('',#93,#129,#224,.T.);
#116=PRESENTATION_STYLE_ASSIGNMENT((#225));
#117=ADVANCED_FACE('',(#226),#227,.T.);
#118=PRESENTATION_STYLE_ASSIGNMENT((#228));
#119=EDGE_CURVE('',#129,#139,#229,.T.);
#120=PRESENTATION_STYLE_ASSIGNMENT((#230));
#121=EDGE_CURVE('',#123,#143,#231,.T.);
#122=PRESENTATION_STYLE_ASSIGNMENT((#232));
#123=VERTEX_POINT('',#233);
#124=PRESENTATION_STYLE_ASSIGNMENT((#234));
#125=MANIFOLD_SOLID_BREP('1',#235);
#126=PRESENTATION_STYLE_ASSIGNMENT((#236));
#127=ADVANCED_FACE('',(#237),#238,.T.);
#128=PRESENTATION_STYLE_ASSIGNMENT((#239));
#129=VERTEX_POINT('',#240);
#130=PRESENTATION_STYLE_ASSIGNMENT((#241));
#131=ADVANCED_FACE('',(#242),#243,.F.);
#132=PRESENTATION_STYLE_ASSIGNMENT((#244));
#133=VERTEX_POINT('',#245);
#134=PRESENTATION_STYLE_ASSIGNMENT((#246));
#135=EDGE_CURVE('',#139,#149,#247,.T.);
#136=PRESENTATION_STYLE_ASSIGNMENT((#248));
#137=ADVANCED_FACE('',(#249),#250,.F.);
#138=PRESENTATION_STYLE_ASSIGNMENT((#251));
#139=VERTEX_POINT('',#252);
#140=PRESENTATION_STYLE_ASSIGNMENT((#253));
#141=ADVANCED_FACE('',(#254),#255,.T.);
#142=PRESENTATION_STYLE_ASSIGNMENT((#256));
#143=VERTEX_POINT('',#257);
#144=PRESENTATION_STYLE_ASSIGNMENT((#258));
#145=VERTEX_POINT('',#259);
#146=PRESENTATION_STYLE_ASSIGNMENT((#260));
#147=EDGE_CURVE('',#85,#95,#261,.T.);
#148=PRESENTATION_STYLE_ASSIGNMENT((#262));
#149=VERTEX_POINT('',#263);
#150=PRESENTATION_STYLE_ASSIGNMENT((#264));
#151=EDGE_CURVE('',#149,#87,#265,.T.);
#152=PRODUCT('1','1','PART-1-DESC',(#266));
#153=PRODUCT_DEFINITION('NONE','NONE',#267,#2);
#154=AXIS2_PLACEMENT_3D('',#268,#269,#270);
#157=LENGTH_MEASURE_WITH_UNIT(LENGTH_MEASURE(1.0),#271);
#160=DIMENSIONAL_EXPONENTS(1.0,0.0,0.0,0.0,0.0,0.0,0.0);
#162=DIMENSIONAL_EXPONENTS(0.0,0.0,0.0,0.0,0.0,0.0,0.0);
#168=SURFACE_STYLE_USAGE(.BOTH.,#272);
#169=FACE_OUTER_BOUND('',#273,.T.);
#170=CYLINDRICAL_SURFACE('',#274,10.5);
#171=SURFACE_STYLE_USAGE(.BOTH.,#275);
#172=FACE_OUTER_BOUND('',#276,.T.);
#173=FACE_BOUND('',#277,.T.);
#174=PLANE('',#278);
#175=CURVE_STYLE('',#279,POSITIVE_LENGTH_MEASURE(1.0E-006),#280);
#176=CIRCLE('',#281,5.25000000000003);
#177=CURVE_STYLE('',#282,POSITIVE_LENGTH_MEASURE(1.0E-006),#283);
#178=LINE('',#284,#285);
#179=CURVE_STYLE('',#286,POSITIVE_LENGTH_MEASURE(1.0E-006),#287);
#180=LINE('',#288,#289);
#181=CURVE_STYLE('',#290,POSITIVE_LENGTH_MEASURE(1.0E-006),#291);
#182=CIRCLE('',#292,10.5);
#183=CURVE_STYLE('',#293,POSITIVE_LENGTH_MEASURE(1.0E-006),#294);
#184=CIRCLE('',#295,5.25000000000003);
#185=CURVE_STYLE('',#296,POSITIVE_LENGTH_MEASURE(1.0E-006),#297);
#186=CIRCLE('',#298,5.75000000000003);
#187=CURVE_STYLE('',#299,POSITIVE_LENGTH_MEASURE(1.0E-006),#300);
#188=CIRCLE('',#301,10.5);
#189=POINT_STYLE(' ',#302,POSITIVE_LENGTH_MEASURE(1.0E-006),#303);
#190=CARTESIAN_POINT('',(5.25000000000006,7.4621813093675E-015,-2.8421709430404E-014));
#191=POINT_STYLE(' ',#304,POSITIVE_LENGTH_MEASURE(1.0E-006),#305);
#192=CARTESIAN_POINT('',(10.5000000000001,8.99267565512781E-015,4.0));
#193=CURVE_STYLE('',#306,POSITIVE_LENGTH_MEASURE(1.0E-006),#307);
#194=CIRCLE('',#308,5.60823386513009);
#195=SURFACE_STYLE_USAGE(.BOTH.,#309);
#196=FACE_OUTER_BOUND('',#310,.T.);
#197=FACE_BOUND('',#311,.T.);
#198=PLANE('',#312);
#199=POINT_STYLE(' ',#313,POSITIVE_LENGTH_MEASURE(1.0E-006),#314);
#200=CARTESIAN_POINT('',(-10.4999999999999,4.5968660379408E-015,3.19999999999999));
#201=POINT_STYLE(' ',#315,POSITIVE_LENGTH_MEASURE(1.0E-006),#316);
#202=CARTESIAN_POINT('',(-5.25,5.04384735708596E-015,-2.8421709430404E-014));
#203=CURVE_STYLE('',#317,POSITIVE_LENGTH_MEASURE(1.0E-006),#318);
#204=LINE('',#319,#320);
#205=POINT_STYLE(' ',#321,POSITIVE_LENGTH_MEASURE(1.0E-006),#322);
#206=CARTESIAN_POINT('',(5.75000000000006,7.60794267563039E-015,4.0));
#207=CURVE_STYLE('',#323,POSITIVE_LENGTH_MEASURE(1.0E-006),#324);
#208=LINE('',#325,#326);
#209=CURVE_STYLE('',#327,POSITIVE_LENGTH_MEASURE(1.0E-006),#328);
#210=CIRCLE('',#329,10.5);
#211=CURVE_STYLE('',#330,POSITIVE_LENGTH_MEASURE(1.0E-006),#331);
#212=CIRCLE('',#332,10.5);
#213=SURFACE_STYLE_USAGE(.BOTH.,#333);
#214=FACE_OUTER_BOUND('',#334,.T.);
#215=CYLINDRICAL_SURFACE('',#335,5.25000000000003);
#216=SURFACE_STYLE_USAGE(.BOTH.,#336);
#217=FACE_OUTER_BOUND('',#337,.T.);
#218=CONICAL_SURFACE('',#338,5.50000000000003,0.785398163397448);
#219=CURVE_STYLE('',#339,POSITIVE_LENGTH_MEASURE(1.0E-006),#340);
#220=LINE('',#341,#342);
#221=CURVE_STYLE('',#343,POSITIVE_LENGTH_MEASURE(1.0E-006),#344);
#222=CIRCLE('',#345,5.75000000000003);
#223=CURVE_STYLE('',#346,POSITIVE_LENGTH_MEASURE(1.0E-006),#347);
#224=CIRCLE('',#348,15.0000000000001);
#225=SURFACE_STYLE_USAGE(.BOTH.,#349);
#226=FACE_OUTER_BOUND('',#350,.T.);
#227=SPHERICAL_SURFACE('',#351,15.0000000000001);
#228=CURVE_STYLE('',#352,POSITIVE_LENGTH_MEASURE(1.0E-006),#353);
#229=CIRCLE('',#354,5.60823386513009);
#230=CURVE_STYLE('',#355,POSITIVE_LENGTH_MEASURE(1.0E-006),#356);
#231=CIRCLE('',#357,5.25000000000003);
#232=POINT_STYLE(' ',#358,POSITIVE_LENGTH_MEASURE(1.0E-006),#359);
#233=CARTESIAN_POINT('',(5.25000000000006,7.4621813093675E-015,3.5));
#234=SURFACE_STYLE_USAGE(.BOTH.,#360);
#235=CLOSED_SHELL('',(#107,#141,#137,#117,#127,#109,#69,#67,#91,#131));
#236=SURFACE_STYLE_USAGE(.BOTH.,#361);
#237=FACE_OUTER_BOUND('',#362,.T.);
#238=SPHERICAL_SURFACE('',#363,15.0000000000001);
#239=POINT_STYLE(' ',#364,POSITIVE_LENGTH_MEASURE(1.0E-006),#365);
#240=CARTESIAN_POINT('',(-5.6082338651297,4.99997781034674E-015,-3.19744231092045E-014));
#241=SURFACE_STYLE_USAGE(.BOTH.,#366);
#242=FACE_OUTER_BOUND('',#367,.T.);
#243=CYLINDRICAL_SURFACE('',#368,5.25000000000003);
#244=POINT_STYLE(' ',#369,POSITIVE_LENGTH_MEASURE(1.0E-006),#370);
#245=CARTESIAN_POINT('',(-5.75,5.22753831015932E-015,4.0));
#246=CURVE_STYLE('',#371,POSITIVE_LENGTH_MEASURE(1.0E-006),#372);
#247=CIRCLE('',#373,15.0000000000001);
#248=SURFACE_STYLE_USAGE(.BOTH.,#374);
#249=FACE_OUTER_BOUND('',#375,.T.);
#250=CONICAL_SURFACE('',#376,5.50000000000003,0.785398163397448);
#251=POINT_STYLE(' ',#377,POSITIVE_LENGTH_MEASURE(1.0E-006),#378);
#252=CARTESIAN_POINT('',(5.6082338651302,7.91218637161843E-015,-1.4210854715202E-014));
#253=SURFACE_STYLE_USAGE(.BOTH.,#379);
#254=FACE_OUTER_BOUND('',#380,.T.);
#255=CYLINDRICAL_SURFACE('',#381,10.5);
#256=POINT_STYLE(' ',#382,POSITIVE_LENGTH_MEASURE(1.0E-006),#383);
#257=CARTESIAN_POINT('',(-5.25,5.25815346900488E-015,3.5));
#258=POINT_STYLE(' ',#384,POSITIVE_LENGTH_MEASURE(1.0E-006),#385);
#259=CARTESIAN_POINT('',(-10.5,4.64585029209369E-015,4.0));
#260=CURVE_STYLE('',#386,POSITIVE_LENGTH_MEASURE(1.0E-006),#387);
#261=CIRCLE('',#388,5.25000000000003);
#262=POINT_STYLE(' ',#389,POSITIVE_LENGTH_MEASURE(1.0E-006),#390);
#263=CARTESIAN_POINT('',(10.5000000000001,9.11028394965338E-015,3.19999999999995));
#264=CURVE_STYLE('',#391,POSITIVE_LENGTH_MEASURE(1.0E-006),#392);
#265=LINE('',#393,#394);
#266=PRODUCT_CONTEXT('',#53,'mechanical');
#267=PRODUCT_DEFINITION_FORMATION_WITH_SPECIFIED_SOURCE(' ','NONE',#152,.NOT_KNOWN.);
#268=CARTESIAN_POINT('',(0.0,0.0,0.0));
#269=DIRECTION('',(0.0,0.0,1.0));
#270=DIRECTION('',(1.0,0.0,0.0));
#271= (NAMED_UNIT(#160)LENGTH_UNIT()SI_UNIT(.MILLI.,.METRE.));
#272=SURFACE_SIDE_STYLE('',(#396));
#273=EDGE_LOOP('',(#397,#398,#399,#400));
#274=AXIS2_PLACEMENT_3D('',#401,#402,#403);
#275=SURFACE_SIDE_STYLE('',(#404));
#276=EDGE_LOOP('',(#405,#406));
#277=EDGE_LOOP('',(#407,#408));
#278=AXIS2_PLACEMENT_3D('',#409,#410,#411);
#279=DRAUGHTING_PRE_DEFINED_CURVE_FONT('continuous');
#280=COLOUR_RGB('',0.509803950786591,0.509803950786591,0.588235318660736);
#281=AXIS2_PLACEMENT_3D('',#412,#413,#414);
#282=DRAUGHTING_PRE_DEFINED_CURVE_FONT('continuous');
#283=COLOUR_RGB('',0.509803950786591,0.509803950786591,0.588235318660736);
#284=CARTESIAN_POINT('',(-10.5,2.87069827208656E-015,3.59999999999997));
#285=VECTOR('',#415,1.0);
#286=DRAUGHTING_PRE_DEFINED_CURVE_FONT('continuous');
#287=COLOUR_RGB('',0.509803950786591,0.509803950786591,0.588235318660736);
#288=CARTESIAN_POINT('',(-5.25,4.40119261784687E-015,1.74999999999999));
#289=VECTOR('',#416,1.0);
#290=DRAUGHTING_PRE_DEFINED_CURVE_FONT('continuous');
#291=COLOUR_RGB('',0.509803950786591,0.509803950786591,0.588235318660736);
#292=AXIS2_PLACEMENT_3D('',#417,#418,#419);
#293=DRAUGHTING_PRE_DEFINED_CURVE_FONT('continuous');
#294=COLOUR_RGB('',0.509803950786591,0.509803950786591,0.588235318660736);
#295=AXIS2_PLACEMENT_3D('',#420,#421,#422);
#296=DRAUGHTING_PRE_DEFINED_CURVE_FONT('continuous');
#297=COLOUR_RGB('',0.509803950786591,0.509803950786591,0.588235318660736);
#298=AXIS2_PLACEMENT_3D('',#423,#424,#425);
#299=DRAUGHTING_PRE_DEFINED_CURVE_FONT('continuous');
#300=COLOUR_RGB('',0.509803950786591,0.509803950786591,0.588235318660736);
#301=AXIS2_PLACEMENT_3D('',#426,#427,#428);
#302=PRE_DEFINED_MARKER('');
#303=COLOUR_RGB('',0.509803950786591,0.509803950786591,0.588235318660736);
#304=PRE_DEFINED_MARKER('');
#305=COLOUR_RGB('',0.509803950786591,0.509803950786591,0.588235318660736);
#306=DRAUGHTING_PRE_DEFINED_CURVE_FONT('continuous');
#307=COLOUR_RGB('',0.509803950786591,0.509803950786591,0.588235318660736);
#308=AXIS2_PLACEMENT_3D('',#429,#430,#431);
#309=SURFACE_SIDE_STYLE('',(#432));
#310=EDGE_LOOP('',(#433,#434));
#311=EDGE_LOOP('',(#435,#436));
#312=AXIS2_PLACEMENT_3D('',#437,#438,#439);
#313=PRE_DEFINED_MARKER('');
#314=COLOUR_RGB('',0.509803950786591,0.509803950786591,0.588235318660736);
#315=PRE_DEFINED_MARKER('');
#316=COLOUR_RGB('',0.509803950786591,0.509803950786591,0.588235318660736);
#317=DRAUGHTING_PRE_DEFINED_CURVE_FONT('continuous');
#318=COLOUR_RGB('',0.509803950786591,0.509803950786591,0.588235318660736);
#319=CARTESIAN_POINT('',(-5.5,4.32831193471542E-015,3.75));
#320=VECTOR('',#440,1.0);
#321=PRE_DEFINED_MARKER('');
#322=COLOUR_RGB('',0.509803950786591,0.509803950786591,0.588235318660736);
#323=DRAUGHTING_PRE_DEFINED_CURVE_FONT('continuous');
#324=COLOUR_RGB('',0.509803950786591,0.509803950786591,0.588235318660736);
#325=CARTESIAN_POINT('',(5.50000000000006,7.53506199249895E-015,3.75));
#326=VECTOR('',#441,1.0);
#327=DRAUGHTING_PRE_DEFINED_CURVE_FONT('continuous');
#328=COLOUR_RGB('',0.509803950786591,0.509803950786591,0.588235318660736);
#329=AXIS2_PLACEMENT_3D('',#442,#443,#444);
#330=DRAUGHTING_PRE_DEFINED_CURVE_FONT('continuous');
#331=COLOUR_RGB('',0.509803950786591,0.509803950786591,0.588235318660736);
#332=AXIS2_PLACEMENT_3D('',#445,#446,#447);
#333=SURFACE_SIDE_STYLE('',(#448));
#334=EDGE_LOOP('',(#449,#450,#451,#452));
#335=AXIS2_PLACEMENT_3D('',#453,#454,#455);
#336=SURFACE_SIDE_STYLE('',(#456));
#337=EDGE_LOOP('',(#457,#458,#459,#460));
#338=AXIS2_PLACEMENT_3D('',#461,#462,#463);
#339=DRAUGHTING_PRE_DEFINED_CURVE_FONT('continuous');
#340=COLOUR_RGB('',0.509803950786591,0.509803950786591,0.588235318660736);
#341=CARTESIAN_POINT('',(5.25000000000006,7.4621813093675E-015,1.74999999999999));
#342=VECTOR('',#464,1.0);
#343=DRAUGHTING_PRE_DEFINED_CURVE_FONT('continuous');
#344=COLOUR_RGB('',0.509803950786591,0.509803950786591,0.588235318660736);
#345=AXIS2_PLACEMENT_3D('',#465,#466,#467);
#346=DRAUGHTING_PRE_DEFINED_CURVE_FONT('continuous');
#347=COLOUR_RGB('',0.509803950786591,0.509803950786591,0.588235318660736);
#348=AXIS2_PLACEMENT_3D('',#468,#469,#470);
#349=SURFACE_SIDE_STYLE('',(#471));
#350=EDGE_LOOP('',(#472,#473,#474,#475));
#351=AXIS2_PLACEMENT_3D('',#476,#477,#478);
#352=DRAUGHTING_PRE_DEFINED_CURVE_FONT('continuous');
#353=COLOUR_RGB('',0.509803950786591,0.509803950786591,0.588235318660736);
#354=AXIS2_PLACEMENT_3D('',#479,#480,#481);
#355=DRAUGHTING_PRE_DEFINED_CURVE_FONT('continuous');
#356=COLOUR_RGB('',0.509803950786591,0.509803950786591,0.588235318660736);
#357=AXIS2_PLACEMENT_3D('',#482,#483,#484);
#358=PRE_DEFINED_MARKER('');
#359=COLOUR_RGB('',0.509803950786591,0.509803950786591,0.588235318660736);
#360=SURFACE_SIDE_STYLE('',(#485));
#361=SURFACE_SIDE_STYLE('',(#486));
#362=EDGE_LOOP('',(#487,#488,#489,#490));
#363=AXIS2_PLACEMENT_3D('',#491,#492,#493);
#364=PRE_DEFINED_MARKER('');
#365=COLOUR_RGB('',0.509803950786591,0.509803950786591,0.588235318660736);
#366=SURFACE_SIDE_STYLE('',(#494));
#367=EDGE_LOOP('',(#495,#496,#497,#498));
#368=AXIS2_PLACEMENT_3D('',#499,#500,#501);
#369=PRE_DEFINED_MARKER('');
#370=COLOUR_RGB('',0.509803950786591,0.509803950786591,0.588235318660736);
#371=DRAUGHTING_PRE_DEFINED_CURVE_FONT('continuous');
#372=COLOUR_RGB('',0.509803950786591,0.509803950786591,0.588235318660736);
#373=AXIS2_PLACEMENT_3D('',#502,#503,#504);
#374=SURFACE_SIDE_STYLE('',(#505));
#375=EDGE_LOOP('',(#506,#507,#508,#509));
#376=AXIS2_PLACEMENT_3D('',#510,#511,#512);
#377=PRE_DEFINED_MARKER('');
#378=COLOUR_RGB('',0.509803950786591,0.509803950786591,0.588235318660736);
#379=SURFACE_SIDE_STYLE('',(#513));
#380=EDGE_LOOP('',(#514,#515,#516,#517));
#381=AXIS2_PLACEMENT_3D('',#518,#519,#520);
#382=PRE_DEFINED_MARKER('');
#383=COLOUR_RGB('',0.509803950786591,0.509803950786591,0.588235318660736);
#384=PRE_DEFINED_MARKER('');
#385=COLOUR_RGB('',0.509803950786591,0.509803950786591,0.588235318660736);
#386=DRAUGHTING_PRE_DEFINED_CURVE_FONT('continuous');
#387=COLOUR_RGB('',0.509803950786591,0.509803950786591,0.588235318660736);
#388=AXIS2_PLACEMENT_3D('',#521,#522,#523);
#389=PRE_DEFINED_MARKER('');
#390=COLOUR_RGB('',0.509803950786591,0.509803950786591,0.588235318660736);
#391=DRAUGHTING_PRE_DEFINED_CURVE_FONT('continuous');
#392=COLOUR_RGB('',0.509803950786591,0.509803950786591,0.588235318660736);
#393=CARTESIAN_POINT('',(10.5000000000001,8.99267565512781E-015,3.59999999999997));
#394=VECTOR('',#524,1.0);
#396=SURFACE_STYLE_FILL_AREA(#525);
#397=ORIENTED_EDGE('',*,*,#73,.T.);
#398=ORIENTED_EDGE('',*,*,#103,.T.);
#399=ORIENTED_EDGE('',*,*,#151,.T.);
#400=ORIENTED_EDGE('',*,*,#83,.T.);
#401=CARTESIAN_POINT('',(2.8421709430404E-014,5.93168696360719E-015,2.0));
#402=DIRECTION('',(0.0,-0.0,1.0));
#403=DIRECTION('',(-1.0,-1.69062097143536E-016,0.0));
#404=SURFACE_STYLE_FILL_AREA(#526);
#405=ORIENTED_EDGE('',*,*,#77,.F.);
#406=ORIENTED_EDGE('',*,*,#83,.F.);
#407=ORIENTED_EDGE('',*,*,#81,.T.);
#408=ORIENTED_EDGE('',*,*,#113,.T.);
#409=CARTESIAN_POINT('',(-8.125,4.9366943011265E-015,4.0));
#410=DIRECTION('',(0.0,0.0,1.0));
#411=DIRECTION('',(-1.0,-1.22460635382238E-016,0.0));
#412=CARTESIAN_POINT('',(2.8421709430404E-014,5.93168696360719E-015,-2.8421709430404E-014));
#413=DIRECTION('',(-0.0,0.0,-1.0));
#414=DIRECTION('',(-1.0,-1.69062097143536E-016,0.0));
#415=DIRECTION('',(0.0,0.0,-1.0));
#416=DIRECTION('',(0.0,0.0,-1.0));
#417=CARTESIAN_POINT('',(2.8421709430404E-014,5.93168696360719E-015,4.0));
#418=DIRECTION('',(-0.0,0.0,-1.0));
#419=DIRECTION('',(-1.0,-1.69062097143536E-016,0.0));
#420=CARTESIAN_POINT('',(2.8421709430404E-014,5.93168696360719E-015,3.5));
#421=DIRECTION('',(-0.0,0.0,-1.0));
#422=DIRECTION('',(-1.0,-1.69062097143536E-016,0.0));
#423=CARTESIAN_POINT('',(2.8421709430404E-014,5.93168696360719E-015,4.0));
#424=DIRECTION('',(-0.0,0.0,-1.0));
#425=DIRECTION('',(-1.0,-1.69062097143536E-016,0.0));
#426=CARTESIAN_POINT('',(2.8421709430404E-014,5.93168696360719E-015,4.0));
#427=DIRECTION('',(-0.0,0.0,-1.0));
#428=DIRECTION('',(-1.0,-1.69062097143536E-016,0.0));
#429=CARTESIAN_POINT('',(1.14575016141316E-013,6.5386106066264E-015,-1.4210854715202E-014));
#430=DIRECTION('',(0.0,0.0,-1.0));
#431=DIRECTION('',(0.0,-1.0,0.0));
#432=SURFACE_STYLE_FILL_AREA(#527);
#433=ORIENTED_EDGE('',*,*,#119,.T.);
#434=ORIENTED_EDGE('',*,*,#89,.T.);
#435=ORIENTED_EDGE('',*,*,#71,.F.);
#436=ORIENTED_EDGE('',*,*,#147,.F.);
#437=CARTESIAN_POINT('',(-7.875,4.72238818920758E-015,-1.4210854715202E-014));
#438=DIRECTION('',(0.0,0.0,-1.0));
#439=DIRECTION('',(1.0,1.22460635382238E-016,0.0));
#440=DIRECTION('',(0.707106781186548,2.06137701039006E-016,-0.707106781186547));
#441=DIRECTION('',(0.707106781186548,2.06137701039006E-016,0.707106781186547));
#442=CARTESIAN_POINT('',(2.8421709430404E-014,5.93168696360719E-015,3.19999999999995));
#443=DIRECTION('',(0.0,0.0,1.0));
#444=DIRECTION('',(-1.0,-1.69062097143536E-016,0.0));
#445=CARTESIAN_POINT('',(2.8421709430404E-014,5.93168696360719E-015,3.19999999999995));
#446=DIRECTION('',(0.0,0.0,1.0));
#447=DIRECTION('',(-1.0,-1.69062097143536E-016,0.0));
#448=SURFACE_STYLE_FILL_AREA(#528);
#449=ORIENTED_EDGE('',*,*,#75,.F.);
#450=ORIENTED_EDGE('',*,*,#121,.F.);
#451=ORIENTED_EDGE('',*,*,#111,.F.);
#452=ORIENTED_EDGE('',*,*,#147,.T.);
#453=CARTESIAN_POINT('',(2.8421709430404E-014,5.93168696360719E-015,1.74999999999999));
#454=DIRECTION('',(0.0,-0.0,1.0));
#455=DIRECTION('',(-1.0,-1.69062097143536E-016,0.0));
#456=SURFACE_STYLE_FILL_AREA(#529);
#457=ORIENTED_EDGE('',*,*,#97,.T.);
#458=ORIENTED_EDGE('',*,*,#79,.T.);
#459=ORIENTED_EDGE('',*,*,#101,.T.);
#460=ORIENTED_EDGE('',*,*,#81,.F.);
#461=CARTESIAN_POINT('',(2.8421709430404E-014,5.93168696360719E-015,3.75));
#462=DIRECTION('',(0.0,-0.0,1.0));
#463=DIRECTION('',(-1.0,-1.69062097143536E-016,0.0));
#464=DIRECTION('',(0.0,0.0,1.0));
#465=CARTESIAN_POINT('',(2.8421709430404E-014,5.93168696360719E-015,4.0));
#466=DIRECTION('',(-0.0,0.0,-1.0));
#467=DIRECTION('',(-1.0,-1.69062097143536E-016,0.0));
#468=CARTESIAN_POINT('',(1.14575016141316E-013,6.5386106066264E-015,13.9121426428142));
#469=DIRECTION('',(2.44921270764475E-016,-1.0,0.0));
#470=DIRECTION('',(-0.0,0.0,1.0));
#471=SURFACE_STYLE_FILL_AREA(#530);
#472=ORIENTED_EDGE('',*,*,#135,.F.);
#473=ORIENTED_EDGE('',*,*,#119,.F.);
#474=ORIENTED_EDGE('',*,*,#115,.F.);
#475=ORIENTED_EDGE('',*,*,#105,.F.);
#476=CARTESIAN_POINT('',(1.14575016141316E-013,6.5386106066264E-015,13.9121426428142));
#477=DIRECTION('',(0.0,0.0,-1.0));
#478=DIRECTION('',(1.0,1.22460635382238E-016,0.0));
#479=CARTESIAN_POINT('',(1.14575016141316E-013,6.5386106066264E-015,-1.4210854715202E-014));
#480=DIRECTION('',(0.0,0.0,-1.0));
#481=DIRECTION('',(0.0,-1.0,0.0));
#482=CARTESIAN_POINT('',(2.8421709430404E-014,5.93168696360719E-015,3.5));
#483=DIRECTION('',(-0.0,0.0,-1.0));
#484=DIRECTION('',(-1.0,-1.69062097143536E-016,0.0));
#485=SURFACE_STYLE_FILL_AREA(#531);
#486=SURFACE_STYLE_FILL_AREA(#532);
#487=ORIENTED_EDGE('',*,*,#135,.T.);
#488=ORIENTED_EDGE('',*,*,#103,.F.);
#489=ORIENTED_EDGE('',*,*,#115,.T.);
#490=ORIENTED_EDGE('',*,*,#89,.F.);
#491=CARTESIAN_POINT('',(1.14575016141316E-013,6.5386106066264E-015,13.9121426428142));
#492=DIRECTION('',(0.0,0.0,-1.0));
#493=DIRECTION('',(1.0,1.22460635382238E-016,0.0));
#494=SURFACE_STYLE_FILL_AREA(#533);
#495=ORIENTED_EDGE('',*,*,#75,.T.);
#496=ORIENTED_EDGE('',*,*,#71,.T.);
#497=ORIENTED_EDGE('',*,*,#111,.T.);
#498=ORIENTED_EDGE('',*,*,#79,.F.);
#499=CARTESIAN_POINT('',(2.8421709430404E-014,5.93168696360719E-015,1.74999999999999));
#500=DIRECTION('',(0.0,-0.0,1.0));
#501=DIRECTION('',(-1.0,-1.69062097143536E-016,0.0));
#502=CARTESIAN_POINT('',(1.14575016141316E-013,6.5386106066264E-015,13.9121426428142));
#503=DIRECTION('',(2.44921270764475E-016,-1.0,0.0));
#504=DIRECTION('',(-0.0,0.0,1.0));
#505=SURFACE_STYLE_FILL_AREA(#534);
#506=ORIENTED_EDGE('',*,*,#97,.F.);
#507=ORIENTED_EDGE('',*,*,#113,.F.);
#508=ORIENTED_EDGE('',*,*,#101,.F.);
#509=ORIENTED_EDGE('',*,*,#121,.T.);
#510=CARTESIAN_POINT('',(2.8421709430404E-014,5.93168696360719E-015,3.75));
#511=DIRECTION('',(0.0,-0.0,1.0));
#512=DIRECTION('',(-1.0,-1.69062097143536E-016,0.0));
#513=SURFACE_STYLE_FILL_AREA(#535);
#514=ORIENTED_EDGE('',*,*,#73,.F.);
#515=ORIENTED_EDGE('',*,*,#77,.T.);
#516=ORIENTED_EDGE('',*,*,#151,.F.);
#517=ORIENTED_EDGE('',*,*,#105,.T.);
#518=CARTESIAN_POINT('',(2.8421709430404E-014,5.93168696360719E-015,2.0));
#519=DIRECTION('',(0.0,-0.0,1.0));
#520=DIRECTION('',(-1.0,-1.69062097143536E-016,0.0));
#521=CARTESIAN_POINT('',(2.8421709430404E-014,5.93168696360719E-015,-2.8421709430404E-014));
#522=DIRECTION('',(-0.0,0.0,-1.0));
#523=DIRECTION('',(-1.0,-1.69062097143536E-016,0.0));
#524=DIRECTION('',(-0.0,-0.0,1.0));
#525=FILL_AREA_STYLE('',(#536));
#526=FILL_AREA_STYLE('',(#537));
#527=FILL_AREA_STYLE('',(#538));
#528=FILL_AREA_STYLE('',(#539));
#529=FILL_AREA_STYLE('',(#540));
#530=FILL_AREA_STYLE('',(#541));
#531=FILL_AREA_STYLE('',(#542));
#532=FILL_AREA_STYLE('',(#543));
#533=FILL_AREA_STYLE('',(#544));
#534=FILL_AREA_STYLE('',(#545));
#535=FILL_AREA_STYLE('',(#546));
#536=FILL_AREA_STYLE_COLOUR('',#547);
#537=FILL_AREA_STYLE_COLOUR('',#548);
#538=FILL_AREA_STYLE_COLOUR('',#549);
#539=FILL_AREA_STYLE_COLOUR('',#550);
#540=FILL_AREA_STYLE_COLOUR('',#551);
#541=FILL_AREA_STYLE_COLOUR('',#552);
#542=FILL_AREA_STYLE_COLOUR('',#553);
#543=FILL_AREA_STYLE_COLOUR('',#554);
#544=FILL_AREA_STYLE_COLOUR('',#555);
#545=FILL_AREA_STYLE_COLOUR('',#556);
#546=FILL_AREA_STYLE_COLOUR('',#557);
#547=COLOUR_RGB('',0.509803950786591,0.509803950786591,0.588235318660736);
#548=COLOUR_RGB('',0.509803950786591,0.509803950786591,0.588235318660736);
#549=COLOUR_RGB('',0.509803950786591,0.509803950786591,0.588235318660736);
#550=COLOUR_RGB('',0.509803950786591,0.509803950786591,0.588235318660736);
#551=COLOUR_RGB('',0.509803950786591,0.509803950786591,0.588235318660736);
#552=COLOUR_RGB('',0.509803950786591,0.509803950786591,0.588235318660736);
#553=COLOUR_RGB('',0.509803950786591,0.509803950786591,0.588235318660736);
#554=COLOUR_RGB('',0.509803950786591,0.509803950786591,0.588235318660736);
#555=COLOUR_RGB('',0.509803950786591,0.509803950786591,0.588235318660736);
#556=COLOUR_RGB('',0.509803950786591,0.509803950786591,0.588235318660736);
#557=COLOUR_RGB('',0.509803950786591,0.509803950786591,0.588235318660736);
ENDSEC;
END-ISO-10303-21;
