ISO-10303-21;
HEADER;
FILE_DESCRIPTION(('STEP AP214'),'1');
FILE_NAME(' ','  ',('TraceParts'),('TraceParts S.A.'),'XStep 1.0',' ',' ');
FILE_SCHEMA(('automotive_design'));
ENDSEC;
DATA;
#1=MECHANICAL_DESIGN_GEOMETRIC_PRESENTATION_REPRESENTATION(' ',(#10,#11,#12,#13,#14,#15,#16,#17,#18,#19,#20,#21,#22,#23,#24,#25,#26,#27,#28,#29,#30,#31,#32,#33,#34,#35,#36,#37,#38,#39,#40,#41,#42,#43,#44,#45,#46,#47,#48,#49,#50,#51,#52),#6);
#2=PRODUCT_DEFINITION_CONTEXT('',#53,'design');
#3=APPLICATION_PROTOCOL_DEFINITION('INTERNATIONAL STANDARD','automotive_design',1994,#53);
#4=PRODUCT_CATEGORY_RELATIONSHIP('NONE','NONE',#54,#55);
#5=SHAPE_DEFINITION_REPRESENTATION(#56,#57);
#6= (GEOMETRIC_REPRESENTATION_CONTEXT(3)GLOBAL_UNCERTAINTY_ASSIGNED_CONTEXT((#60))GLOBAL_UNIT_ASSIGNED_CONTEXT((#62,#63,#64))REPRESENTATION_CONTEXT('NONE','WORKSPACE'));
#10=STYLED_ITEM('',(#66),#67);
#11=STYLED_ITEM('',(#68),#69);
#12=STYLED_ITEM('',(#70),#71);
#13=STYLED_ITEM('',(#72),#73);
#14=STYLED_ITEM('',(#74),#75);
#15=STYLED_ITEM('',(#76),#77);
#16=STYLED_ITEM('',(#78),#79);
#17=STYLED_ITEM('',(#80),#81);
#18=STYLED_ITEM('',(#82),#83);
#19=STYLED_ITEM('',(#84),#85);
#20=STYLED_ITEM('',(#86),#87);
#21=STYLED_ITEM('',(#88),#89);
#22=STYLED_ITEM('',(#90),#91);
#23=STYLED_ITEM('',(#92),#93);
#24=STYLED_ITEM('',(#94),#95);
#25=STYLED_ITEM('',(#96),#97);
#26=STYLED_ITEM('',(#98),#99);
#27=STYLED_ITEM('',(#100),#101);
#28=STYLED_ITEM('',(#102),#103);
#29=STYLED_ITEM('',(#104),#105);
#30=STYLED_ITEM('',(#106),#107);
#31=STYLED_ITEM('',(#108),#109);
#32=STYLED_ITEM('',(#110),#111);
#33=STYLED_ITEM('',(#112),#113);
#34=STYLED_ITEM('',(#114),#115);
#35=STYLED_ITEM('',(#116),#117);
#36=STYLED_ITEM('',(#118),#119);
#37=STYLED_ITEM('',(#120),#121);
#38=STYLED_ITEM('',(#122),#123);
#39=STYLED_ITEM('',(#124),#125);
#40=STYLED_ITEM('',(#126),#127);
#41=STYLED_ITEM('',(#128),#129);
#42=STYLED_ITEM('',(#130),#131);
#43=STYLED_ITEM('',(#132),#133);
#44=STYLED_ITEM('',(#134),#135);
#45=STYLED_ITEM('',(#136),#137);
#46=STYLED_ITEM('',(#138),#139);
#47=STYLED_ITEM('',(#140),#141);
#48=STYLED_ITEM('',(#142),#143);
#49=STYLED_ITEM('',(#144),#145);
#50=STYLED_ITEM('',(#146),#147);
#51=STYLED_ITEM('',(#148),#149);
#52=STYLED_ITEM('',(#150),#151);
#53=APPLICATION_CONTEXT(' ');
#54=PRODUCT_CATEGORY('part','NONE');
#55=PRODUCT_RELATED_PRODUCT_CATEGORY('detail',' ',(#152));
#56=PRODUCT_DEFINITION_SHAPE('NONE','NONE',#153);
#57=ADVANCED_BREP_SHAPE_REPRESENTATION('1',(#145,#154),#6);
#60=UNCERTAINTY_MEASURE_WITH_UNIT(LENGTH_MEASURE(1.0E-006),#62,'','');
#62= (CONVERSION_BASED_UNIT('MILLIMETRE',#157)LENGTH_UNIT()NAMED_UNIT(#160));
#63= (NAMED_UNIT(#162)PLANE_ANGLE_UNIT()SI_UNIT($,.RADIAN.));
#64= (NAMED_UNIT(#162)SOLID_ANGLE_UNIT()SI_UNIT($,.STERADIAN.));
#66=PRESENTATION_STYLE_ASSIGNMENT((#168));
#67=EDGE_CURVE('',#111,#103,#169,.T.);
#68=PRESENTATION_STYLE_ASSIGNMENT((#170));
#69=VERTEX_POINT('',#171);
#70=PRESENTATION_STYLE_ASSIGNMENT((#172));
#71=EDGE_CURVE('',#101,#99,#173,.T.);
#72=PRESENTATION_STYLE_ASSIGNMENT((#174));
#73=EDGE_CURVE('',#131,#109,#175,.T.);
#74=PRESENTATION_STYLE_ASSIGNMENT((#176));
#75=ADVANCED_FACE('',(#177),#178,.T.);
#76=PRESENTATION_STYLE_ASSIGNMENT((#179));
#77=EDGE_CURVE('',#101,#69,#180,.T.);
#78=PRESENTATION_STYLE_ASSIGNMENT((#181));
#79=VERTEX_POINT('',#182);
#80=PRESENTATION_STYLE_ASSIGNMENT((#183));
#81=EDGE_CURVE('',#103,#111,#184,.T.);
#82=PRESENTATION_STYLE_ASSIGNMENT((#185));
#83=EDGE_CURVE('',#69,#103,#186,.T.);
#84=PRESENTATION_STYLE_ASSIGNMENT((#187));
#85=EDGE_CURVE('',#69,#101,#188,.T.);
#86=PRESENTATION_STYLE_ASSIGNMENT((#189));
#87=EDGE_CURVE('',#107,#147,#190,.T.);
#88=PRESENTATION_STYLE_ASSIGNMENT((#191));
#89=EDGE_CURVE('',#97,#141,#192,.T.);
#90=PRESENTATION_STYLE_ASSIGNMENT((#193));
#91=EDGE_CURVE('',#99,#79,#194,.T.);
#92=PRESENTATION_STYLE_ASSIGNMENT((#195));
#93=ADVANCED_FACE('',(#196),#197,.T.);
#94=PRESENTATION_STYLE_ASSIGNMENT((#198));
#95=ADVANCED_FACE('',(#199),#200,.F.);
#96=PRESENTATION_STYLE_ASSIGNMENT((#201));
#97=VERTEX_POINT('',#202);
#98=PRESENTATION_STYLE_ASSIGNMENT((#203));
#99=VERTEX_POINT('',#204);
#100=PRESENTATION_STYLE_ASSIGNMENT((#205));
#101=VERTEX_POINT('',#206);
#102=PRESENTATION_STYLE_ASSIGNMENT((#207));
#103=VERTEX_POINT('',#208);
#104=PRESENTATION_STYLE_ASSIGNMENT((#209));
#105=EDGE_CURVE('',#111,#101,#210,.T.);
#106=PRESENTATION_STYLE_ASSIGNMENT((#211));
#107=VERTEX_POINT('',#212);
#108=PRESENTATION_STYLE_ASSIGNMENT((#213));
#109=VERTEX_POINT('',#214);
#110=PRESENTATION_STYLE_ASSIGNMENT((#215));
#111=VERTEX_POINT('',#216);
#112=PRESENTATION_STYLE_ASSIGNMENT((#217));
#113=EDGE_CURVE('',#141,#147,#218,.T.);
#114=PRESENTATION_STYLE_ASSIGNMENT((#219));
#115=EDGE_CURVE('',#79,#69,#220,.T.);
#116=PRESENTATION_STYLE_ASSIGNMENT((#221));
#117=ADVANCED_FACE('',(#222),#223,.F.);
#118=PRESENTATION_STYLE_ASSIGNMENT((#224));
#119=EDGE_CURVE('',#131,#141,#225,.T.);
#120=PRESENTATION_STYLE_ASSIGNMENT((#226));
#121=EDGE_CURVE('',#147,#107,#227,.T.);
#122=PRESENTATION_STYLE_ASSIGNMENT((#228));
#123=ADVANCED_FACE('',(#229),#230,.T.);
#124=PRESENTATION_STYLE_ASSIGNMENT((#231));
#125=ADVANCED_FACE('',(#232),#233,.T.);
#126=PRESENTATION_STYLE_ASSIGNMENT((#234));
#127=ADVANCED_FACE('',(#235),#236,.F.);
#128=PRESENTATION_STYLE_ASSIGNMENT((#237));
#129=EDGE_CURVE('',#97,#109,#238,.T.);
#130=PRESENTATION_STYLE_ASSIGNMENT((#239));
#131=VERTEX_POINT('',#240);
#132=PRESENTATION_STYLE_ASSIGNMENT((#241));
#133=EDGE_CURVE('',#109,#97,#242,.T.);
#134=PRESENTATION_STYLE_ASSIGNMENT((#243));
#135=EDGE_CURVE('',#79,#99,#244,.T.);
#136=PRESENTATION_STYLE_ASSIGNMENT((#245));
#137=ADVANCED_FACE('',(#246),#247,.F.);
#138=PRESENTATION_STYLE_ASSIGNMENT((#248));
#139=EDGE_CURVE('',#141,#131,#249,.T.);
#140=PRESENTATION_STYLE_ASSIGNMENT((#250));
#141=VERTEX_POINT('',#251);
#142=PRESENTATION_STYLE_ASSIGNMENT((#252));
#143=ADVANCED_FACE('',(#253,#254),#255,.T.);
#144=PRESENTATION_STYLE_ASSIGNMENT((#256));
#145=MANIFOLD_SOLID_BREP('1',#257);
#146=PRESENTATION_STYLE_ASSIGNMENT((#258));
#147=VERTEX_POINT('',#259);
#148=PRESENTATION_STYLE_ASSIGNMENT((#260));
#149=ADVANCED_FACE('',(#261,#262),#263,.T.);
#150=PRESENTATION_STYLE_ASSIGNMENT((#264));
#151=EDGE_CURVE('',#107,#131,#265,.T.);
#152=PRODUCT('1','1','PART-1-DESC',(#266));
#153=PRODUCT_DEFINITION('NONE','NONE',#267,#2);
#154=AXIS2_PLACEMENT_3D('',#268,#269,#270);
#157=LENGTH_MEASURE_WITH_UNIT(LENGTH_MEASURE(1.0),#271);
#160=DIMENSIONAL_EXPONENTS(1.0,0.0,0.0,0.0,0.0,0.0,0.0);
#162=DIMENSIONAL_EXPONENTS(0.0,0.0,0.0,0.0,0.0,0.0,0.0);
#168=CURVE_STYLE('',#272,POSITIVE_LENGTH_MEASURE(1.0E-006),#273);
#169=CIRCLE('',#274,4.63068101904531);
#170=POINT_STYLE(' ',#275,POSITIVE_LENGTH_MEASURE(1.0E-006),#276);
#171=CARTESIAN_POINT('',(-8.49999999999994,4.60911210147902E-015,2.59999999999998));
#172=CURVE_STYLE('',#277,POSITIVE_LENGTH_MEASURE(1.0E-006),#278);
#173=LINE('',#279,#280);
#174=CURVE_STYLE('',#281,POSITIVE_LENGTH_MEASURE(1.0E-006),#282);
#175=LINE('',#283,#284);
#176=SURFACE_STYLE_USAGE(.BOTH.,#285);
#177=FACE_OUTER_BOUND('',#286,.T.);
#178=SPHERICAL_SURFACE('',#287,12.0);
#179=CURVE_STYLE('',#288,POSITIVE_LENGTH_MEASURE(1.0E-006),#289);
#180=CIRCLE('',#290,8.5);
#181=POINT_STYLE(' ',#291,POSITIVE_LENGTH_MEASURE(1.0E-006),#292);
#182=CARTESIAN_POINT('',(-8.49999999999997,4.64585029209369E-015,3.19999999999999));
#183=CURVE_STYLE('',#293,POSITIVE_LENGTH_MEASURE(1.0E-006),#294);
#184=CIRCLE('',#295,4.63068101904531);
#185=CURVE_STYLE('',#296,POSITIVE_LENGTH_MEASURE(1.0E-006),#297);
#186=CIRCLE('',#298,12.0);
#187=CURVE_STYLE('',#299,POSITIVE_LENGTH_MEASURE(1.0E-006),#300);
#188=CIRCLE('',#301,8.5);
#189=CURVE_STYLE('',#302,POSITIVE_LENGTH_MEASURE(1.0E-006),#303);
#190=CIRCLE('',#304,4.69999999999999);
#191=CURVE_STYLE('',#305,POSITIVE_LENGTH_MEASURE(1.0E-006),#306);
#192=LINE('',#307,#308);
#193=CURVE_STYLE('',#309,POSITIVE_LENGTH_MEASURE(1.0E-006),#310);
#194=CIRCLE('',#311,8.5);
#195=SURFACE_STYLE_USAGE(.BOTH.,#312);
#196=FACE_OUTER_BOUND('',#313,.T.);
#197=CYLINDRICAL_SURFACE('',#314,8.5);
#198=SURFACE_STYLE_USAGE(.BOTH.,#315);
#199=FACE_OUTER_BOUND('',#316,.T.);
#200=CONICAL_SURFACE('',#317,4.44999999999999,0.785398163397448);
#201=POINT_STYLE(' ',#318,POSITIVE_LENGTH_MEASURE(1.0E-006),#319);
#202=CARTESIAN_POINT('',(4.20000000000002,6.91116870078003E-015,-2.8421709430404E-014));
#203=POINT_STYLE(' ',#320,POSITIVE_LENGTH_MEASURE(1.0E-006),#321);
#204=CARTESIAN_POINT('',(8.50000000000003,8.1647241612873E-015,3.19999999999999));
#205=POINT_STYLE(' ',#322,POSITIVE_LENGTH_MEASURE(1.0E-006),#323);
#206=CARTESIAN_POINT('',(8.50000000000003,8.25051198584628E-015,2.60000000000001));
#207=POINT_STYLE(' ',#324,POSITIVE_LENGTH_MEASURE(1.0E-006),#325);
#208=CARTESIAN_POINT('',(-4.63068101904527,4.92375253638638E-015,-1.59872115546023E-014));
#209=CURVE_STYLE('',#326,POSITIVE_LENGTH_MEASURE(1.0E-006),#327);
#210=CIRCLE('',#328,12.0);
#211=POINT_STYLE(' ',#329,POSITIVE_LENGTH_MEASURE(1.0E-006),#330);
#212=CARTESIAN_POINT('',(-4.69999999999996,5.1112007065462E-015,3.19999999999999));
#213=POINT_STYLE(' ',#331,POSITIVE_LENGTH_MEASURE(1.0E-006),#332);
#214=CARTESIAN_POINT('',(-4.19999999999996,4.97649400762573E-015,-2.8421709430404E-014));
#215=POINT_STYLE(' ',#333,POSITIVE_LENGTH_MEASURE(1.0E-006),#334);
#216=CARTESIAN_POINT('',(4.63068101904534,7.30283346403776E-015,-1.4210854715202E-014));
#217=CURVE_STYLE('',#335,POSITIVE_LENGTH_MEASURE(1.0E-006),#336);
#218=LINE('',#337,#338);
#219=CURVE_STYLE('',#339,POSITIVE_LENGTH_MEASURE(1.0E-006),#340);
#220=LINE('',#341,#342);
#221=SURFACE_STYLE_USAGE(.BOTH.,#343);
#222=FACE_OUTER_BOUND('',#344,.T.);
#223=CYLINDRICAL_SURFACE('',#345,4.19999999999999);
#224=CURVE_STYLE('',#346,POSITIVE_LENGTH_MEASURE(1.0E-006),#347);
#225=CIRCLE('',#348,4.19999999999999);
#226=CURVE_STYLE('',#349,POSITIVE_LENGTH_MEASURE(1.0E-006),#350);
#227=CIRCLE('',#351,4.69999999999999);
#228=SURFACE_STYLE_USAGE(.BOTH.,#352);
#229=FACE_OUTER_BOUND('',#353,.T.);
#230=CYLINDRICAL_SURFACE('',#354,8.5);
#231=SURFACE_STYLE_USAGE(.BOTH.,#355);
#232=FACE_OUTER_BOUND('',#356,.T.);
#233=SPHERICAL_SURFACE('',#357,12.0);
#234=SURFACE_STYLE_USAGE(.BOTH.,#358);
#235=FACE_OUTER_BOUND('',#359,.T.);
#236=CYLINDRICAL_SURFACE('',#360,4.19999999999999);
#237=CURVE_STYLE('',#361,POSITIVE_LENGTH_MEASURE(1.0E-006),#362);
#238=CIRCLE('',#363,4.19999999999999);
#239=POINT_STYLE(' ',#364,POSITIVE_LENGTH_MEASURE(1.0E-006),#365);
#240=CARTESIAN_POINT('',(-4.19999999999996,5.14181586539176E-015,2.69999999999999));
#241=CURVE_STYLE('',#366,POSITIVE_LENGTH_MEASURE(1.0E-006),#367);
#242=CIRCLE('',#368,4.19999999999999);
#243=CURVE_STYLE('',#369,POSITIVE_LENGTH_MEASURE(1.0E-006),#370);
#244=CIRCLE('',#371,8.5);
#245=SURFACE_STYLE_USAGE(.BOTH.,#372);
#246=FACE_OUTER_BOUND('',#373,.T.);
#247=CONICAL_SURFACE('',#374,4.44999999999999,0.785398163397448);
#248=CURVE_STYLE('',#375,POSITIVE_LENGTH_MEASURE(1.0E-006),#376);
#249=CIRCLE('',#377,4.19999999999999);
#250=POINT_STYLE(' ',#378,POSITIVE_LENGTH_MEASURE(1.0E-006),#379);
#251=CARTESIAN_POINT('',(4.20000000000002,6.91116870078003E-015,2.69999999999999));
#252=SURFACE_STYLE_USAGE(.BOTH.,#380);
#253=FACE_OUTER_BOUND('',#381,.T.);
#254=FACE_BOUND('',#382,.T.);
#255=PLANE('',#383);
#256=SURFACE_STYLE_USAGE(.BOTH.,#384);
#257=CLOSED_SHELL('',(#127,#123,#137,#75,#125,#95,#143,#93,#149,#117));
#258=POINT_STYLE(' ',#385,POSITIVE_LENGTH_MEASURE(1.0E-006),#386);
#259=CARTESIAN_POINT('',(4.70000000000002,7.05693096362971E-015,3.19999999999999));
#260=SURFACE_STYLE_USAGE(.BOTH.,#387);
#261=FACE_OUTER_BOUND('',#388,.T.);
#262=FACE_BOUND('',#389,.T.);
#263=PLANE('',#390);
#264=CURVE_STYLE('',#391,POSITIVE_LENGTH_MEASURE(1.0E-006),#392);
#265=LINE('',#393,#394);
#266=PRODUCT_CONTEXT('',#53,'mechanical');
#267=PRODUCT_DEFINITION_FORMATION_WITH_SPECIFIED_SOURCE(' ','NONE',#152,.NOT_KNOWN.);
#268=CARTESIAN_POINT('',(0.0,0.0,0.0));
#269=DIRECTION('',(0.0,0.0,1.0));
#270=DIRECTION('',(1.0,0.0,0.0));
#271= (NAMED_UNIT(#160)LENGTH_UNIT()SI_UNIT(.MILLI.,.METRE.));
#272=DRAUGHTING_PRE_DEFINED_CURVE_FONT('continuous');
#273=COLOUR_RGB('',0.509803950786591,0.509803950786591,0.588235318660736);
#274=AXIS2_PLACEMENT_3D('',#396,#397,#398);
#275=PRE_DEFINED_MARKER('');
#276=COLOUR_RGB('',0.509803950786591,0.509803950786591,0.588235318660736);
#277=DRAUGHTING_PRE_DEFINED_CURVE_FONT('continuous');
#278=COLOUR_RGB('',0.509803950786591,0.509803950786591,0.588235318660736);
#279=CARTESIAN_POINT('',(8.50000000000003,8.1647241612873E-015,2.89999999999998));
#280=VECTOR('',#399,1.0);
#281=DRAUGHTING_PRE_DEFINED_CURVE_FONT('continuous');
#282=COLOUR_RGB('',0.509803950786591,0.509803950786591,0.588235318660736);
#283=CARTESIAN_POINT('',(-4.19999999999996,4.46236268490539E-015,1.34999999999998));
#284=VECTOR('',#400,1.0);
#285=SURFACE_SIDE_STYLE('',(#401));
#286=EDGE_LOOP('',(#402,#403,#404,#405));
#287=AXIS2_PLACEMENT_3D('',#406,#407,#408);
#288=DRAUGHTING_PRE_DEFINED_CURVE_FONT('continuous');
#289=COLOUR_RGB('',0.509803950786591,0.509803950786591,0.588235318660736);
#290=AXIS2_PLACEMENT_3D('',#409,#410,#411);
#291=PRE_DEFINED_MARKER('');
#292=COLOUR_RGB('',0.509803950786591,0.509803950786591,0.588235318660736);
#293=DRAUGHTING_PRE_DEFINED_CURVE_FONT('continuous');
#294=COLOUR_RGB('',0.509803950786591,0.509803950786591,0.588235318660736);
#295=AXIS2_PLACEMENT_3D('',#412,#413,#414);
#296=DRAUGHTING_PRE_DEFINED_CURVE_FONT('continuous');
#297=COLOUR_RGB('',0.509803950786591,0.509803950786591,0.588235318660736);
#298=AXIS2_PLACEMENT_3D('',#415,#416,#417);
#299=DRAUGHTING_PRE_DEFINED_CURVE_FONT('continuous');
#300=COLOUR_RGB('',0.509803950786591,0.509803950786591,0.588235318660736);
#301=AXIS2_PLACEMENT_3D('',#418,#419,#420);
#302=DRAUGHTING_PRE_DEFINED_CURVE_FONT('continuous');
#303=COLOUR_RGB('',0.509803950786591,0.509803950786591,0.588235318660736);
#304=AXIS2_PLACEMENT_3D('',#421,#422,#423);
#305=DRAUGHTING_PRE_DEFINED_CURVE_FONT('continuous');
#306=COLOUR_RGB('',0.509803950786591,0.509803950786591,0.588235318660736);
#307=CARTESIAN_POINT('',(4.20000000000002,6.91116870078003E-015,1.34999999999998));
#308=VECTOR('',#424,1.0);
#309=DRAUGHTING_PRE_DEFINED_CURVE_FONT('continuous');
#310=COLOUR_RGB('',0.509803950786591,0.509803950786591,0.588235318660736);
#311=AXIS2_PLACEMENT_3D('',#425,#426,#427);
#312=SURFACE_SIDE_STYLE('',(#428));
#313=EDGE_LOOP('',(#429,#430,#431,#432));
#314=AXIS2_PLACEMENT_3D('',#433,#434,#435);
#315=SURFACE_SIDE_STYLE('',(#436));
#316=EDGE_LOOP('',(#437,#438,#439,#440));
#317=AXIS2_PLACEMENT_3D('',#441,#442,#443);
#318=PRE_DEFINED_MARKER('');
#319=COLOUR_RGB('',0.509803950786591,0.509803950786591,0.588235318660736);
#320=PRE_DEFINED_MARKER('');
#321=COLOUR_RGB('',0.509803950786591,0.509803950786591,0.588235318660736);
#322=PRE_DEFINED_MARKER('');
#323=COLOUR_RGB('',0.509803950786591,0.509803950786591,0.588235318660736);
#324=PRE_DEFINED_MARKER('');
#325=COLOUR_RGB('',0.509803950786591,0.509803950786591,0.588235318660736);
#326=DRAUGHTING_PRE_DEFINED_CURVE_FONT('continuous');
#327=COLOUR_RGB('',0.509803950786591,0.509803950786591,0.588235318660736);
#328=AXIS2_PLACEMENT_3D('',#444,#445,#446);
#329=PRE_DEFINED_MARKER('');
#330=COLOUR_RGB('',0.509803950786591,0.509803950786591,0.588235318660736);
#331=PRE_DEFINED_MARKER('');
#332=COLOUR_RGB('',0.509803950786591,0.509803950786591,0.588235318660736);
#333=PRE_DEFINED_MARKER('');
#334=COLOUR_RGB('',0.509803950786591,0.509803950786591,0.588235318660736);
#335=DRAUGHTING_PRE_DEFINED_CURVE_FONT('continuous');
#336=COLOUR_RGB('',0.509803950786591,0.509803950786591,0.588235318660736);
#337=CARTESIAN_POINT('',(4.45000000000002,6.98404983220487E-015,2.94999999999999));
#338=VECTOR('',#447,1.0);
#339=DRAUGHTING_PRE_DEFINED_CURVE_FONT('continuous');
#340=COLOUR_RGB('',0.509803950786591,0.509803950786591,0.588235318660736);
#341=CARTESIAN_POINT('',(-8.49999999999997,3.20880722439812E-015,2.89999999999998));
#342=VECTOR('',#448,1.0);
#343=SURFACE_SIDE_STYLE('',(#449));
#344=EDGE_LOOP('',(#450,#451,#452,#453));
#345=AXIS2_PLACEMENT_3D('',#454,#455,#456);
#346=DRAUGHTING_PRE_DEFINED_CURVE_FONT('continuous');
#347=COLOUR_RGB('',0.509803950786591,0.509803950786591,0.588235318660736);
#348=AXIS2_PLACEMENT_3D('',#457,#458,#459);
#349=DRAUGHTING_PRE_DEFINED_CURVE_FONT('continuous');
#350=COLOUR_RGB('',0.509803950786591,0.509803950786591,0.588235318660736);
#351=AXIS2_PLACEMENT_3D('',#460,#461,#462);
#352=SURFACE_SIDE_STYLE('',(#463));
#353=EDGE_LOOP('',(#464,#465,#466,#467));
#354=AXIS2_PLACEMENT_3D('',#468,#469,#470);
#355=SURFACE_SIDE_STYLE('',(#471));
#356=EDGE_LOOP('',(#472,#473,#474,#475));
#357=AXIS2_PLACEMENT_3D('',#476,#477,#478);
#358=SURFACE_SIDE_STYLE('',(#479));
#359=EDGE_LOOP('',(#480,#481,#482,#483));
#360=AXIS2_PLACEMENT_3D('',#484,#485,#486);
#361=DRAUGHTING_PRE_DEFINED_CURVE_FONT('continuous');
#362=COLOUR_RGB('',0.509803950786591,0.509803950786591,0.588235318660736);
#363=AXIS2_PLACEMENT_3D('',#487,#488,#489);
#364=PRE_DEFINED_MARKER('');
#365=COLOUR_RGB('',0.509803950786591,0.509803950786591,0.588235318660736);
#366=DRAUGHTING_PRE_DEFINED_CURVE_FONT('continuous');
#367=COLOUR_RGB('',0.509803950786591,0.509803950786591,0.588235318660736);
#368=AXIS2_PLACEMENT_3D('',#490,#491,#492);
#369=DRAUGHTING_PRE_DEFINED_CURVE_FONT('continuous');
#370=COLOUR_RGB('',0.509803950786591,0.509803950786591,0.588235318660736);
#371=AXIS2_PLACEMENT_3D('',#493,#494,#495);
#372=SURFACE_SIDE_STYLE('',(#496));
#373=EDGE_LOOP('',(#497,#498,#499,#500));
#374=AXIS2_PLACEMENT_3D('',#501,#502,#503);
#375=DRAUGHTING_PRE_DEFINED_CURVE_FONT('continuous');
#376=COLOUR_RGB('',0.509803950786591,0.509803950786591,0.588235318660736);
#377=AXIS2_PLACEMENT_3D('',#504,#505,#506);
#378=PRE_DEFINED_MARKER('');
#379=COLOUR_RGB('',0.509803950786591,0.509803950786591,0.588235318660736);
#380=SURFACE_SIDE_STYLE('',(#507));
#381=EDGE_LOOP('',(#508,#509));
#382=EDGE_LOOP('',(#510,#511));
#383=AXIS2_PLACEMENT_3D('',#512,#513,#514);
#384=SURFACE_SIDE_STYLE('',(#515));
#385=PRE_DEFINED_MARKER('');
#386=COLOUR_RGB('',0.509803950786591,0.509803950786591,0.588235318660736);
#387=SURFACE_SIDE_STYLE('',(#516));
#388=EDGE_LOOP('',(#517,#518));
#389=EDGE_LOOP('',(#519,#520));
#390=AXIS2_PLACEMENT_3D('',#521,#522,#523);
#391=DRAUGHTING_PRE_DEFINED_CURVE_FONT('continuous');
#392=COLOUR_RGB('',0.509803950786591,0.509803950786591,0.588235318660736);
#393=CARTESIAN_POINT('',(-4.44999999999996,4.38948155348055E-015,2.94999999999999));
#394=VECTOR('',#524,1.0);
#396=CARTESIAN_POINT('',(3.01980662698043E-014,6.16868118434824E-015,-1.4210854715202E-014));
#397=DIRECTION('',(0.0,0.0,-1.0));
#398=DIRECTION('',(0.0,-1.0,0.0));
#399=DIRECTION('',(-0.0,-0.0,1.0));
#400=DIRECTION('',(0.0,0.0,-1.0));
#401=SURFACE_STYLE_FILL_AREA(#525);
#402=ORIENTED_EDGE('',*,*,#105,.F.);
#403=ORIENTED_EDGE('',*,*,#81,.F.);
#404=ORIENTED_EDGE('',*,*,#83,.F.);
#405=ORIENTED_EDGE('',*,*,#77,.F.);
#406=CARTESIAN_POINT('',(3.01980662698043E-014,6.16868118434824E-015,11.0705371730487));
#407=DIRECTION('',(0.0,0.0,-1.0));
#408=DIRECTION('',(1.0,1.22460635382238E-016,0.0));
#409=CARTESIAN_POINT('',(2.8421709430404E-014,5.68676569284271E-015,2.60000000000001));
#410=DIRECTION('',(0.0,0.0,1.0));
#411=DIRECTION('',(-1.0,-1.69063890317125E-016,0.0));
#412=CARTESIAN_POINT('',(3.01980662698043E-014,6.16868118434824E-015,-1.4210854715202E-014));
#413=DIRECTION('',(0.0,0.0,-1.0));
#414=DIRECTION('',(0.0,-1.0,0.0));
#415=CARTESIAN_POINT('',(3.01980662698043E-014,6.16868118434824E-015,11.0705371730487));
#416=DIRECTION('',(2.44921270764475E-016,-1.0,0.0));
#417=DIRECTION('',(-0.0,0.0,1.0));
#418=CARTESIAN_POINT('',(2.8421709430404E-014,5.68676569284271E-015,2.60000000000001));
#419=DIRECTION('',(0.0,0.0,1.0));
#420=DIRECTION('',(-1.0,-1.69063890317125E-016,0.0));
#421=CARTESIAN_POINT('',(2.8421709430404E-014,5.68676569284271E-015,3.19999999999999));
#422=DIRECTION('',(-0.0,0.0,-1.0));
#423=DIRECTION('',(-1.0,-1.69063890317125E-016,0.0));
#424=DIRECTION('',(0.0,0.0,1.0));
#425=CARTESIAN_POINT('',(2.8421709430404E-014,5.68676569284271E-015,3.19999999999999));
#426=DIRECTION('',(-0.0,0.0,-1.0));
#427=DIRECTION('',(-1.0,-1.69063890317125E-016,0.0));
#428=SURFACE_STYLE_FILL_AREA(#526);
#429=ORIENTED_EDGE('',*,*,#115,.T.);
#430=ORIENTED_EDGE('',*,*,#85,.T.);
#431=ORIENTED_EDGE('',*,*,#71,.T.);
#432=ORIENTED_EDGE('',*,*,#91,.T.);
#433=CARTESIAN_POINT('',(2.8421709430404E-014,5.68676569284271E-015,1.59999999999999));
#434=DIRECTION('',(0.0,-0.0,1.0));
#435=DIRECTION('',(-1.0,-1.69063890317125E-016,0.0));
#436=SURFACE_STYLE_FILL_AREA(#527);
#437=ORIENTED_EDGE('',*,*,#151,.T.);
#438=ORIENTED_EDGE('',*,*,#119,.T.);
#439=ORIENTED_EDGE('',*,*,#113,.T.);
#440=ORIENTED_EDGE('',*,*,#87,.F.);
#441=CARTESIAN_POINT('',(2.8421709430404E-014,5.68676569284271E-015,2.94999999999999));
#442=DIRECTION('',(0.0,-0.0,1.0));
#443=DIRECTION('',(-1.0,-1.69063890317125E-016,0.0));
#444=CARTESIAN_POINT('',(3.01980662698043E-014,6.16868118434824E-015,11.0705371730487));
#445=DIRECTION('',(2.44921270764475E-016,-1.0,0.0));
#446=DIRECTION('',(-0.0,0.0,1.0));
#447=DIRECTION('',(0.707106781186548,2.06138969004212E-016,0.707106781186547));
#448=DIRECTION('',(0.0,0.0,-1.0));
#449=SURFACE_STYLE_FILL_AREA(#528);
#450=ORIENTED_EDGE('',*,*,#73,.T.);
#451=ORIENTED_EDGE('',*,*,#133,.T.);
#452=ORIENTED_EDGE('',*,*,#89,.T.);
#453=ORIENTED_EDGE('',*,*,#119,.F.);
#454=CARTESIAN_POINT('',(2.8421709430404E-014,5.68676569284271E-015,1.34999999999998));
#455=DIRECTION('',(0.0,-0.0,1.0));
#456=DIRECTION('',(-1.0,-1.69063890317125E-016,0.0));
#457=CARTESIAN_POINT('',(2.8421709430404E-014,5.68676569284271E-015,2.69999999999999));
#458=DIRECTION('',(-0.0,0.0,-1.0));
#459=DIRECTION('',(-1.0,-1.69063890317125E-016,0.0));
#460=CARTESIAN_POINT('',(2.8421709430404E-014,5.68676569284271E-015,3.19999999999999));
#461=DIRECTION('',(-0.0,0.0,-1.0));
#462=DIRECTION('',(-1.0,-1.69063890317125E-016,0.0));
#463=SURFACE_STYLE_FILL_AREA(#529);
#464=ORIENTED_EDGE('',*,*,#115,.F.);
#465=ORIENTED_EDGE('',*,*,#135,.T.);
#466=ORIENTED_EDGE('',*,*,#71,.F.);
#467=ORIENTED_EDGE('',*,*,#77,.T.);
#468=CARTESIAN_POINT('',(2.8421709430404E-014,5.68676569284271E-015,1.59999999999999));
#469=DIRECTION('',(0.0,-0.0,1.0));
#470=DIRECTION('',(-1.0,-1.69063890317125E-016,0.0));
#471=SURFACE_STYLE_FILL_AREA(#530);
#472=ORIENTED_EDGE('',*,*,#105,.T.);
#473=ORIENTED_EDGE('',*,*,#85,.F.);
#474=ORIENTED_EDGE('',*,*,#83,.T.);
#475=ORIENTED_EDGE('',*,*,#67,.F.);
#476=CARTESIAN_POINT('',(3.01980662698043E-014,6.16868118434824E-015,11.0705371730487));
#477=DIRECTION('',(0.0,0.0,-1.0));
#478=DIRECTION('',(1.0,1.22460635382238E-016,0.0));
#479=SURFACE_STYLE_FILL_AREA(#531);
#480=ORIENTED_EDGE('',*,*,#73,.F.);
#481=ORIENTED_EDGE('',*,*,#139,.F.);
#482=ORIENTED_EDGE('',*,*,#89,.F.);
#483=ORIENTED_EDGE('',*,*,#129,.T.);
#484=CARTESIAN_POINT('',(2.8421709430404E-014,5.68676569284271E-015,1.34999999999998));
#485=DIRECTION('',(0.0,-0.0,1.0));
#486=DIRECTION('',(-1.0,-1.69063890317125E-016,0.0));
#487=CARTESIAN_POINT('',(2.8421709430404E-014,5.68676569284271E-015,-2.8421709430404E-014));
#488=DIRECTION('',(-0.0,0.0,-1.0));
#489=DIRECTION('',(-1.0,-1.69063890317125E-016,0.0));
#490=CARTESIAN_POINT('',(2.8421709430404E-014,5.68676569284271E-015,-2.8421709430404E-014));
#491=DIRECTION('',(-0.0,0.0,-1.0));
#492=DIRECTION('',(-1.0,-1.69063890317125E-016,0.0));
#493=CARTESIAN_POINT('',(2.8421709430404E-014,5.68676569284271E-015,3.19999999999999));
#494=DIRECTION('',(-0.0,0.0,-1.0));
#495=DIRECTION('',(-1.0,-1.69063890317125E-016,0.0));
#496=SURFACE_STYLE_FILL_AREA(#532);
#497=ORIENTED_EDGE('',*,*,#151,.F.);
#498=ORIENTED_EDGE('',*,*,#121,.F.);
#499=ORIENTED_EDGE('',*,*,#113,.F.);
#500=ORIENTED_EDGE('',*,*,#139,.T.);
#501=CARTESIAN_POINT('',(2.8421709430404E-014,5.68676569284271E-015,2.94999999999999));
#502=DIRECTION('',(0.0,-0.0,1.0));
#503=DIRECTION('',(-1.0,-1.69063890317125E-016,0.0));
#504=CARTESIAN_POINT('',(2.8421709430404E-014,5.68676569284271E-015,2.69999999999999));
#505=DIRECTION('',(-0.0,0.0,-1.0));
#506=DIRECTION('',(-1.0,-1.69063890317125E-016,0.0));
#507=SURFACE_STYLE_FILL_AREA(#533);
#508=ORIENTED_EDGE('',*,*,#135,.F.);
#509=ORIENTED_EDGE('',*,*,#91,.F.);
#510=ORIENTED_EDGE('',*,*,#87,.T.);
#511=ORIENTED_EDGE('',*,*,#121,.T.);
#512=CARTESIAN_POINT('',(-6.59999999999997,4.87852549931994E-015,3.19999999999999));
#513=DIRECTION('',(0.0,0.0,1.0));
#514=DIRECTION('',(-1.0,-1.22460635382238E-016,0.0));
#515=SURFACE_STYLE_FILL_AREA(#534);
#516=SURFACE_STYLE_FILL_AREA(#535);
#517=ORIENTED_EDGE('',*,*,#81,.T.);
#518=ORIENTED_EDGE('',*,*,#67,.T.);
#519=ORIENTED_EDGE('',*,*,#133,.F.);
#520=ORIENTED_EDGE('',*,*,#129,.F.);
#521=CARTESIAN_POINT('',(-6.34999999999997,4.71320364155392E-015,-1.4210854715202E-014));
#522=DIRECTION('',(0.0,0.0,-1.0));
#523=DIRECTION('',(1.0,1.22460635382238E-016,0.0));
#524=DIRECTION('',(0.707106781186548,2.06138969004212E-016,-0.707106781186547));
#525=FILL_AREA_STYLE('',(#536));
#526=FILL_AREA_STYLE('',(#537));
#527=FILL_AREA_STYLE('',(#538));
#528=FILL_AREA_STYLE('',(#539));
#529=FILL_AREA_STYLE('',(#540));
#530=FILL_AREA_STYLE('',(#541));
#531=FILL_AREA_STYLE('',(#542));
#532=FILL_AREA_STYLE('',(#543));
#533=FILL_AREA_STYLE('',(#544));
#534=FILL_AREA_STYLE('',(#545));
#535=FILL_AREA_STYLE('',(#546));
#536=FILL_AREA_STYLE_COLOUR('',#547);
#537=FILL_AREA_STYLE_COLOUR('',#548);
#538=FILL_AREA_STYLE_COLOUR('',#549);
#539=FILL_AREA_STYLE_COLOUR('',#550);
#540=FILL_AREA_STYLE_COLOUR('',#551);
#541=FILL_AREA_STYLE_COLOUR('',#552);
#542=FILL_AREA_STYLE_COLOUR('',#553);
#543=FILL_AREA_STYLE_COLOUR('',#554);
#544=FILL_AREA_STYLE_COLOUR('',#555);
#545=FILL_AREA_STYLE_COLOUR('',#556);
#546=FILL_AREA_STYLE_COLOUR('',#557);
#547=COLOUR_RGB('',0.509803950786591,0.509803950786591,0.588235318660736);
#548=COLOUR_RGB('',0.509803950786591,0.509803950786591,0.588235318660736);
#549=COLOUR_RGB('',0.509803950786591,0.509803950786591,0.588235318660736);
#550=COLOUR_RGB('',0.509803950786591,0.509803950786591,0.588235318660736);
#551=COLOUR_RGB('',0.509803950786591,0.509803950786591,0.588235318660736);
#552=COLOUR_RGB('',0.509803950786591,0.509803950786591,0.588235318660736);
#553=COLOUR_RGB('',0.509803950786591,0.509803950786591,0.588235318660736);
#554=COLOUR_RGB('',0.509803950786591,0.509803950786591,0.588235318660736);
#555=COLOUR_RGB('',0.509803950786591,0.509803950786591,0.588235318660736);
#556=COLOUR_RGB('',0.509803950786591,0.509803950786591,0.588235318660736);
#557=COLOUR_RGB('',0.509803950786591,0.509803950786591,0.588235318660736);
ENDSEC;
END-ISO-10303-21;
