ISO-10303-21;
HEADER;
FILE_DESCRIPTION(('STEP AP214'),'1');
FILE_NAME('HALDERN_EH_23040_0603.stp','2021-10-05T09:34:54',('TraceParts'),('TraceParts S.A.'),'Spatial InterOp 3D',' ',' ');
FILE_SCHEMA(('AUTOMOTIVE_DESIGN { 1 0 10303 214 1 1 1 1 }'));
ENDSEC;
DATA;
#1=MECHANICAL_DESIGN_GEOMETRIC_PRESENTATION_REPRESENTATION(' ',(#10,#11,#12,#13,#14,#15,#16,#17,#18,#19,#20,#21,#22,#23,#24),#6);
#2=PRODUCT_DEFINITION_CONTEXT('',#25,'design');
#3=APPLICATION_PROTOCOL_DEFINITION('INTERNATIONAL STANDARD','automotive_design',1994,#25);
#4=PRODUCT_CATEGORY_RELATIONSHIP('NONE','NONE',#26,#27);
#5=SHAPE_DEFINITION_REPRESENTATION(#28,#29);
#6= (GEOMETRIC_REPRESENTATION_CONTEXT(3)GLOBAL_UNCERTAINTY_ASSIGNED_CONTEXT((#32))GLOBAL_UNIT_ASSIGNED_CONTEXT((#34,#35,#36))REPRESENTATION_CONTEXT('NONE','WORKSPACE'));
#10=STYLED_ITEM('',(#38),#39);
#11=STYLED_ITEM('',(#40),#41);
#12=STYLED_ITEM('',(#42),#43);
#13=STYLED_ITEM('',(#44),#45);
#14=STYLED_ITEM('',(#46),#47);
#15=STYLED_ITEM('',(#48),#49);
#16=STYLED_ITEM('',(#50),#51);
#17=STYLED_ITEM('',(#52),#53);
#18=STYLED_ITEM('',(#54),#55);
#19=STYLED_ITEM('',(#56),#57);
#20=STYLED_ITEM('',(#58),#59);
#21=STYLED_ITEM('',(#60),#61);
#22=STYLED_ITEM('',(#62),#63);
#23=STYLED_ITEM('',(#64),#65);
#24=STYLED_ITEM('',(#66),#67);
#25=APPLICATION_CONTEXT(' ');
#26=PRODUCT_CATEGORY('part','NONE');
#27=PRODUCT_RELATED_PRODUCT_CATEGORY('detail',' ',(#68));
#28=PRODUCT_DEFINITION_SHAPE('NONE','NONE',#69);
#29=ADVANCED_BREP_SHAPE_REPRESENTATION('HALDERN_EH_23040_0603',(#67,#70),#6);
#32=UNCERTAINTY_MEASURE_WITH_UNIT(LENGTH_MEASURE(1.0E-06),#34,'','');
#34= (CONVERSION_BASED_UNIT('MILLIMETRE',#73)LENGTH_UNIT()NAMED_UNIT(#76));
#35= (NAMED_UNIT(#78)PLANE_ANGLE_UNIT()SI_UNIT($,.RADIAN.));
#36= (NAMED_UNIT(#78)SOLID_ANGLE_UNIT()SI_UNIT($,.STERADIAN.));
#38=PRESENTATION_STYLE_ASSIGNMENT((#84));
#39=ADVANCED_FACE('',(#85),#86,.T.);
#40=PRESENTATION_STYLE_ASSIGNMENT((#87));
#41=ADVANCED_FACE('',(#88),#89,.T.);
#42=PRESENTATION_STYLE_ASSIGNMENT((#90));
#43=ADVANCED_FACE('',(#91),#92,.T.);
#44=PRESENTATION_STYLE_ASSIGNMENT((#93));
#45=ADVANCED_FACE('',(#94),#95,.T.);
#46=PRESENTATION_STYLE_ASSIGNMENT((#96));
#47=ADVANCED_FACE('',(#97),#98,.T.);
#48=PRESENTATION_STYLE_ASSIGNMENT((#99));
#49=ADVANCED_FACE('',(#100),#101,.T.);
#50=PRESENTATION_STYLE_ASSIGNMENT((#102));
#51=ADVANCED_FACE('',(#103),#104,.T.);
#52=PRESENTATION_STYLE_ASSIGNMENT((#105));
#53=ADVANCED_FACE('',(#106),#107,.T.);
#54=PRESENTATION_STYLE_ASSIGNMENT((#108));
#55=ADVANCED_FACE('',(#109),#110,.T.);
#56=PRESENTATION_STYLE_ASSIGNMENT((#111));
#57=ADVANCED_FACE('',(#112),#113,.T.);
#58=PRESENTATION_STYLE_ASSIGNMENT((#114));
#59=ADVANCED_FACE('',(#115),#116,.T.);
#60=PRESENTATION_STYLE_ASSIGNMENT((#117));
#61=ADVANCED_FACE('',(#118),#119,.T.);
#62=PRESENTATION_STYLE_ASSIGNMENT((#120));
#63=ADVANCED_FACE('',(#121),#122,.T.);
#64=PRESENTATION_STYLE_ASSIGNMENT((#123));
#65=ADVANCED_FACE('',(#124),#125,.T.);
#66=PRESENTATION_STYLE_ASSIGNMENT((#126));
#67=MANIFOLD_SOLID_BREP('HALDERN_EH_23040_0603',#127);
#68=PRODUCT('HALDERN_EH_23040_0603','','PART--DESC',(#128));
#69=PRODUCT_DEFINITION('','NONE',#129,#2);
#70=AXIS2_PLACEMENT_3D('',#130,#131,#132);
#73=LENGTH_MEASURE_WITH_UNIT(LENGTH_MEASURE(1.0),#133);
#76=DIMENSIONAL_EXPONENTS(1.0,0.0,0.0,0.0,0.0,0.0,0.0);
#78=DIMENSIONAL_EXPONENTS(0.0,0.0,0.0,0.0,0.0,0.0,0.0);
#84=SURFACE_STYLE_USAGE(.BOTH.,#134);
#85=FACE_OUTER_BOUND('',#135,.T.);
#86=CONICAL_SURFACE('',#136,4.54000000000001,0.785398163397433);
#87=SURFACE_STYLE_USAGE(.BOTH.,#137);
#88=FACE_OUTER_BOUND('',#138,.T.);
#89=CYLINDRICAL_SURFACE('',#139,5.0);
#90=SURFACE_STYLE_USAGE(.BOTH.,#140);
#91=FACE_OUTER_BOUND('',#141,.T.);
#92=CONICAL_SURFACE('',#142,4.54000000000001,0.785398163397456);
#93=SURFACE_STYLE_USAGE(.BOTH.,#143);
#94=FACE_OUTER_BOUND('',#144,.T.);
#95=CONICAL_SURFACE('',#145,4.54000000000001,0.785398163397425);
#96=SURFACE_STYLE_USAGE(.BOTH.,#146);
#97=FACE_OUTER_BOUND('',#147,.T.);
#98=CYLINDRICAL_SURFACE('',#148,5.0);
#99=SURFACE_STYLE_USAGE(.BOTH.,#149);
#100=FACE_OUTER_BOUND('',#150,.T.);
#101=CONICAL_SURFACE('',#151,4.54000000000001,0.785398163397441);
#102=SURFACE_STYLE_USAGE(.BOTH.,#152);
#103=FACE_OUTER_BOUND('',#153,.T.);
#104=PLANE('',#154);
#105=SURFACE_STYLE_USAGE(.BOTH.,#155);
#106=FACE_OUTER_BOUND('',#156,.T.);
#107=CONICAL_SURFACE('',#157,4.54000000000001,0.785398163397441);
#108=SURFACE_STYLE_USAGE(.BOTH.,#158);
#109=FACE_OUTER_BOUND('',#159,.T.);
#110=CYLINDRICAL_SURFACE('',#160,5.0);
#111=SURFACE_STYLE_USAGE(.BOTH.,#161);
#112=FACE_OUTER_BOUND('',#162,.T.);
#113=CONICAL_SURFACE('',#163,4.54000000000001,0.785398163397425);
#114=SURFACE_STYLE_USAGE(.BOTH.,#164);
#115=FACE_OUTER_BOUND('',#165,.T.);
#116=CONICAL_SURFACE('',#166,4.54000000000001,0.785398163397456);
#117=SURFACE_STYLE_USAGE(.BOTH.,#167);
#118=FACE_OUTER_BOUND('',#168,.T.);
#119=CYLINDRICAL_SURFACE('',#169,5.0);
#120=SURFACE_STYLE_USAGE(.BOTH.,#170);
#121=FACE_OUTER_BOUND('',#171,.T.);
#122=CONICAL_SURFACE('',#172,4.54000000000001,0.785398163397433);
#123=SURFACE_STYLE_USAGE(.BOTH.,#173);
#124=FACE_OUTER_BOUND('',#174,.T.);
#125=PLANE('',#175);
#126=SURFACE_STYLE_USAGE(.BOTH.,#176);
#127=CLOSED_SHELL('',(#39,#41,#43,#45,#47,#49,#51,#53,#55,#57,#59,#61,#63,#65));
#128=PRODUCT_CONTEXT('',#25,'mechanical');
#129=PRODUCT_DEFINITION_FORMATION_WITH_SPECIFIED_SOURCE(' ','NONE',#68,.NOT_KNOWN.);
#130=CARTESIAN_POINT('',(0.0,0.0,0.0));
#131=DIRECTION('',(0.0,0.0,1.0));
#132=DIRECTION('',(1.0,0.0,0.0));
#133= (NAMED_UNIT(#76)LENGTH_UNIT()SI_UNIT(.MILLI.,.METRE.));
#134=SURFACE_SIDE_STYLE('',(#178));
#135=EDGE_LOOP('',(#179,#180,#181,#182));
#136=AXIS2_PLACEMENT_3D('',#183,#184,#185);
#137=SURFACE_SIDE_STYLE('',(#186));
#138=EDGE_LOOP('',(#187,#188,#189,#190));
#139=AXIS2_PLACEMENT_3D('',#191,#192,#193);
#140=SURFACE_SIDE_STYLE('',(#194));
#141=EDGE_LOOP('',(#195,#196,#197,#198));
#142=AXIS2_PLACEMENT_3D('',#199,#200,#201);
#143=SURFACE_SIDE_STYLE('',(#202));
#144=EDGE_LOOP('',(#203,#204,#205,#206));
#145=AXIS2_PLACEMENT_3D('',#207,#208,#209);
#146=SURFACE_SIDE_STYLE('',(#210));
#147=EDGE_LOOP('',(#211,#212,#213,#214));
#148=AXIS2_PLACEMENT_3D('',#215,#216,#217);
#149=SURFACE_SIDE_STYLE('',(#218));
#150=EDGE_LOOP('',(#219,#220,#221,#222));
#151=AXIS2_PLACEMENT_3D('',#223,#224,#225);
#152=SURFACE_SIDE_STYLE('',(#226));
#153=EDGE_LOOP('',(#227,#228));
#154=AXIS2_PLACEMENT_3D('',#229,#230,#231);
#155=SURFACE_SIDE_STYLE('',(#232));
#156=EDGE_LOOP('',(#233,#234,#235,#236));
#157=AXIS2_PLACEMENT_3D('',#237,#238,#239);
#158=SURFACE_SIDE_STYLE('',(#240));
#159=EDGE_LOOP('',(#241,#242,#243,#244));
#160=AXIS2_PLACEMENT_3D('',#245,#246,#247);
#161=SURFACE_SIDE_STYLE('',(#248));
#162=EDGE_LOOP('',(#249,#250,#251,#252));
#163=AXIS2_PLACEMENT_3D('',#253,#254,#255);
#164=SURFACE_SIDE_STYLE('',(#256));
#165=EDGE_LOOP('',(#257,#258,#259,#260));
#166=AXIS2_PLACEMENT_3D('',#261,#262,#263);
#167=SURFACE_SIDE_STYLE('',(#264));
#168=EDGE_LOOP('',(#265,#266,#267,#268));
#169=AXIS2_PLACEMENT_3D('',#269,#270,#271);
#170=SURFACE_SIDE_STYLE('',(#272));
#171=EDGE_LOOP('',(#273,#274,#275,#276));
#172=AXIS2_PLACEMENT_3D('',#277,#278,#279);
#173=SURFACE_SIDE_STYLE('',(#280));
#174=EDGE_LOOP('',(#281,#282));
#175=AXIS2_PLACEMENT_3D('',#283,#284,#285);
#176=SURFACE_SIDE_STYLE('',(#286));
#178=SURFACE_STYLE_FILL_AREA(#287);
#179=ORIENTED_EDGE('',*,*,#288,.F.);
#180=ORIENTED_EDGE('',*,*,#289,.F.);
#181=ORIENTED_EDGE('',*,*,#290,.T.);
#182=ORIENTED_EDGE('',*,*,#291,.T.);
#183=CARTESIAN_POINT('',(0.0,0.0,75.46));
#184=DIRECTION('',(0.0,-0.0,-1.0));
#185=DIRECTION('',(1.21993263479056E-12,-1.0,0.0));
#186=SURFACE_STYLE_FILL_AREA(#292);
#187=ORIENTED_EDGE('',*,*,#293,.F.);
#188=ORIENTED_EDGE('',*,*,#294,.T.);
#189=ORIENTED_EDGE('',*,*,#295,.F.);
#190=ORIENTED_EDGE('',*,*,#296,.F.);
#191=CARTESIAN_POINT('',(0.0,0.0,38.42));
#192=DIRECTION('',(0.0,-0.0,-1.0));
#193=DIRECTION('',(1.21993263479056E-12,-1.0,0.0));
#194=SURFACE_STYLE_FILL_AREA(#297);
#195=ORIENTED_EDGE('',*,*,#298,.F.);
#196=ORIENTED_EDGE('',*,*,#299,.T.);
#197=ORIENTED_EDGE('',*,*,#300,.F.);
#198=ORIENTED_EDGE('',*,*,#294,.F.);
#199=CARTESIAN_POINT('',(0.0,0.0,1.38));
#200=DIRECTION('',(-0.0,0.0,1.0));
#201=DIRECTION('',(1.21993263479056E-12,-1.0,0.0));
#202=SURFACE_STYLE_FILL_AREA(#301);
#203=ORIENTED_EDGE('',*,*,#302,.F.);
#204=ORIENTED_EDGE('',*,*,#303,.F.);
#205=ORIENTED_EDGE('',*,*,#304,.T.);
#206=ORIENTED_EDGE('',*,*,#305,.T.);
#207=CARTESIAN_POINT('',(0.0,0.0,0.45999999999998));
#208=DIRECTION('',(0.0,-0.0,-1.0));
#209=DIRECTION('',(1.21993263479056E-12,-1.0,0.0));
#210=SURFACE_STYLE_FILL_AREA(#306);
#211=ORIENTED_EDGE('',*,*,#307,.F.);
#212=ORIENTED_EDGE('',*,*,#308,.T.);
#213=ORIENTED_EDGE('',*,*,#309,.F.);
#214=ORIENTED_EDGE('',*,*,#310,.F.);
#215=CARTESIAN_POINT('',(0.0,0.0,-11.58));
#216=DIRECTION('',(0.0,-0.0,-1.0));
#217=DIRECTION('',(1.21993263479056E-12,-1.0,0.0));
#218=SURFACE_STYLE_FILL_AREA(#311);
#219=ORIENTED_EDGE('',*,*,#312,.F.);
#220=ORIENTED_EDGE('',*,*,#313,.T.);
#221=ORIENTED_EDGE('',*,*,#314,.F.);
#222=ORIENTED_EDGE('',*,*,#308,.F.);
#223=CARTESIAN_POINT('',(0.0,0.0,-23.62));
#224=DIRECTION('',(-0.0,0.0,1.0));
#225=DIRECTION('',(1.21993263479056E-12,-1.0,0.0));
#226=SURFACE_STYLE_FILL_AREA(#315);
#227=ORIENTED_EDGE('',*,*,#313,.F.);
#228=ORIENTED_EDGE('',*,*,#316,.F.);
#229=CARTESIAN_POINT('',(-3.74729544269649E-16,-2.04000000000001,-24.08));
#230=DIRECTION('',(0.0,0.0,-1.0));
#231=DIRECTION('',(0.0,-1.0,0.0));
#232=SURFACE_STYLE_FILL_AREA(#317);
#233=ORIENTED_EDGE('',*,*,#312,.T.);
#234=ORIENTED_EDGE('',*,*,#318,.F.);
#235=ORIENTED_EDGE('',*,*,#314,.T.);
#236=ORIENTED_EDGE('',*,*,#316,.T.);
#237=CARTESIAN_POINT('',(0.0,0.0,-23.62));
#238=DIRECTION('',(-0.0,0.0,1.0));
#239=DIRECTION('',(1.21993263479056E-12,-1.0,0.0));
#240=SURFACE_STYLE_FILL_AREA(#319);
#241=ORIENTED_EDGE('',*,*,#307,.T.);
#242=ORIENTED_EDGE('',*,*,#305,.F.);
#243=ORIENTED_EDGE('',*,*,#309,.T.);
#244=ORIENTED_EDGE('',*,*,#318,.T.);
#245=CARTESIAN_POINT('',(0.0,0.0,-11.58));
#246=DIRECTION('',(0.0,-0.0,-1.0));
#247=DIRECTION('',(1.21993263479056E-12,-1.0,0.0));
#248=SURFACE_STYLE_FILL_AREA(#320);
#249=ORIENTED_EDGE('',*,*,#302,.T.);
#250=ORIENTED_EDGE('',*,*,#310,.T.);
#251=ORIENTED_EDGE('',*,*,#304,.F.);
#252=ORIENTED_EDGE('',*,*,#299,.F.);
#253=CARTESIAN_POINT('',(0.0,0.0,0.45999999999998));
#254=DIRECTION('',(0.0,-0.0,-1.0));
#255=DIRECTION('',(1.21993263479056E-12,-1.0,0.0));
#256=SURFACE_STYLE_FILL_AREA(#321);
#257=ORIENTED_EDGE('',*,*,#298,.T.);
#258=ORIENTED_EDGE('',*,*,#322,.F.);
#259=ORIENTED_EDGE('',*,*,#300,.T.);
#260=ORIENTED_EDGE('',*,*,#303,.T.);
#261=CARTESIAN_POINT('',(0.0,0.0,1.38));
#262=DIRECTION('',(-0.0,0.0,1.0));
#263=DIRECTION('',(1.21993263479056E-12,-1.0,0.0));
#264=SURFACE_STYLE_FILL_AREA(#323);
#265=ORIENTED_EDGE('',*,*,#293,.T.);
#266=ORIENTED_EDGE('',*,*,#291,.F.);
#267=ORIENTED_EDGE('',*,*,#295,.T.);
#268=ORIENTED_EDGE('',*,*,#322,.T.);
#269=CARTESIAN_POINT('',(0.0,0.0,38.42));
#270=DIRECTION('',(0.0,-0.0,-1.0));
#271=DIRECTION('',(1.21993263479056E-12,-1.0,0.0));
#272=SURFACE_STYLE_FILL_AREA(#324);
#273=ORIENTED_EDGE('',*,*,#288,.T.);
#274=ORIENTED_EDGE('',*,*,#296,.T.);
#275=ORIENTED_EDGE('',*,*,#290,.F.);
#276=ORIENTED_EDGE('',*,*,#325,.F.);
#277=CARTESIAN_POINT('',(0.0,0.0,75.46));
#278=DIRECTION('',(0.0,-0.0,-1.0));
#279=DIRECTION('',(1.21993263479056E-12,-1.0,0.0));
#280=SURFACE_STYLE_FILL_AREA(#326);
#281=ORIENTED_EDGE('',*,*,#325,.T.);
#282=ORIENTED_EDGE('',*,*,#289,.T.);
#283=CARTESIAN_POINT('',(5.74830222484224E-15,-2.04000000000001,75.92));
#284=DIRECTION('',(0.0,0.0,1.0));
#285=DIRECTION('',(1.0,-0.0,0.0));
#286=SURFACE_STYLE_FILL_AREA(#327);
#287=FILL_AREA_STYLE('',(#328));
#288=EDGE_CURVE('',#329,#330,#331,.T.);
#289=EDGE_CURVE('',#332,#329,#333,.T.);
#290=EDGE_CURVE('',#332,#334,#335,.T.);
#291=EDGE_CURVE('',#334,#330,#336,.T.);
#292=FILL_AREA_STYLE('',(#337));
#293=EDGE_CURVE('',#338,#330,#339,.T.);
#294=EDGE_CURVE('',#338,#340,#341,.T.);
#295=EDGE_CURVE('',#334,#340,#342,.T.);
#296=EDGE_CURVE('',#330,#334,#343,.T.);
#297=FILL_AREA_STYLE('',(#344));
#298=EDGE_CURVE('',#345,#338,#346,.T.);
#299=EDGE_CURVE('',#345,#347,#348,.T.);
#300=EDGE_CURVE('',#340,#347,#349,.T.);
#301=FILL_AREA_STYLE('',(#350));
#302=EDGE_CURVE('',#345,#351,#352,.T.);
#303=EDGE_CURVE('',#347,#345,#353,.T.);
#304=EDGE_CURVE('',#347,#354,#355,.T.);
#305=EDGE_CURVE('',#354,#351,#356,.T.);
#306=FILL_AREA_STYLE('',(#357));
#307=EDGE_CURVE('',#358,#351,#359,.T.);
#308=EDGE_CURVE('',#358,#360,#361,.T.);
#309=EDGE_CURVE('',#354,#360,#362,.T.);
#310=EDGE_CURVE('',#351,#354,#363,.T.);
#311=FILL_AREA_STYLE('',(#364));
#312=EDGE_CURVE('',#365,#358,#366,.T.);
#313=EDGE_CURVE('',#365,#367,#368,.T.);
#314=EDGE_CURVE('',#360,#367,#369,.T.);
#315=FILL_AREA_STYLE('',(#370));
#316=EDGE_CURVE('',#367,#365,#371,.T.);
#317=FILL_AREA_STYLE('',(#372));
#318=EDGE_CURVE('',#360,#358,#373,.T.);
#319=FILL_AREA_STYLE('',(#374));
#320=FILL_AREA_STYLE('',(#375));
#321=FILL_AREA_STYLE('',(#376));
#322=EDGE_CURVE('',#340,#338,#377,.T.);
#323=FILL_AREA_STYLE('',(#378));
#324=FILL_AREA_STYLE('',(#379));
#325=EDGE_CURVE('',#329,#332,#380,.T.);
#326=FILL_AREA_STYLE('',(#381));
#327=FILL_AREA_STYLE('',(#382));
#328=FILL_AREA_STYLE_COLOUR('',#383);
#329=VERTEX_POINT('',#384);
#330=VERTEX_POINT('',#385);
#331=LINE('',#386,#387);
#332=VERTEX_POINT('',#388);
#333=CIRCLE('',#389,4.08000000000001);
#334=VERTEX_POINT('',#390);
#335=LINE('',#391,#392);
#336=CIRCLE('',#393,5.0);
#337=FILL_AREA_STYLE_COLOUR('',#394);
#338=VERTEX_POINT('',#395);
#339=LINE('',#396,#397);
#340=VERTEX_POINT('',#398);
#341=CIRCLE('',#399,5.0);
#342=LINE('',#400,#401);
#343=CIRCLE('',#402,5.0);
#344=FILL_AREA_STYLE_COLOUR('',#403);
#345=VERTEX_POINT('',#404);
#346=LINE('',#405,#406);
#347=VERTEX_POINT('',#407);
#348=CIRCLE('',#408,4.08000000000001);
#349=LINE('',#409,#410);
#350=FILL_AREA_STYLE_COLOUR('',#411);
#351=VERTEX_POINT('',#412);
#352=LINE('',#413,#414);
#353=CIRCLE('',#415,4.08000000000001);
#354=VERTEX_POINT('',#416);
#355=LINE('',#417,#418);
#356=CIRCLE('',#419,5.0);
#357=FILL_AREA_STYLE_COLOUR('',#420);
#358=VERTEX_POINT('',#421);
#359=LINE('',#422,#423);
#360=VERTEX_POINT('',#424);
#361=CIRCLE('',#425,5.0);
#362=LINE('',#426,#427);
#363=CIRCLE('',#428,5.0);
#364=FILL_AREA_STYLE_COLOUR('',#429);
#365=VERTEX_POINT('',#430);
#366=LINE('',#431,#432);
#367=VERTEX_POINT('',#433);
#368=CIRCLE('',#434,4.08000000000001);
#369=LINE('',#435,#436);
#370=FILL_AREA_STYLE_COLOUR('',#437);
#371=CIRCLE('',#438,4.08000000000001);
#372=FILL_AREA_STYLE_COLOUR('',#439);
#373=CIRCLE('',#440,5.0);
#374=FILL_AREA_STYLE_COLOUR('',#441);
#375=FILL_AREA_STYLE_COLOUR('',#442);
#376=FILL_AREA_STYLE_COLOUR('',#443);
#377=CIRCLE('',#444,5.0);
#378=FILL_AREA_STYLE_COLOUR('',#445);
#379=FILL_AREA_STYLE_COLOUR('',#446);
#380=CIRCLE('',#447,4.08000000000001);
#381=FILL_AREA_STYLE_COLOUR('',#448);
#382=FILL_AREA_STYLE_COLOUR('',#449);
#383=COLOUR_RGB('',0.588235318660736,0.588235318660736,0.588235318660736);
#384=CARTESIAN_POINT('',(5.37357268057259E-15,-4.08000000000001,75.92));
#385=CARTESIAN_POINT('',(5.14824511146927E-15,-5.0,75.0));
#386=CARTESIAN_POINT('',(5.53793819066452E-12,-4.54000000000001,75.46));
#387=VECTOR('',#450,1.0);
#388=CARTESIAN_POINT('',(-4.97782480583957E-12,4.08000000000001,75.92));
#389=AXIS2_PLACEMENT_3D('',#451,#452,#453);
#390=CARTESIAN_POINT('',(-6.10027549735239E-12,5.0,75.0));
#391=CARTESIAN_POINT('',(-5.53905015159598E-12,4.54000000000001,75.46));
#392=VECTOR('',#454,4.54000000000001);
#393=AXIS2_PLACEMENT_3D('',#455,#456,#457);
#394=COLOUR_RGB('',0.588235318660736,0.588235318660736,0.588235318660736);
#395=CARTESIAN_POINT('',(6.68635069187017E-16,-5.0,1.83999999999997));
#396=CARTESIAN_POINT('',(6.10027547712971E-12,-5.0,38.42));
#397=VECTOR('',#458,1.0);
#398=CARTESIAN_POINT('',(-6.10027549735239E-12,5.0,1.83999999999998));
#399=AXIS2_PLACEMENT_3D('',#459,#460,#461);
#400=CARTESIAN_POINT('',(-6.10027549735239E-12,5.0,38.42));
#401=VECTOR('',#462,5.0);
#402=AXIS2_PLACEMENT_3D('',#463,#464,#465);
#403=COLOUR_RGB('',0.588235318660736,0.588235318660736,0.588235318660736);
#404=CARTESIAN_POINT('',(7.81298853738675E-16,-4.08000000000001,0.920000000000002));
#405=CARTESIAN_POINT('',(5.53905013323379E-12,-4.54000000000001,1.38));
#406=VECTOR('',#466,1.0);
#407=CARTESIAN_POINT('',(-4.97782480583956E-12,4.08000000000001,0.919999999999998));
#408=AXIS2_PLACEMENT_3D('',#467,#468,#469);
#409=CARTESIAN_POINT('',(-5.53905015159598E-12,4.54000000000001,1.38));
#410=VECTOR('',#470,4.54000000000001);
#411=COLOUR_RGB('',0.588235318660736,0.588235318660736,0.588235318660736);
#412=CARTESIAN_POINT('',(5.55971284635358E-16,-5.0,-2.8421709430404E-14));
#413=CARTESIAN_POINT('',(5.53793819066452E-12,-4.54000000000001,0.45999999999998));
#414=VECTOR('',#471,1.0);
#415=AXIS2_PLACEMENT_3D('',#472,#473,#474);
#416=CARTESIAN_POINT('',(-6.10027549735239E-12,5.0,-2.88657986402541E-14));
#417=CARTESIAN_POINT('',(-5.53905015159598E-12,4.54000000000001,0.45999999999998));
#418=VECTOR('',#475,4.54000000000001);
#419=AXIS2_PLACEMENT_3D('',#476,#477,#478);
#420=COLOUR_RGB('',0.588235318660736,0.588235318660736,0.588235318660736);
#421=CARTESIAN_POINT('',(-8.62122873090954E-16,-5.0,-23.16));
#422=CARTESIAN_POINT('',(6.10027547712971E-12,-5.0,-11.58));
#423=VECTOR('',#479,1.0);
#424=CARTESIAN_POINT('',(-6.10027549735239E-12,5.0,-23.16));
#425=AXIS2_PLACEMENT_3D('',#480,#481,#482);
#426=CARTESIAN_POINT('',(-6.10027549735239E-12,5.0,-11.58));
#427=VECTOR('',#483,5.0);
#428=AXIS2_PLACEMENT_3D('',#484,#485,#486);
#429=COLOUR_RGB('',0.588235318660736,0.588235318660736,0.588235318660736);
#430=CARTESIAN_POINT('',(-7.49459088539297E-16,-4.08000000000001,-24.08));
#431=CARTESIAN_POINT('',(5.53905013323379E-12,-4.54000000000001,-23.62));
#432=VECTOR('',#487,1.0);
#433=CARTESIAN_POINT('',(-4.97782480583956E-12,4.08000000000001,-24.08));
#434=AXIS2_PLACEMENT_3D('',#488,#489,#490);
#435=CARTESIAN_POINT('',(-5.53905015159598E-12,4.54000000000001,-23.62));
#436=VECTOR('',#491,4.54000000000001);
#437=COLOUR_RGB('',0.588235318660736,0.588235318660736,0.588235318660736);
#438=AXIS2_PLACEMENT_3D('',#492,#493,#494);
#439=COLOUR_RGB('',0.588235318660736,0.588235318660736,0.588235318660736);
#440=AXIS2_PLACEMENT_3D('',#495,#496,#497);
#441=COLOUR_RGB('',0.588235318660736,0.588235318660736,0.588235318660736);
#442=COLOUR_RGB('',0.588235318660736,0.588235318660736,0.588235318660736);
#443=COLOUR_RGB('',0.588235318660736,0.588235318660736,0.588235318660736);
#444=AXIS2_PLACEMENT_3D('',#498,#499,#500);
#445=COLOUR_RGB('',0.588235318660736,0.588235318660736,0.588235318660736);
#446=COLOUR_RGB('',0.588235318660736,0.588235318660736,0.588235318660736);
#447=AXIS2_PLACEMENT_3D('',#501,#502,#503);
#448=COLOUR_RGB('',0.588235318660736,0.588235318660736,0.588235318660736);
#449=COLOUR_RGB('',0.588235318660736,0.588235318660736,0.588235318660736);
#450=DIRECTION('',(8.62536045905458E-13,-0.707106781186538,-0.707106781186557));
#451=CARTESIAN_POINT('',(0.0,0.0,75.92));
#452=DIRECTION('',(0.0,0.0,1.0));
#453=DIRECTION('',(1.21993263479056E-12,-1.0,0.0));
#454=DIRECTION('',(-8.6270923425679E-13,0.707106781186537,-0.707106781186558));
#455=CARTESIAN_POINT('',(0.0,0.0,75.0));
#456=DIRECTION('',(0.0,0.0,1.0));
#457=DIRECTION('',(1.21993263479056E-12,-1.0,0.0));
#458=DIRECTION('',(-0.0,-0.0,1.0));
#459=CARTESIAN_POINT('',(0.0,0.0,1.83999999999997));
#460=DIRECTION('',(0.0,0.0,1.0));
#461=DIRECTION('',(1.21993263479056E-12,-1.0,0.0));
#462=DIRECTION('',(0.0,0.0,-1.0));
#463=CARTESIAN_POINT('',(0.0,0.0,75.0));
#464=DIRECTION('',(0.0,0.0,1.0));
#465=DIRECTION('',(1.21993263479056E-12,-1.0,0.0));
#466=DIRECTION('',(8.62709231396891E-13,-0.707106781186553,0.707106781186542));
#467=CARTESIAN_POINT('',(0.0,0.0,0.920000000000002));
#468=DIRECTION('',(0.0,0.0,1.0));
#469=DIRECTION('',(1.21993263479056E-12,-1.0,0.0));
#470=DIRECTION('',(8.6270923425681E-13,-0.707106781186553,-0.707106781186542));
#471=DIRECTION('',(8.6253604590545E-13,-0.707106781186531,-0.707106781186564));
#472=CARTESIAN_POINT('',(0.0,0.0,0.920000000000002));
#473=DIRECTION('',(0.0,0.0,1.0));
#474=DIRECTION('',(1.21993263479056E-12,-1.0,0.0));
#475=DIRECTION('',(-8.62709234256783E-13,0.707106781186531,-0.707106781186564));
#476=CARTESIAN_POINT('',(0.0,0.0,-2.8421709430404E-14));
#477=DIRECTION('',(0.0,0.0,1.0));
#478=DIRECTION('',(1.21993263479056E-12,-1.0,0.0));
#479=DIRECTION('',(-0.0,-0.0,1.0));
#480=CARTESIAN_POINT('',(0.0,0.0,-23.16));
#481=DIRECTION('',(0.0,0.0,1.0));
#482=DIRECTION('',(1.21993263479056E-12,-1.0,0.0));
#483=DIRECTION('',(0.0,0.0,-1.0));
#484=CARTESIAN_POINT('',(0.0,0.0,-2.8421709430404E-14));
#485=DIRECTION('',(0.0,0.0,1.0));
#486=DIRECTION('',(1.21993263479056E-12,-1.0,0.0));
#487=DIRECTION('',(8.62709231396878E-13,-0.707106781186542,0.707106781186553));
#488=CARTESIAN_POINT('',(0.0,0.0,-24.08));
#489=DIRECTION('',(0.0,0.0,1.0));
#490=DIRECTION('',(1.21993263479056E-12,-1.0,0.0));
#491=DIRECTION('',(8.62709234256797E-13,-0.707106781186542,-0.707106781186553));
#492=CARTESIAN_POINT('',(0.0,0.0,-24.08));
#493=DIRECTION('',(0.0,0.0,1.0));
#494=DIRECTION('',(1.21993263479056E-12,-1.0,0.0));
#495=CARTESIAN_POINT('',(0.0,0.0,-23.16));
#496=DIRECTION('',(0.0,0.0,1.0));
#497=DIRECTION('',(1.21993263479056E-12,-1.0,0.0));
#498=CARTESIAN_POINT('',(0.0,0.0,1.83999999999997));
#499=DIRECTION('',(0.0,0.0,1.0));
#500=DIRECTION('',(1.21993263479056E-12,-1.0,0.0));
#501=CARTESIAN_POINT('',(0.0,0.0,75.92));
#502=DIRECTION('',(0.0,0.0,1.0));
#503=DIRECTION('',(1.21993263479056E-12,-1.0,0.0));
ENDSEC;
END-ISO-10303-21;
