ISO-10303-21;
HEADER;
FILE_DESCRIPTION(('STEP AP214'),'1');
FILE_NAME('C:/temp/halder/09_10_2014/CAD/Temp/HALDERN_EH_23020_0920.stp','2014-10-09T11:17:38',('TraceParts'),('TraceParts S.A.'),'Spatial InterOp 3D',' ',' ');
FILE_SCHEMA(('automotive_design'));
ENDSEC;
DATA;
#1=MECHANICAL_DESIGN_GEOMETRIC_PRESENTATION_REPRESENTATION(' ',(#10,#11,#12,#13,#14,#15,#16,#17,#18,#19,#20,#21,#22,#23,#24,#25,#26),#6);
#2=PRODUCT_DEFINITION_CONTEXT('',#27,'design');
#3=APPLICATION_PROTOCOL_DEFINITION('INTERNATIONAL STANDARD','automotive_design',1994,#27);
#4=PRODUCT_CATEGORY_RELATIONSHIP('NONE','NONE',#28,#29);
#5=SHAPE_DEFINITION_REPRESENTATION(#30,#31);
#6= (GEOMETRIC_REPRESENTATION_CONTEXT(3)GLOBAL_UNCERTAINTY_ASSIGNED_CONTEXT((#34))GLOBAL_UNIT_ASSIGNED_CONTEXT((#36,#37,#38))REPRESENTATION_CONTEXT('NONE','WORKSPACE'));
#10=STYLED_ITEM('',(#40),#41);
#11=STYLED_ITEM('',(#42),#43);
#12=STYLED_ITEM('',(#44),#45);
#13=STYLED_ITEM('',(#46),#47);
#14=STYLED_ITEM('',(#48),#49);
#15=STYLED_ITEM('',(#50),#51);
#16=STYLED_ITEM('',(#52),#53);
#17=STYLED_ITEM('',(#54),#55);
#18=STYLED_ITEM('',(#56),#57);
#19=STYLED_ITEM('',(#58),#59);
#20=STYLED_ITEM('',(#60),#61);
#21=STYLED_ITEM('',(#62),#63);
#22=STYLED_ITEM('',(#64),#65);
#23=STYLED_ITEM('',(#66),#67);
#24=STYLED_ITEM('',(#68),#69);
#25=STYLED_ITEM('',(#70),#71);
#26=STYLED_ITEM('',(#72),#73);
#27=APPLICATION_CONTEXT(' ');
#28=PRODUCT_CATEGORY('part','NONE');
#29=PRODUCT_RELATED_PRODUCT_CATEGORY('detail',' ',(#74));
#30=PRODUCT_DEFINITION_SHAPE('NONE','NONE',#75);
#31=ADVANCED_BREP_SHAPE_REPRESENTATION('1',(#43,#76),#6);
#34=UNCERTAINTY_MEASURE_WITH_UNIT(LENGTH_MEASURE(1.0E-006),#36,'','');
#36= (CONVERSION_BASED_UNIT('MILLIMETRE',#79)LENGTH_UNIT()NAMED_UNIT(#82));
#37= (NAMED_UNIT(#84)PLANE_ANGLE_UNIT()SI_UNIT($,.RADIAN.));
#38= (NAMED_UNIT(#84)SOLID_ANGLE_UNIT()SI_UNIT($,.STERADIAN.));
#40=PRESENTATION_STYLE_ASSIGNMENT((#90));
#41=ADVANCED_FACE('',(#91),#92,.T.);
#42=PRESENTATION_STYLE_ASSIGNMENT((#93));
#43=MANIFOLD_SOLID_BREP('1',#94);
#44=PRESENTATION_STYLE_ASSIGNMENT((#95));
#45=ADVANCED_FACE('',(#96,#97),#98,.T.);
#46=PRESENTATION_STYLE_ASSIGNMENT((#99));
#47=ADVANCED_FACE('',(#100),#101,.T.);
#48=PRESENTATION_STYLE_ASSIGNMENT((#102));
#49=ADVANCED_FACE('',(#103),#104,.F.);
#50=PRESENTATION_STYLE_ASSIGNMENT((#105));
#51=ADVANCED_FACE('',(#106),#107,.T.);
#52=PRESENTATION_STYLE_ASSIGNMENT((#108));
#53=ADVANCED_FACE('',(#109),#110,.T.);
#54=PRESENTATION_STYLE_ASSIGNMENT((#111));
#55=ADVANCED_FACE('',(#112),#113,.F.);
#56=PRESENTATION_STYLE_ASSIGNMENT((#114));
#57=ADVANCED_FACE('',(#115),#116,.T.);
#58=PRESENTATION_STYLE_ASSIGNMENT((#117));
#59=ADVANCED_FACE('',(#118,#119),#120,.T.);
#60=PRESENTATION_STYLE_ASSIGNMENT((#121));
#61=ADVANCED_FACE('',(#122),#123,.F.);
#62=PRESENTATION_STYLE_ASSIGNMENT((#124));
#63=ADVANCED_FACE('',(#125),#126,.T.);
#64=PRESENTATION_STYLE_ASSIGNMENT((#127));
#65=ADVANCED_FACE('',(#128),#129,.F.);
#66=PRESENTATION_STYLE_ASSIGNMENT((#130));
#67=ADVANCED_FACE('',(#131),#132,.T.);
#68=PRESENTATION_STYLE_ASSIGNMENT((#133));
#69=ADVANCED_FACE('',(#134),#135,.T.);
#70=PRESENTATION_STYLE_ASSIGNMENT((#136));
#71=ADVANCED_FACE('',(#137),#138,.F.);
#72=PRESENTATION_STYLE_ASSIGNMENT((#139));
#73=ADVANCED_FACE('',(#140),#141,.F.);
#74=PRODUCT('1','1','PART-1-DESC',(#142));
#75=PRODUCT_DEFINITION('NONE','NONE',#143,#2);
#76=AXIS2_PLACEMENT_3D('',#144,#145,#146);
#79=LENGTH_MEASURE_WITH_UNIT(LENGTH_MEASURE(1.0),#147);
#82=DIMENSIONAL_EXPONENTS(1.0,0.0,0.0,0.0,0.0,0.0,0.0);
#84=DIMENSIONAL_EXPONENTS(0.0,0.0,0.0,0.0,0.0,0.0,0.0);
#90=SURFACE_STYLE_USAGE(.BOTH.,#148);
#91=FACE_OUTER_BOUND('',#149,.T.);
#92=PLANE('',#150);
#93=SURFACE_STYLE_USAGE(.BOTH.,#151);
#94=CLOSED_SHELL('',(#61,#55,#41,#73,#65,#57,#53,#59,#63,#67,#49,#71,#45,#69,#47,#51));
#95=SURFACE_STYLE_USAGE(.BOTH.,#152);
#96=FACE_OUTER_BOUND('',#153,.T.);
#97=FACE_BOUND('',#154,.T.);
#98=PLANE('',#155);
#99=SURFACE_STYLE_USAGE(.BOTH.,#156);
#100=FACE_OUTER_BOUND('',#157,.T.);
#101=PLANE('',#158);
#102=SURFACE_STYLE_USAGE(.BOTH.,#159);
#103=FACE_OUTER_BOUND('',#160,.T.);
#104=CONICAL_SURFACE('',#161,16.9174182452695,1.0471975511966);
#105=SURFACE_STYLE_USAGE(.BOTH.,#162);
#106=FACE_OUTER_BOUND('',#163,.T.);
#107=PLANE('',#164);
#108=SURFACE_STYLE_USAGE(.BOTH.,#165);
#109=FACE_OUTER_BOUND('',#166,.T.);
#110=PLANE('',#167);
#111=SURFACE_STYLE_USAGE(.BOTH.,#168);
#112=FACE_OUTER_BOUND('',#169,.T.);
#113=CONICAL_SURFACE('',#170,16.9174182452695,1.0471975511966);
#114=SURFACE_STYLE_USAGE(.BOTH.,#171);
#115=FACE_OUTER_BOUND('',#172,.T.);
#116=PLANE('',#173);
#117=SURFACE_STYLE_USAGE(.BOTH.,#174);
#118=FACE_BOUND('',#175,.T.);
#119=FACE_OUTER_BOUND('',#176,.T.);
#120=PLANE('',#177);
#121=SURFACE_STYLE_USAGE(.BOTH.,#178);
#122=FACE_OUTER_BOUND('',#179,.T.);
#123=CYLINDRICAL_SURFACE('',#180,16.0);
#124=SURFACE_STYLE_USAGE(.BOTH.,#181);
#125=FACE_OUTER_BOUND('',#182,.T.);
#126=PLANE('',#183);
#127=SURFACE_STYLE_USAGE(.BOTH.,#184);
#128=FACE_OUTER_BOUND('',#185,.T.);
#129=PLANE('',#186);
#130=SURFACE_STYLE_USAGE(.BOTH.,#187);
#131=FACE_OUTER_BOUND('',#188,.T.);
#132=PLANE('',#189);
#133=SURFACE_STYLE_USAGE(.BOTH.,#190);
#134=FACE_OUTER_BOUND('',#191,.T.);
#135=PLANE('',#192);
#136=SURFACE_STYLE_USAGE(.BOTH.,#193);
#137=FACE_OUTER_BOUND('',#194,.T.);
#138=CYLINDRICAL_SURFACE('',#195,16.0);
#139=SURFACE_STYLE_USAGE(.BOTH.,#196);
#140=FACE_OUTER_BOUND('',#197,.T.);
#141=PLANE('',#198);
#142=PRODUCT_CONTEXT('',#27,'mechanical');
#143=PRODUCT_DEFINITION_FORMATION_WITH_SPECIFIED_SOURCE(' ','NONE',#74,.NOT_KNOWN.);
#144=CARTESIAN_POINT('',(0.0,0.0,0.0));
#145=DIRECTION('',(0.0,0.0,1.0));
#146=DIRECTION('',(1.0,0.0,0.0));
#147= (NAMED_UNIT(#82)LENGTH_UNIT()SI_UNIT(.MILLI.,.METRE.));
#148=SURFACE_SIDE_STYLE('',(#200));
#149=EDGE_LOOP('',(#201,#202,#203,#204));
#150=AXIS2_PLACEMENT_3D('',#205,#206,#207);
#151=SURFACE_SIDE_STYLE('',(#208));
#152=SURFACE_SIDE_STYLE('',(#209));
#153=EDGE_LOOP('',(#210,#211,#212,#213));
#154=EDGE_LOOP('',(#214,#215));
#155=AXIS2_PLACEMENT_3D('',#216,#217,#218);
#156=SURFACE_SIDE_STYLE('',(#219));
#157=EDGE_LOOP('',(#220,#221,#222,#223));
#158=AXIS2_PLACEMENT_3D('',#224,#225,#226);
#159=SURFACE_SIDE_STYLE('',(#227));
#160=EDGE_LOOP('',(#228,#229,#230,#231,#232));
#161=AXIS2_PLACEMENT_3D('',#233,#234,#235);
#162=SURFACE_SIDE_STYLE('',(#236));
#163=EDGE_LOOP('',(#237,#238,#239,#240));
#164=AXIS2_PLACEMENT_3D('',#241,#242,#243);
#165=SURFACE_SIDE_STYLE('',(#244));
#166=EDGE_LOOP('',(#245,#246,#247,#248));
#167=AXIS2_PLACEMENT_3D('',#249,#250,#251);
#168=SURFACE_SIDE_STYLE('',(#252));
#169=EDGE_LOOP('',(#253,#254,#255,#256,#257,#258));
#170=AXIS2_PLACEMENT_3D('',#259,#260,#261);
#171=SURFACE_SIDE_STYLE('',(#262));
#172=EDGE_LOOP('',(#263,#264,#265,#266));
#173=AXIS2_PLACEMENT_3D('',#267,#268,#269);
#174=SURFACE_SIDE_STYLE('',(#270));
#175=EDGE_LOOP('',(#271,#272,#273));
#176=EDGE_LOOP('',(#274,#275,#276,#277));
#177=AXIS2_PLACEMENT_3D('',#278,#279,#280);
#178=SURFACE_SIDE_STYLE('',(#281));
#179=EDGE_LOOP('',(#282,#283,#284,#285,#286));
#180=AXIS2_PLACEMENT_3D('',#287,#288,#289);
#181=SURFACE_SIDE_STYLE('',(#290));
#182=EDGE_LOOP('',(#291,#292,#293,#294));
#183=AXIS2_PLACEMENT_3D('',#295,#296,#297);
#184=SURFACE_SIDE_STYLE('',(#298));
#185=EDGE_LOOP('',(#299,#300,#301,#302,#303,#304,#305,#306,#307,#308));
#186=AXIS2_PLACEMENT_3D('',#309,#310,#311);
#187=SURFACE_SIDE_STYLE('',(#312));
#188=EDGE_LOOP('',(#313,#314,#315,#316));
#189=AXIS2_PLACEMENT_3D('',#317,#318,#319);
#190=SURFACE_SIDE_STYLE('',(#320));
#191=EDGE_LOOP('',(#321,#322,#323,#324));
#192=AXIS2_PLACEMENT_3D('',#325,#326,#327);
#193=SURFACE_SIDE_STYLE('',(#328));
#194=EDGE_LOOP('',(#329,#330,#331,#332,#333));
#195=AXIS2_PLACEMENT_3D('',#334,#335,#336);
#196=SURFACE_SIDE_STYLE('',(#337));
#197=EDGE_LOOP('',(#338,#339,#340,#341,#342,#343,#344,#345,#346,#347));
#198=AXIS2_PLACEMENT_3D('',#348,#349,#350);
#200=SURFACE_STYLE_FILL_AREA(#351);
#201=ORIENTED_EDGE('',*,*,#352,.T.);
#202=ORIENTED_EDGE('',*,*,#353,.F.);
#203=ORIENTED_EDGE('',*,*,#354,.T.);
#204=ORIENTED_EDGE('',*,*,#355,.T.);
#205=CARTESIAN_POINT('',(32.5,8.00062823391208E-015,-20.0));
#206=DIRECTION('',(1.0,0.0,0.0));
#207=DIRECTION('',(0.0,1.0,-6.12303176911189E-017));
#208=SURFACE_STYLE_FILL_AREA(#356);
#209=SURFACE_STYLE_FILL_AREA(#357);
#210=ORIENTED_EDGE('',*,*,#358,.T.);
#211=ORIENTED_EDGE('',*,*,#359,.T.);
#212=ORIENTED_EDGE('',*,*,#360,.F.);
#213=ORIENTED_EDGE('',*,*,#361,.T.);
#214=ORIENTED_EDGE('',*,*,#362,.T.);
#215=ORIENTED_EDGE('',*,*,#363,.T.);
#216=CARTESIAN_POINT('',(26.5,7.63324632776536E-015,-26.0));
#217=DIRECTION('',(0.0,-6.12303176911189E-017,-1.0));
#218=DIRECTION('',(0.0,1.0,-6.12303176911189E-017));
#219=SURFACE_STYLE_FILL_AREA(#364);
#220=ORIENTED_EDGE('',*,*,#365,.T.);
#221=ORIENTED_EDGE('',*,*,#360,.T.);
#222=ORIENTED_EDGE('',*,*,#366,.T.);
#223=ORIENTED_EDGE('',*,*,#367,.F.);
#224=CARTESIAN_POINT('',(-26.4999999999998,7.63324632776536E-015,-26.0));
#225=DIRECTION('',(-0.707106781186542,-4.32963728535971E-017,-0.707106781186553));
#226=DIRECTION('',(1.72995999159705E-033,-1.0,6.12303176911189E-017));
#227=SURFACE_STYLE_FILL_AREA(#368);
#228=ORIENTED_EDGE('',*,*,#369,.T.);
#229=ORIENTED_EDGE('',*,*,#370,.F.);
#230=ORIENTED_EDGE('',*,*,#371,.T.);
#231=ORIENTED_EDGE('',*,*,#372,.F.);
#232=ORIENTED_EDGE('',*,*,#373,.F.);
#233=CARTESIAN_POINT('',(0.0,1.08172228477035E-014,25.3749711324865));
#234=DIRECTION('',(-0.0,-0.0,1.0));
#235=DIRECTION('',(-5.64033381794538E-017,1.0,0.0));
#236=SURFACE_STYLE_FILL_AREA(#374);
#237=ORIENTED_EDGE('',*,*,#375,.T.);
#238=ORIENTED_EDGE('',*,*,#367,.T.);
#239=ORIENTED_EDGE('',*,*,#376,.T.);
#240=ORIENTED_EDGE('',*,*,#377,.F.);
#241=CARTESIAN_POINT('',(-32.5,8.00062823391208E-015,-20.0));
#242=DIRECTION('',(-1.0,0.0,0.0));
#243=DIRECTION('',(0.0,-1.0,6.12303176911189E-017));
#244=SURFACE_STYLE_FILL_AREA(#378);
#245=ORIENTED_EDGE('',*,*,#379,.T.);
#246=ORIENTED_EDGE('',*,*,#380,.F.);
#247=ORIENTED_EDGE('',*,*,#381,.T.);
#248=ORIENTED_EDGE('',*,*,#382,.T.);
#249=CARTESIAN_POINT('',(-20.75,9.22523458773445E-015,0.0));
#250=DIRECTION('',(-1.0,0.0,0.0));
#251=DIRECTION('',(0.0,-1.0,6.12303176911189E-017));
#252=SURFACE_STYLE_FILL_AREA(#383);
#253=ORIENTED_EDGE('',*,*,#369,.F.);
#254=ORIENTED_EDGE('',*,*,#384,.F.);
#255=ORIENTED_EDGE('',*,*,#385,.F.);
#256=ORIENTED_EDGE('',*,*,#371,.F.);
#257=ORIENTED_EDGE('',*,*,#386,.F.);
#258=ORIENTED_EDGE('',*,*,#387,.F.);
#259=CARTESIAN_POINT('',(0.0,1.08172228477035E-014,25.3749711324865));
#260=DIRECTION('',(-0.0,-0.0,1.0));
#261=DIRECTION('',(-5.64033381794538E-017,1.0,0.0));
#262=SURFACE_STYLE_FILL_AREA(#388);
#263=ORIENTED_EDGE('',*,*,#389,.T.);
#264=ORIENTED_EDGE('',*,*,#377,.T.);
#265=ORIENTED_EDGE('',*,*,#390,.T.);
#266=ORIENTED_EDGE('',*,*,#382,.F.);
#267=CARTESIAN_POINT('',(-32.5,9.22523458773445E-015,0.0));
#268=DIRECTION('',(0.0,6.12303176911189E-017,1.0));
#269=DIRECTION('',(0.0,-1.0,6.12303176911189E-017));
#270=SURFACE_STYLE_FILL_AREA(#391);
#271=ORIENTED_EDGE('',*,*,#386,.T.);
#272=ORIENTED_EDGE('',*,*,#370,.T.);
#273=ORIENTED_EDGE('',*,*,#387,.T.);
#274=ORIENTED_EDGE('',*,*,#392,.F.);
#275=ORIENTED_EDGE('',*,*,#393,.T.);
#276=ORIENTED_EDGE('',*,*,#380,.T.);
#277=ORIENTED_EDGE('',*,*,#394,.T.);
#278=CARTESIAN_POINT('',(-20.75,1.08172228477035E-014,26.0));
#279=DIRECTION('',(0.0,6.12303176911189E-017,1.0));
#280=DIRECTION('',(0.0,-1.0,6.12303176911189E-017));
#281=SURFACE_STYLE_FILL_AREA(#395);
#282=ORIENTED_EDGE('',*,*,#396,.F.);
#283=ORIENTED_EDGE('',*,*,#363,.F.);
#284=ORIENTED_EDGE('',*,*,#397,.F.);
#285=ORIENTED_EDGE('',*,*,#372,.T.);
#286=ORIENTED_EDGE('',*,*,#385,.T.);
#287=CARTESIAN_POINT('',(0.0,0.0,26.0));
#288=DIRECTION('',(0.0,0.0,-1.0));
#289=DIRECTION('',(1.0,0.0,0.0));
#290=SURFACE_STYLE_FILL_AREA(#398);
#291=ORIENTED_EDGE('',*,*,#399,.T.);
#292=ORIENTED_EDGE('',*,*,#400,.F.);
#293=ORIENTED_EDGE('',*,*,#401,.T.);
#294=ORIENTED_EDGE('',*,*,#392,.T.);
#295=CARTESIAN_POINT('',(20.75,1.08172228477035E-014,26.0));
#296=DIRECTION('',(1.0,0.0,0.0));
#297=DIRECTION('',(0.0,1.0,-6.12303176911189E-017));
#298=SURFACE_STYLE_FILL_AREA(#402);
#299=ORIENTED_EDGE('',*,*,#390,.F.);
#300=ORIENTED_EDGE('',*,*,#376,.F.);
#301=ORIENTED_EDGE('',*,*,#366,.F.);
#302=ORIENTED_EDGE('',*,*,#359,.F.);
#303=ORIENTED_EDGE('',*,*,#403,.F.);
#304=ORIENTED_EDGE('',*,*,#354,.F.);
#305=ORIENTED_EDGE('',*,*,#404,.F.);
#306=ORIENTED_EDGE('',*,*,#399,.F.);
#307=ORIENTED_EDGE('',*,*,#394,.F.);
#308=ORIENTED_EDGE('',*,*,#379,.F.);
#309=CARTESIAN_POINT('',(-32.5,-61.8449314192417,-25.9999999999999));
#310=DIRECTION('',(-0.707106781186548,0.707106781186547,0.0));
#311=DIRECTION('',(0.0,0.0,1.0));
#312=SURFACE_STYLE_FILL_AREA(#405);
#313=ORIENTED_EDGE('',*,*,#404,.T.);
#314=ORIENTED_EDGE('',*,*,#353,.T.);
#315=ORIENTED_EDGE('',*,*,#406,.T.);
#316=ORIENTED_EDGE('',*,*,#400,.T.);
#317=CARTESIAN_POINT('',(20.75,9.22523458773445E-015,2.8421709430404E-014));
#318=DIRECTION('',(0.0,6.12303176911189E-017,1.0));
#319=DIRECTION('',(0.0,-1.0,6.12303176911189E-017));
#320=SURFACE_STYLE_FILL_AREA(#407);
#321=ORIENTED_EDGE('',*,*,#403,.T.);
#322=ORIENTED_EDGE('',*,*,#358,.F.);
#323=ORIENTED_EDGE('',*,*,#408,.T.);
#324=ORIENTED_EDGE('',*,*,#355,.F.);
#325=CARTESIAN_POINT('',(32.5,8.00062823391208E-015,-20.0));
#326=DIRECTION('',(0.707106781186548,-4.32963728535967E-017,-0.707106781186547));
#327=DIRECTION('',(-1.83635359501632E-033,1.0,-6.12303176911189E-017));
#328=SURFACE_STYLE_FILL_AREA(#409);
#329=ORIENTED_EDGE('',*,*,#396,.T.);
#330=ORIENTED_EDGE('',*,*,#384,.T.);
#331=ORIENTED_EDGE('',*,*,#373,.T.);
#332=ORIENTED_EDGE('',*,*,#397,.T.);
#333=ORIENTED_EDGE('',*,*,#362,.F.);
#334=CARTESIAN_POINT('',(0.0,0.0,26.0));
#335=DIRECTION('',(0.0,0.0,-1.0));
#336=DIRECTION('',(1.0,0.0,0.0));
#337=SURFACE_STYLE_FILL_AREA(#410);
#338=ORIENTED_EDGE('',*,*,#365,.F.);
#339=ORIENTED_EDGE('',*,*,#375,.F.);
#340=ORIENTED_EDGE('',*,*,#389,.F.);
#341=ORIENTED_EDGE('',*,*,#381,.F.);
#342=ORIENTED_EDGE('',*,*,#393,.F.);
#343=ORIENTED_EDGE('',*,*,#401,.F.);
#344=ORIENTED_EDGE('',*,*,#406,.F.);
#345=ORIENTED_EDGE('',*,*,#352,.F.);
#346=ORIENTED_EDGE('',*,*,#408,.F.);
#347=ORIENTED_EDGE('',*,*,#361,.F.);
#348=CARTESIAN_POINT('',(32.5000000000001,61.8449314192418,-25.9999999999999));
#349=DIRECTION('',(0.707106781186548,-0.707106781186547,0.0));
#350=DIRECTION('',(0.0,0.0,-1.0));
#351=FILL_AREA_STYLE('',(#411));
#352=EDGE_CURVE('',#412,#413,#414,.T.);
#353=EDGE_CURVE('',#415,#413,#416,.T.);
#354=EDGE_CURVE('',#415,#417,#418,.T.);
#355=EDGE_CURVE('',#417,#412,#419,.T.);
#356=FILL_AREA_STYLE('',(#420));
#357=FILL_AREA_STYLE('',(#421));
#358=EDGE_CURVE('',#422,#423,#424,.T.);
#359=EDGE_CURVE('',#423,#425,#426,.T.);
#360=EDGE_CURVE('',#427,#425,#428,.T.);
#361=EDGE_CURVE('',#427,#422,#429,.T.);
#362=EDGE_CURVE('',#430,#431,#432,.T.);
#363=EDGE_CURVE('',#431,#430,#433,.T.);
#364=FILL_AREA_STYLE('',(#434));
#365=EDGE_CURVE('',#435,#427,#436,.T.);
#366=EDGE_CURVE('',#425,#437,#438,.T.);
#367=EDGE_CURVE('',#435,#437,#439,.T.);
#368=FILL_AREA_STYLE('',(#440));
#369=EDGE_CURVE('',#441,#442,#443,.T.);
#370=EDGE_CURVE('',#444,#442,#445,.T.);
#371=EDGE_CURVE('',#444,#446,#447,.T.);
#372=EDGE_CURVE('',#448,#446,#449,.T.);
#373=EDGE_CURVE('',#441,#448,#450,.T.);
#374=FILL_AREA_STYLE('',(#451));
#375=EDGE_CURVE('',#452,#435,#453,.T.);
#376=EDGE_CURVE('',#437,#454,#455,.T.);
#377=EDGE_CURVE('',#452,#454,#456,.T.);
#378=FILL_AREA_STYLE('',(#457));
#379=EDGE_CURVE('',#458,#459,#460,.T.);
#380=EDGE_CURVE('',#461,#459,#462,.T.);
#381=EDGE_CURVE('',#461,#463,#464,.T.);
#382=EDGE_CURVE('',#463,#458,#465,.T.);
#383=FILL_AREA_STYLE('',(#466));
#384=EDGE_CURVE('',#467,#441,#468,.T.);
#385=EDGE_CURVE('',#446,#467,#469,.T.);
#386=EDGE_CURVE('',#470,#444,#471,.T.);
#387=EDGE_CURVE('',#442,#470,#472,.T.);
#388=FILL_AREA_STYLE('',(#473));
#389=EDGE_CURVE('',#463,#452,#474,.T.);
#390=EDGE_CURVE('',#454,#458,#475,.T.);
#391=FILL_AREA_STYLE('',(#476));
#392=EDGE_CURVE('',#477,#478,#479,.T.);
#393=EDGE_CURVE('',#477,#461,#480,.T.);
#394=EDGE_CURVE('',#459,#478,#481,.T.);
#395=FILL_AREA_STYLE('',(#482));
#396=EDGE_CURVE('',#430,#467,#483,.T.);
#397=EDGE_CURVE('',#448,#431,#484,.T.);
#398=FILL_AREA_STYLE('',(#485));
#399=EDGE_CURVE('',#478,#486,#487,.T.);
#400=EDGE_CURVE('',#488,#486,#489,.T.);
#401=EDGE_CURVE('',#488,#477,#490,.T.);
#402=FILL_AREA_STYLE('',(#491));
#403=EDGE_CURVE('',#417,#423,#492,.T.);
#404=EDGE_CURVE('',#486,#415,#493,.T.);
#405=FILL_AREA_STYLE('',(#494));
#406=EDGE_CURVE('',#413,#488,#495,.T.);
#407=FILL_AREA_STYLE('',(#496));
#408=EDGE_CURVE('',#422,#412,#497,.T.);
#409=FILL_AREA_STYLE('',(#498));
#410=FILL_AREA_STYLE('',(#499));
#411=FILL_AREA_STYLE_COLOUR('',#500);
#412=VERTEX_POINT('',#501);
#413=VERTEX_POINT('',#502);
#414=LINE('',#503,#504);
#415=VERTEX_POINT('',#505);
#416=LINE('',#506,#507);
#417=VERTEX_POINT('',#508);
#418=LINE('',#509,#510);
#419=LINE('',#511,#512);
#420=FILL_AREA_STYLE_COLOUR('',#513);
#421=FILL_AREA_STYLE_COLOUR('',#514);
#422=VERTEX_POINT('',#515);
#423=VERTEX_POINT('',#516);
#424=LINE('',#517,#518);
#425=VERTEX_POINT('',#519);
#426=LINE('',#520,#521);
#427=VERTEX_POINT('',#522);
#428=LINE('',#523,#524);
#429=LINE('',#525,#526);
#430=VERTEX_POINT('',#527);
#431=VERTEX_POINT('',#528);
#432=CIRCLE('',#529,16.0);
#433=CIRCLE('',#530,16.0);
#434=FILL_AREA_STYLE_COLOUR('',#531);
#435=VERTEX_POINT('',#532);
#436=LINE('',#533,#534);
#437=VERTEX_POINT('',#535);
#438=LINE('',#536,#537);
#439=LINE('',#538,#539);
#440=FILL_AREA_STYLE_COLOUR('',#540);
#441=VERTEX_POINT('',#541);
#442=VERTEX_POINT('',#542);
#443=LINE('',#543,#544);
#444=VERTEX_POINT('',#545);
#445=CIRCLE('',#546,18.0);
#446=VERTEX_POINT('',#547);
#447=LINE('',#548,#549);
#448=VERTEX_POINT('',#550);
#449=CIRCLE('',#551,16.0);
#450=CIRCLE('',#552,16.0);
#451=FILL_AREA_STYLE_COLOUR('',#553);
#452=VERTEX_POINT('',#554);
#453=LINE('',#555,#556);
#454=VERTEX_POINT('',#557);
#455=LINE('',#558,#559);
#456=LINE('',#560,#561);
#457=FILL_AREA_STYLE_COLOUR('',#562);
#458=VERTEX_POINT('',#563);
#459=VERTEX_POINT('',#564);
#460=LINE('',#565,#566);
#461=VERTEX_POINT('',#567);
#462=LINE('',#568,#569);
#463=VERTEX_POINT('',#570);
#464=LINE('',#571,#572);
#465=LINE('',#573,#574);
#466=FILL_AREA_STYLE_COLOUR('',#575);
#467=VERTEX_POINT('',#576);
#468=CIRCLE('',#577,16.0);
#469=CIRCLE('',#578,16.0);
#470=VERTEX_POINT('',#579);
#471=CIRCLE('',#580,18.0);
#472=CIRCLE('',#581,18.0);
#473=FILL_AREA_STYLE_COLOUR('',#582);
#474=LINE('',#583,#584);
#475=LINE('',#585,#586);
#476=FILL_AREA_STYLE_COLOUR('',#587);
#477=VERTEX_POINT('',#588);
#478=VERTEX_POINT('',#589);
#479=LINE('',#590,#591);
#480=LINE('',#592,#593);
#481=LINE('',#594,#595);
#482=FILL_AREA_STYLE_COLOUR('',#596);
#483=LINE('',#597,#598);
#484=LINE('',#599,#600);
#485=FILL_AREA_STYLE_COLOUR('',#601);
#486=VERTEX_POINT('',#602);
#487=LINE('',#603,#604);
#488=VERTEX_POINT('',#605);
#489=LINE('',#606,#607);
#490=LINE('',#608,#609);
#491=FILL_AREA_STYLE_COLOUR('',#610);
#492=LINE('',#611,#612);
#493=LINE('',#613,#614);
#494=FILL_AREA_STYLE_COLOUR('',#615);
#495=LINE('',#616,#617);
#496=FILL_AREA_STYLE_COLOUR('',#618);
#497=LINE('',#619,#620);
#498=FILL_AREA_STYLE_COLOUR('',#621);
#499=FILL_AREA_STYLE_COLOUR('',#622);
#500=COLOUR_RGB('',0.509803950786591,0.509803950786591,0.588235318660736);
#501=CARTESIAN_POINT('',(32.5000000000001,61.8449314192418,-20.0));
#502=CARTESIAN_POINT('',(32.5000000000001,61.8449314192418,2.48689957516035E-014));
#503=CARTESIAN_POINT('',(32.5,61.8449314192417,-23.0));
#504=VECTOR('',#623,1.0);
#505=CARTESIAN_POINT('',(32.5,3.1550685807583,2.8421709430404E-014));
#506=CARTESIAN_POINT('',(32.5,9.22523458773445E-015,2.8421709430404E-014));
#507=VECTOR('',#624,1.0);
#508=CARTESIAN_POINT('',(32.5,3.1550685807583,-20.0000000000001));
#509=CARTESIAN_POINT('',(32.5,3.15506858075833,-23.0));
#510=VECTOR('',#625,1.0);
#511=CARTESIAN_POINT('',(32.5,8.00062823391208E-015,-20.0));
#512=VECTOR('',#626,1.0);
#513=COLOUR_RGB('',0.509803950786591,0.509803950786591,0.588235318660736);
#514=COLOUR_RGB('',0.509803950786591,0.509803950786591,0.588235318660736);
#515=CARTESIAN_POINT('',(26.5,55.8449314192418,-26.0));
#516=CARTESIAN_POINT('',(26.5,-2.84493141924163,-26.0));
#517=CARTESIAN_POINT('',(26.5,7.63324632776536E-015,-26.0));
#518=VECTOR('',#627,1.0);
#519=CARTESIAN_POINT('',(-26.4999999999998,-55.8449314192415,-26.0));
#520=CARTESIAN_POINT('',(-2.28876714518958,-31.6336985644313,-26.0));
#521=VECTOR('',#628,1.0);
#522=CARTESIAN_POINT('',(-26.4999999999999,2.84493141924178,-25.9999999999999));
#523=CARTESIAN_POINT('',(-26.4999999999998,7.63324632776536E-015,-26.0));
#524=VECTOR('',#629,1.0);
#525=CARTESIAN_POINT('',(2.28876714518965,31.6336985644314,-26.0));
#526=VECTOR('',#630,1.0);
#527=CARTESIAN_POINT('',(16.0,0.0,-26.0));
#528=CARTESIAN_POINT('',(-16.0,-1.9593701661158E-015,-26.0));
#529=AXIS2_PLACEMENT_3D('',#631,#632,#633);
#530=AXIS2_PLACEMENT_3D('',#634,#635,#636);
#531=COLOUR_RGB('',0.509803950786591,0.509803950786591,0.588235318660736);
#532=CARTESIAN_POINT('',(-32.4999999999999,-3.15506858075827,-20.0));
#533=CARTESIAN_POINT('',(-9.30748856987334,20.0374428493684,-43.1925114301262));
#534=VECTOR('',#637,1.0);
#535=CARTESIAN_POINT('',(-32.5,-61.8449314192417,-19.9999999999999));
#536=CARTESIAN_POINT('',(-19.1925114301262,-48.5374428493679,-33.3074885698735));
#537=VECTOR('',#638,1.0);
#538=CARTESIAN_POINT('',(-32.5,8.00062823391208E-015,-20.0));
#539=VECTOR('',#639,1.0);
#540=COLOUR_RGB('',0.509803950786591,0.509803950786591,0.588235318660736);
#541=CARTESIAN_POINT('',(-2.86182357698706E-015,16.0,24.8452994616207));
#542=CARTESIAN_POINT('',(-3.21955152411045E-015,18.0,26.0));
#543=CARTESIAN_POINT('',(-3.02591664975395E-015,16.9174182452695,25.3749711324865));
#544=VECTOR('',#640,1.0);
#545=CARTESIAN_POINT('',(3.21955152411045E-015,-18.0,26.0));
#546=AXIS2_PLACEMENT_3D('',#641,#642,#643);
#547=CARTESIAN_POINT('',(2.86182357698707E-015,-16.0,24.8452994616207));
#548=CARTESIAN_POINT('',(3.02591664975395E-015,-16.9174182452694,25.3749711324865));
#549=VECTOR('',#644,1.0);
#550=CARTESIAN_POINT('',(-16.0,-1.9593701661158E-015,24.8452994616207));
#551=AXIS2_PLACEMENT_3D('',#645,#646,#647);
#552=AXIS2_PLACEMENT_3D('',#648,#649,#650);
#553=COLOUR_RGB('',0.509803950786591,0.509803950786591,0.588235318660736);
#554=CARTESIAN_POINT('',(-32.5,-3.1550685807583,1.93185851537099E-016));
#555=CARTESIAN_POINT('',(-32.5,-3.1550685807583,-23.0));
#556=VECTOR('',#651,1.0);
#557=CARTESIAN_POINT('',(-32.5,-61.8449314192417,3.78678479838563E-015));
#558=CARTESIAN_POINT('',(-32.5,-61.8449314192417,-23.0));
#559=VECTOR('',#652,1.0);
#560=CARTESIAN_POINT('',(-32.5,9.22523458773445E-015,0.0));
#561=VECTOR('',#653,1.0);
#562=COLOUR_RGB('',0.509803950786591,0.509803950786591,0.588235318660736);
#563=CARTESIAN_POINT('',(-20.75,-50.0949314192417,3.06732856551498E-015));
#564=CARTESIAN_POINT('',(-20.75,-50.0949314192417,26.0));
#565=CARTESIAN_POINT('',(-20.75,-50.0949314192417,-13.0));
#566=VECTOR('',#654,1.0);
#567=CARTESIAN_POINT('',(-20.75,8.59493141924171,26.0));
#568=CARTESIAN_POINT('',(-20.75,1.08172228477035E-014,26.0));
#569=VECTOR('',#655,1.0);
#570=CARTESIAN_POINT('',(-20.75,8.59493141924171,-5.26270381333548E-016));
#571=CARTESIAN_POINT('',(-20.75,8.59493141924171,2.8421709430404E-014));
#572=VECTOR('',#656,1.0);
#573=CARTESIAN_POINT('',(-20.75,9.22523458773445E-015,0.0));
#574=VECTOR('',#657,1.0);
#575=COLOUR_RGB('',0.509803950786591,0.509803950786591,0.588235318660736);
#576=CARTESIAN_POINT('',(16.0,1.08172228477035E-014,24.8452994616207));
#577=AXIS2_PLACEMENT_3D('',#658,#659,#660);
#578=AXIS2_PLACEMENT_3D('',#661,#662,#663);
#579=CARTESIAN_POINT('',(18.0,1.08172228477035E-014,26.0));
#580=AXIS2_PLACEMENT_3D('',#664,#665,#666);
#581=AXIS2_PLACEMENT_3D('',#667,#668,#669);
#582=COLOUR_RGB('',0.509803950786591,0.509803950786591,0.588235318660736);
#583=CARTESIAN_POINT('',(0.788767145189621,30.1336985644313,-3.5527136788005E-015));
#584=VECTOR('',#670,1.0);
#585=CARTESIAN_POINT('',(-17.0387671451896,-46.3836985644313,3.5527136788005E-015));
#586=VECTOR('',#671,1.0);
#587=COLOUR_RGB('',0.509803950786591,0.509803950786591,0.588235318660736);
#588=CARTESIAN_POINT('',(20.75,50.0949314192417,26.0));
#589=CARTESIAN_POINT('',(20.75,-8.59493141924168,26.0));
#590=CARTESIAN_POINT('',(20.75,1.08172228477035E-014,26.0));
#591=VECTOR('',#672,1.0);
#592=CARTESIAN_POINT('',(14.1012671451896,43.4461985644313,26.0));
#593=VECTOR('',#673,1.0);
#594=CARTESIAN_POINT('',(-14.1012671451896,-43.4461985644313,26.0));
#595=VECTOR('',#674,1.0);
#596=COLOUR_RGB('',0.509803950786591,0.509803950786591,0.588235318660736);
#597=CARTESIAN_POINT('',(16.0,1.9593701661158E-015,-0.577350269189633));
#598=VECTOR('',#675,1.0);
#599=CARTESIAN_POINT('',(-16.0,-1.9593701661158E-015,-0.577350269189633));
#600=VECTOR('',#676,1.0);
#601=COLOUR_RGB('',0.509803950786591,0.509803950786591,0.588235318660736);
#602=CARTESIAN_POINT('',(20.75,-8.59493141924167,2.89479798117376E-014));
#603=CARTESIAN_POINT('',(20.75,-8.59493141924168,2.8421709430404E-014));
#604=VECTOR('',#677,1.0);
#605=CARTESIAN_POINT('',(20.75,50.0949314192417,2.5354380864889E-014));
#606=CARTESIAN_POINT('',(20.75,9.22523458773445E-015,2.8421709430404E-014));
#607=VECTOR('',#678,1.0);
#608=CARTESIAN_POINT('',(20.75,50.0949314192417,-13.0));
#609=VECTOR('',#679,1.0);
#610=COLOUR_RGB('',0.509803950786591,0.509803950786591,0.588235318660736);
#611=CARTESIAN_POINT('',(7.30748856987367,-22.037442849368,-45.1925114301264));
#612=VECTOR('',#680,1.0);
#613=CARTESIAN_POINT('',(-0.788767145189582,-30.1336985644313,2.8421709430404E-014));
#614=VECTOR('',#681,1.0);
#615=COLOUR_RGB('',0.509803950786591,0.509803950786591,0.588235318660736);
#616=CARTESIAN_POINT('',(17.0387671451896,46.3836985644313,2.30926389122033E-014));
#617=VECTOR('',#682,1.0);
#618=COLOUR_RGB('',0.509803950786591,0.509803950786591,0.588235318660736);
#619=CARTESIAN_POINT('',(19.1925114301264,48.5374428493682,-33.3074885698736));
#620=VECTOR('',#683,1.0);
#621=COLOUR_RGB('',0.509803950786591,0.509803950786591,0.588235318660736);
#622=COLOUR_RGB('',0.509803950786591,0.509803950786591,0.588235318660736);
#623=DIRECTION('',(0.0,0.0,1.0));
#624=DIRECTION('',(0.0,1.0,-6.12303176911189E-017));
#625=DIRECTION('',(0.0,0.0,-1.0));
#626=DIRECTION('',(0.0,1.0,-6.12303176911189E-017));
#627=DIRECTION('',(0.0,-1.0,6.12303176911189E-017));
#628=DIRECTION('',(-0.707106781186547,-0.707106781186548,4.32963728535968E-017));
#629=DIRECTION('',(0.0,-1.0,6.12303176911189E-017));
#630=DIRECTION('',(0.707106781186547,0.707106781186548,-4.32963728535968E-017));
#631=CARTESIAN_POINT('',(0.0,0.0,-26.0));
#632=DIRECTION('',(-0.0,6.12303176911189E-017,1.0));
#633=DIRECTION('',(1.0,0.0,0.0));
#634=CARTESIAN_POINT('',(0.0,0.0,-26.0));
#635=DIRECTION('',(-0.0,6.12303176911189E-017,1.0));
#636=DIRECTION('',(1.0,0.0,0.0));
#637=DIRECTION('',(0.577350269189629,0.577350269189629,-0.577350269189619));
#638=DIRECTION('',(-0.577350269189629,-0.577350269189629,0.577350269189619));
#639=DIRECTION('',(0.0,-1.0,6.12303176911189E-017));
#640=DIRECTION('',(-1.54900744926253E-016,0.866025403784439,0.5));
#641=CARTESIAN_POINT('',(0.0,1.08172228477035E-014,26.0));
#642=DIRECTION('',(-1.21165333524179E-049,-6.12303176911189E-017,-1.0));
#643=DIRECTION('',(-5.64033381794538E-017,1.0,-6.12303176911189E-017));
#644=DIRECTION('',(-1.54900744926253E-016,0.866025403784439,-0.5));
#645=CARTESIAN_POINT('',(0.0,0.0,24.8452994616207));
#646=DIRECTION('',(0.0,0.0,1.0));
#647=DIRECTION('',(1.0,0.0,0.0));
#648=CARTESIAN_POINT('',(0.0,0.0,24.8452994616207));
#649=DIRECTION('',(0.0,0.0,1.0));
#650=DIRECTION('',(1.0,0.0,0.0));
#651=DIRECTION('',(0.0,0.0,-1.0));
#652=DIRECTION('',(0.0,0.0,1.0));
#653=DIRECTION('',(0.0,-1.0,6.12303176911189E-017));
#654=DIRECTION('',(0.0,0.0,1.0));
#655=DIRECTION('',(0.0,-1.0,6.12303176911189E-017));
#656=DIRECTION('',(0.0,0.0,-1.0));
#657=DIRECTION('',(0.0,-1.0,6.12303176911189E-017));
#658=CARTESIAN_POINT('',(0.0,0.0,24.8452994616207));
#659=DIRECTION('',(0.0,0.0,1.0));
#660=DIRECTION('',(1.0,0.0,0.0));
#661=CARTESIAN_POINT('',(0.0,0.0,24.8452994616207));
#662=DIRECTION('',(0.0,0.0,1.0));
#663=DIRECTION('',(1.0,0.0,0.0));
#664=CARTESIAN_POINT('',(0.0,1.08172228477035E-014,26.0));
#665=DIRECTION('',(-1.21165333524179E-049,-6.12303176911189E-017,-1.0));
#666=DIRECTION('',(-5.64033381794538E-017,1.0,-6.12303176911189E-017));
#667=CARTESIAN_POINT('',(0.0,1.08172228477035E-014,26.0));
#668=DIRECTION('',(-1.21165333524179E-049,-6.12303176911189E-017,-1.0));
#669=DIRECTION('',(-5.64033381794538E-017,1.0,-6.12303176911189E-017));
#670=DIRECTION('',(-0.707106781186547,-0.707106781186548,4.32963728535968E-017));
#671=DIRECTION('',(0.707106781186547,0.707106781186548,-4.32963728535968E-017));
#672=DIRECTION('',(0.0,-1.0,6.12303176911189E-017));
#673=DIRECTION('',(-0.707106781186547,-0.707106781186548,4.32963728535968E-017));
#674=DIRECTION('',(0.707106781186547,0.707106781186548,-4.32963728535968E-017));
#675=DIRECTION('',(-0.0,-0.0,1.0));
#676=DIRECTION('',(-0.0,-0.0,-1.0));
#677=DIRECTION('',(0.0,0.0,-1.0));
#678=DIRECTION('',(0.0,-1.0,6.12303176911189E-017));
#679=DIRECTION('',(0.0,0.0,1.0));
#680=DIRECTION('',(-0.577350269189625,-0.577350269189626,-0.577350269189627));
#681=DIRECTION('',(0.707106781186547,0.707106781186548,-4.32963728535968E-017));
#682=DIRECTION('',(-0.707106781186547,-0.707106781186548,4.32963728535968E-017));
#683=DIRECTION('',(0.577350269189625,0.577350269189626,0.577350269189627));
ENDSEC;
END-ISO-10303-21;
