ISO-10303-21;
HEADER;
FILE_DESCRIPTION(('STEP AP214'),'1');
FILE_NAME('C:/temp/halder/09_10_2014/CAD/Temp/HALDERN_EH_23020_0780.stp','2014-10-09T11:17:38',('TraceParts'),('TraceParts S.A.'),'Spatial InterOp 3D',' ',' ');
FILE_SCHEMA(('automotive_design'));
ENDSEC;
DATA;
#1=MECHANICAL_DESIGN_GEOMETRIC_PRESENTATION_REPRESENTATION(' ',(#10,#11,#12,#13,#14,#15,#16,#17,#18,#19,#20,#21,#22,#23,#24,#25,#26),#6);
#2=PRODUCT_DEFINITION_CONTEXT('',#27,'design');
#3=APPLICATION_PROTOCOL_DEFINITION('INTERNATIONAL STANDARD','automotive_design',1994,#27);
#4=PRODUCT_CATEGORY_RELATIONSHIP('NONE','NONE',#28,#29);
#5=SHAPE_DEFINITION_REPRESENTATION(#30,#31);
#6= (GEOMETRIC_REPRESENTATION_CONTEXT(3)GLOBAL_UNCERTAINTY_ASSIGNED_CONTEXT((#34))GLOBAL_UNIT_ASSIGNED_CONTEXT((#36,#37,#38))REPRESENTATION_CONTEXT('NONE','WORKSPACE'));
#10=STYLED_ITEM('',(#40),#41);
#11=STYLED_ITEM('',(#42),#43);
#12=STYLED_ITEM('',(#44),#45);
#13=STYLED_ITEM('',(#46),#47);
#14=STYLED_ITEM('',(#48),#49);
#15=STYLED_ITEM('',(#50),#51);
#16=STYLED_ITEM('',(#52),#53);
#17=STYLED_ITEM('',(#54),#55);
#18=STYLED_ITEM('',(#56),#57);
#19=STYLED_ITEM('',(#58),#59);
#20=STYLED_ITEM('',(#60),#61);
#21=STYLED_ITEM('',(#62),#63);
#22=STYLED_ITEM('',(#64),#65);
#23=STYLED_ITEM('',(#66),#67);
#24=STYLED_ITEM('',(#68),#69);
#25=STYLED_ITEM('',(#70),#71);
#26=STYLED_ITEM('',(#72),#73);
#27=APPLICATION_CONTEXT(' ');
#28=PRODUCT_CATEGORY('part','NONE');
#29=PRODUCT_RELATED_PRODUCT_CATEGORY('detail',' ',(#74));
#30=PRODUCT_DEFINITION_SHAPE('NONE','NONE',#75);
#31=ADVANCED_BREP_SHAPE_REPRESENTATION('1',(#67,#76),#6);
#34=UNCERTAINTY_MEASURE_WITH_UNIT(LENGTH_MEASURE(1.0E-006),#36,'','');
#36= (CONVERSION_BASED_UNIT('MILLIMETRE',#79)LENGTH_UNIT()NAMED_UNIT(#82));
#37= (NAMED_UNIT(#84)PLANE_ANGLE_UNIT()SI_UNIT($,.RADIAN.));
#38= (NAMED_UNIT(#84)SOLID_ANGLE_UNIT()SI_UNIT($,.STERADIAN.));
#40=PRESENTATION_STYLE_ASSIGNMENT((#90));
#41=ADVANCED_FACE('',(#91),#92,.F.);
#42=PRESENTATION_STYLE_ASSIGNMENT((#93));
#43=ADVANCED_FACE('',(#94),#95,.T.);
#44=PRESENTATION_STYLE_ASSIGNMENT((#96));
#45=ADVANCED_FACE('',(#97),#98,.F.);
#46=PRESENTATION_STYLE_ASSIGNMENT((#99));
#47=ADVANCED_FACE('',(#100,#101),#102,.T.);
#48=PRESENTATION_STYLE_ASSIGNMENT((#103));
#49=ADVANCED_FACE('',(#104),#105,.T.);
#50=PRESENTATION_STYLE_ASSIGNMENT((#106));
#51=ADVANCED_FACE('',(#107,#108),#109,.T.);
#52=PRESENTATION_STYLE_ASSIGNMENT((#110));
#53=ADVANCED_FACE('',(#111),#112,.F.);
#54=PRESENTATION_STYLE_ASSIGNMENT((#113));
#55=ADVANCED_FACE('',(#114),#115,.T.);
#56=PRESENTATION_STYLE_ASSIGNMENT((#116));
#57=ADVANCED_FACE('',(#117),#118,.F.);
#58=PRESENTATION_STYLE_ASSIGNMENT((#119));
#59=ADVANCED_FACE('',(#120),#121,.T.);
#60=PRESENTATION_STYLE_ASSIGNMENT((#122));
#61=ADVANCED_FACE('',(#123),#124,.F.);
#62=PRESENTATION_STYLE_ASSIGNMENT((#125));
#63=ADVANCED_FACE('',(#126),#127,.T.);
#64=PRESENTATION_STYLE_ASSIGNMENT((#128));
#65=ADVANCED_FACE('',(#129),#130,.T.);
#66=PRESENTATION_STYLE_ASSIGNMENT((#131));
#67=MANIFOLD_SOLID_BREP('1',#132);
#68=PRESENTATION_STYLE_ASSIGNMENT((#133));
#69=ADVANCED_FACE('',(#134),#135,.T.);
#70=PRESENTATION_STYLE_ASSIGNMENT((#136));
#71=ADVANCED_FACE('',(#137),#138,.T.);
#72=PRESENTATION_STYLE_ASSIGNMENT((#139));
#73=ADVANCED_FACE('',(#140),#141,.F.);
#74=PRODUCT('1','1','PART-1-DESC',(#142));
#75=PRODUCT_DEFINITION('NONE','NONE',#143,#2);
#76=AXIS2_PLACEMENT_3D('',#144,#145,#146);
#79=LENGTH_MEASURE_WITH_UNIT(LENGTH_MEASURE(1.0),#147);
#82=DIMENSIONAL_EXPONENTS(1.0,0.0,0.0,0.0,0.0,0.0,0.0);
#84=DIMENSIONAL_EXPONENTS(0.0,0.0,0.0,0.0,0.0,0.0,0.0);
#90=SURFACE_STYLE_USAGE(.BOTH.,#148);
#91=FACE_OUTER_BOUND('',#149,.T.);
#92=CONICAL_SURFACE('',#150,11.1880511839521,1.0471975511966);
#93=SURFACE_STYLE_USAGE(.BOTH.,#151);
#94=FACE_OUTER_BOUND('',#152,.T.);
#95=PLANE('',#153);
#96=SURFACE_STYLE_USAGE(.BOTH.,#154);
#97=FACE_OUTER_BOUND('',#155,.T.);
#98=CYLINDRICAL_SURFACE('',#156,10.5);
#99=SURFACE_STYLE_USAGE(.BOTH.,#157);
#100=FACE_BOUND('',#158,.T.);
#101=FACE_OUTER_BOUND('',#159,.T.);
#102=PLANE('',#160);
#103=SURFACE_STYLE_USAGE(.BOTH.,#161);
#104=FACE_OUTER_BOUND('',#162,.T.);
#105=PLANE('',#163);
#106=SURFACE_STYLE_USAGE(.BOTH.,#164);
#107=FACE_OUTER_BOUND('',#165,.T.);
#108=FACE_BOUND('',#166,.T.);
#109=PLANE('',#167);
#110=SURFACE_STYLE_USAGE(.BOTH.,#168);
#111=FACE_OUTER_BOUND('',#169,.T.);
#112=CONICAL_SURFACE('',#170,11.1880511839521,1.0471975511966);
#113=SURFACE_STYLE_USAGE(.BOTH.,#171);
#114=FACE_OUTER_BOUND('',#172,.T.);
#115=PLANE('',#173);
#116=SURFACE_STYLE_USAGE(.BOTH.,#174);
#117=FACE_OUTER_BOUND('',#175,.T.);
#118=CYLINDRICAL_SURFACE('',#176,10.5);
#119=SURFACE_STYLE_USAGE(.BOTH.,#177);
#120=FACE_OUTER_BOUND('',#178,.T.);
#121=PLANE('',#179);
#122=SURFACE_STYLE_USAGE(.BOTH.,#180);
#123=FACE_OUTER_BOUND('',#181,.T.);
#124=PLANE('',#182);
#125=SURFACE_STYLE_USAGE(.BOTH.,#183);
#126=FACE_OUTER_BOUND('',#184,.T.);
#127=PLANE('',#185);
#128=SURFACE_STYLE_USAGE(.BOTH.,#186);
#129=FACE_OUTER_BOUND('',#187,.T.);
#130=PLANE('',#188);
#131=SURFACE_STYLE_USAGE(.BOTH.,#189);
#132=CLOSED_SHELL('',(#57,#41,#59,#73,#61,#65,#49,#47,#69,#71,#53,#45,#51,#43,#63,#55));
#133=SURFACE_STYLE_USAGE(.BOTH.,#190);
#134=FACE_OUTER_BOUND('',#191,.T.);
#135=PLANE('',#192);
#136=SURFACE_STYLE_USAGE(.BOTH.,#193);
#137=FACE_OUTER_BOUND('',#194,.T.);
#138=PLANE('',#195);
#139=SURFACE_STYLE_USAGE(.BOTH.,#196);
#140=FACE_OUTER_BOUND('',#197,.T.);
#141=PLANE('',#198);
#142=PRODUCT_CONTEXT('',#27,'mechanical');
#143=PRODUCT_DEFINITION_FORMATION_WITH_SPECIFIED_SOURCE(' ','NONE',#74,.NOT_KNOWN.);
#144=CARTESIAN_POINT('',(0.0,0.0,0.0));
#145=DIRECTION('',(0.0,0.0,1.0));
#146=DIRECTION('',(1.0,0.0,0.0));
#147= (NAMED_UNIT(#82)LENGTH_UNIT()SI_UNIT(.MILLI.,.METRE.));
#148=SURFACE_SIDE_STYLE('',(#200));
#149=EDGE_LOOP('',(#201,#202,#203,#204,#205,#206));
#150=AXIS2_PLACEMENT_3D('',#207,#208,#209);
#151=SURFACE_SIDE_STYLE('',(#210));
#152=EDGE_LOOP('',(#211,#212,#213,#214));
#153=AXIS2_PLACEMENT_3D('',#215,#216,#217);
#154=SURFACE_SIDE_STYLE('',(#218));
#155=EDGE_LOOP('',(#219,#220,#221,#222,#223));
#156=AXIS2_PLACEMENT_3D('',#224,#225,#226);
#157=SURFACE_SIDE_STYLE('',(#227));
#158=EDGE_LOOP('',(#228,#229,#230));
#159=EDGE_LOOP('',(#231,#232,#233,#234));
#160=AXIS2_PLACEMENT_3D('',#235,#236,#237);
#161=SURFACE_SIDE_STYLE('',(#238));
#162=EDGE_LOOP('',(#239,#240,#241,#242));
#163=AXIS2_PLACEMENT_3D('',#243,#244,#245);
#164=SURFACE_SIDE_STYLE('',(#246));
#165=EDGE_LOOP('',(#247,#248,#249,#250));
#166=EDGE_LOOP('',(#251,#252));
#167=AXIS2_PLACEMENT_3D('',#253,#254,#255);
#168=SURFACE_SIDE_STYLE('',(#256));
#169=EDGE_LOOP('',(#257,#258,#259,#260,#261));
#170=AXIS2_PLACEMENT_3D('',#262,#263,#264);
#171=SURFACE_SIDE_STYLE('',(#265));
#172=EDGE_LOOP('',(#266,#267,#268,#269));
#173=AXIS2_PLACEMENT_3D('',#270,#271,#272);
#174=SURFACE_SIDE_STYLE('',(#273));
#175=EDGE_LOOP('',(#274,#275,#276,#277,#278));
#176=AXIS2_PLACEMENT_3D('',#279,#280,#281);
#177=SURFACE_SIDE_STYLE('',(#282));
#178=EDGE_LOOP('',(#283,#284,#285,#286));
#179=AXIS2_PLACEMENT_3D('',#287,#288,#289);
#180=SURFACE_SIDE_STYLE('',(#290));
#181=EDGE_LOOP('',(#291,#292,#293,#294,#295,#296,#297,#298,#299,#300));
#182=AXIS2_PLACEMENT_3D('',#301,#302,#303);
#183=SURFACE_SIDE_STYLE('',(#304));
#184=EDGE_LOOP('',(#305,#306,#307,#308));
#185=AXIS2_PLACEMENT_3D('',#309,#310,#311);
#186=SURFACE_SIDE_STYLE('',(#312));
#187=EDGE_LOOP('',(#313,#314,#315,#316));
#188=AXIS2_PLACEMENT_3D('',#317,#318,#319);
#189=SURFACE_SIDE_STYLE('',(#320));
#190=SURFACE_SIDE_STYLE('',(#321));
#191=EDGE_LOOP('',(#322,#323,#324,#325));
#192=AXIS2_PLACEMENT_3D('',#326,#327,#328);
#193=SURFACE_SIDE_STYLE('',(#329));
#194=EDGE_LOOP('',(#330,#331,#332,#333));
#195=AXIS2_PLACEMENT_3D('',#334,#335,#336);
#196=SURFACE_SIDE_STYLE('',(#337));
#197=EDGE_LOOP('',(#338,#339,#340,#341,#342,#343,#344,#345,#346,#347));
#198=AXIS2_PLACEMENT_3D('',#348,#349,#350);
#200=SURFACE_STYLE_FILL_AREA(#351);
#201=ORIENTED_EDGE('',*,*,#352,.F.);
#202=ORIENTED_EDGE('',*,*,#353,.F.);
#203=ORIENTED_EDGE('',*,*,#354,.F.);
#204=ORIENTED_EDGE('',*,*,#355,.F.);
#205=ORIENTED_EDGE('',*,*,#356,.F.);
#206=ORIENTED_EDGE('',*,*,#357,.F.);
#207=CARTESIAN_POINT('',(0.0,1.03273803061746E-014,17.5312211324865));
#208=DIRECTION('',(-0.0,-0.0,1.0));
#209=DIRECTION('',(-5.57055734001507E-017,1.0,0.0));
#210=SURFACE_STYLE_FILL_AREA(#358);
#211=ORIENTED_EDGE('',*,*,#359,.T.);
#212=ORIENTED_EDGE('',*,*,#360,.F.);
#213=ORIENTED_EDGE('',*,*,#361,.T.);
#214=ORIENTED_EDGE('',*,*,#362,.F.);
#215=CARTESIAN_POINT('',(22.0,8.36801014005879E-015,-14.0));
#216=DIRECTION('',(0.707106781186548,-4.32963728535968E-017,-0.707106781186548));
#217=DIRECTION('',(-1.07031965039769E-033,1.0,-6.12303176911189E-017));
#218=SURFACE_STYLE_FILL_AREA(#363);
#219=ORIENTED_EDGE('',*,*,#364,.T.);
#220=ORIENTED_EDGE('',*,*,#353,.T.);
#221=ORIENTED_EDGE('',*,*,#365,.T.);
#222=ORIENTED_EDGE('',*,*,#366,.T.);
#223=ORIENTED_EDGE('',*,*,#367,.F.);
#224=CARTESIAN_POINT('',(0.0,0.0,18.0));
#225=DIRECTION('',(0.0,0.0,-1.0));
#226=DIRECTION('',(1.0,0.0,0.0));
#227=SURFACE_STYLE_FILL_AREA(#368);
#228=ORIENTED_EDGE('',*,*,#356,.T.);
#229=ORIENTED_EDGE('',*,*,#369,.T.);
#230=ORIENTED_EDGE('',*,*,#357,.T.);
#231=ORIENTED_EDGE('',*,*,#370,.F.);
#232=ORIENTED_EDGE('',*,*,#371,.T.);
#233=ORIENTED_EDGE('',*,*,#372,.T.);
#234=ORIENTED_EDGE('',*,*,#373,.T.);
#235=CARTESIAN_POINT('',(-13.8,1.03273803061746E-014,18.0));
#236=DIRECTION('',(0.0,6.12303176911189E-017,1.0));
#237=DIRECTION('',(0.0,-1.0,6.12303176911189E-017));
#238=SURFACE_STYLE_FILL_AREA(#374);
#239=ORIENTED_EDGE('',*,*,#375,.T.);
#240=ORIENTED_EDGE('',*,*,#372,.F.);
#241=ORIENTED_EDGE('',*,*,#376,.T.);
#242=ORIENTED_EDGE('',*,*,#377,.T.);
#243=CARTESIAN_POINT('',(-13.8,9.22523458773445E-015,0.0));
#244=DIRECTION('',(-1.0,0.0,0.0));
#245=DIRECTION('',(0.0,-1.0,6.12303176911189E-017));
#246=SURFACE_STYLE_FILL_AREA(#378);
#247=ORIENTED_EDGE('',*,*,#360,.T.);
#248=ORIENTED_EDGE('',*,*,#379,.T.);
#249=ORIENTED_EDGE('',*,*,#380,.F.);
#250=ORIENTED_EDGE('',*,*,#381,.T.);
#251=ORIENTED_EDGE('',*,*,#367,.T.);
#252=ORIENTED_EDGE('',*,*,#382,.T.);
#253=CARTESIAN_POINT('',(18.0,8.12308886929431E-015,-18.0));
#254=DIRECTION('',(0.0,-6.12303176911189E-017,-1.0));
#255=DIRECTION('',(0.0,1.0,-6.12303176911189E-017));
#256=SURFACE_STYLE_FILL_AREA(#383);
#257=ORIENTED_EDGE('',*,*,#352,.T.);
#258=ORIENTED_EDGE('',*,*,#369,.F.);
#259=ORIENTED_EDGE('',*,*,#355,.T.);
#260=ORIENTED_EDGE('',*,*,#384,.F.);
#261=ORIENTED_EDGE('',*,*,#365,.F.);
#262=CARTESIAN_POINT('',(0.0,1.03273803061746E-014,17.5312211324865));
#263=DIRECTION('',(-0.0,-0.0,1.0));
#264=DIRECTION('',(-5.57055734001507E-017,1.0,0.0));
#265=SURFACE_STYLE_FILL_AREA(#385);
#266=ORIENTED_EDGE('',*,*,#386,.T.);
#267=ORIENTED_EDGE('',*,*,#387,.T.);
#268=ORIENTED_EDGE('',*,*,#388,.T.);
#269=ORIENTED_EDGE('',*,*,#389,.F.);
#270=CARTESIAN_POINT('',(-22.0,8.36801014005879E-015,-14.0));
#271=DIRECTION('',(-1.0,0.0,0.0));
#272=DIRECTION('',(0.0,-1.0,6.12303176911189E-017));
#273=SURFACE_STYLE_FILL_AREA(#390);
#274=ORIENTED_EDGE('',*,*,#364,.F.);
#275=ORIENTED_EDGE('',*,*,#382,.F.);
#276=ORIENTED_EDGE('',*,*,#366,.F.);
#277=ORIENTED_EDGE('',*,*,#384,.T.);
#278=ORIENTED_EDGE('',*,*,#354,.T.);
#279=CARTESIAN_POINT('',(0.0,0.0,18.0));
#280=DIRECTION('',(0.0,0.0,-1.0));
#281=DIRECTION('',(1.0,0.0,0.0));
#282=SURFACE_STYLE_FILL_AREA(#391);
#283=ORIENTED_EDGE('',*,*,#392,.T.);
#284=ORIENTED_EDGE('',*,*,#393,.F.);
#285=ORIENTED_EDGE('',*,*,#394,.T.);
#286=ORIENTED_EDGE('',*,*,#362,.T.);
#287=CARTESIAN_POINT('',(22.0,8.36801014005879E-015,-14.0));
#288=DIRECTION('',(1.0,0.0,0.0));
#289=DIRECTION('',(0.0,1.0,-6.12303176911189E-017));
#290=SURFACE_STYLE_FILL_AREA(#395);
#291=ORIENTED_EDGE('',*,*,#396,.F.);
#292=ORIENTED_EDGE('',*,*,#388,.F.);
#293=ORIENTED_EDGE('',*,*,#397,.F.);
#294=ORIENTED_EDGE('',*,*,#379,.F.);
#295=ORIENTED_EDGE('',*,*,#359,.F.);
#296=ORIENTED_EDGE('',*,*,#394,.F.);
#297=ORIENTED_EDGE('',*,*,#398,.F.);
#298=ORIENTED_EDGE('',*,*,#399,.F.);
#299=ORIENTED_EDGE('',*,*,#373,.F.);
#300=ORIENTED_EDGE('',*,*,#375,.F.);
#301=CARTESIAN_POINT('',(-22.0,-41.5161471607487,-18.0));
#302=DIRECTION('',(-0.707106781186548,0.707106781186547,0.0));
#303=DIRECTION('',(0.0,0.0,1.0));
#304=SURFACE_STYLE_FILL_AREA(#400);
#305=ORIENTED_EDGE('',*,*,#401,.T.);
#306=ORIENTED_EDGE('',*,*,#380,.T.);
#307=ORIENTED_EDGE('',*,*,#397,.T.);
#308=ORIENTED_EDGE('',*,*,#387,.F.);
#309=CARTESIAN_POINT('',(-17.9999999999999,8.12308886929431E-015,-18.0));
#310=DIRECTION('',(-0.707106781186543,-4.32963728535971E-017,-0.707106781186553));
#311=DIRECTION('',(5.14945040549183E-034,-1.0,6.12303176911189E-017));
#312=SURFACE_STYLE_FILL_AREA(#402);
#313=ORIENTED_EDGE('',*,*,#403,.T.);
#314=ORIENTED_EDGE('',*,*,#389,.T.);
#315=ORIENTED_EDGE('',*,*,#396,.T.);
#316=ORIENTED_EDGE('',*,*,#377,.F.);
#317=CARTESIAN_POINT('',(-22.0,9.22523458773445E-015,0.0));
#318=DIRECTION('',(0.0,6.12303176911189E-017,1.0));
#319=DIRECTION('',(0.0,-1.0,6.12303176911189E-017));
#320=SURFACE_STYLE_FILL_AREA(#404);
#321=SURFACE_STYLE_FILL_AREA(#405);
#322=ORIENTED_EDGE('',*,*,#399,.T.);
#323=ORIENTED_EDGE('',*,*,#406,.F.);
#324=ORIENTED_EDGE('',*,*,#407,.T.);
#325=ORIENTED_EDGE('',*,*,#370,.T.);
#326=CARTESIAN_POINT('',(13.8,1.03273803061746E-014,18.0));
#327=DIRECTION('',(1.0,0.0,0.0));
#328=DIRECTION('',(0.0,1.0,-6.12303176911189E-017));
#329=SURFACE_STYLE_FILL_AREA(#408);
#330=ORIENTED_EDGE('',*,*,#398,.T.);
#331=ORIENTED_EDGE('',*,*,#393,.T.);
#332=ORIENTED_EDGE('',*,*,#409,.T.);
#333=ORIENTED_EDGE('',*,*,#406,.T.);
#334=CARTESIAN_POINT('',(13.8,9.22523458773445E-015,2.8421709430404E-014));
#335=DIRECTION('',(0.0,6.12303176911189E-017,1.0));
#336=DIRECTION('',(0.0,-1.0,6.12303176911189E-017));
#337=SURFACE_STYLE_FILL_AREA(#410);
#338=ORIENTED_EDGE('',*,*,#401,.F.);
#339=ORIENTED_EDGE('',*,*,#386,.F.);
#340=ORIENTED_EDGE('',*,*,#403,.F.);
#341=ORIENTED_EDGE('',*,*,#376,.F.);
#342=ORIENTED_EDGE('',*,*,#371,.F.);
#343=ORIENTED_EDGE('',*,*,#407,.F.);
#344=ORIENTED_EDGE('',*,*,#409,.F.);
#345=ORIENTED_EDGE('',*,*,#392,.F.);
#346=ORIENTED_EDGE('',*,*,#361,.F.);
#347=ORIENTED_EDGE('',*,*,#381,.F.);
#348=CARTESIAN_POINT('',(22.0,41.5161471607487,-18.0));
#349=DIRECTION('',(0.707106781186548,-0.707106781186547,0.0));
#350=DIRECTION('',(0.0,0.0,-1.0));
#351=FILL_AREA_STYLE('',(#411));
#352=EDGE_CURVE('',#412,#413,#414,.T.);
#353=EDGE_CURVE('',#415,#412,#416,.T.);
#354=EDGE_CURVE('',#417,#415,#418,.T.);
#355=EDGE_CURVE('',#419,#417,#420,.T.);
#356=EDGE_CURVE('',#421,#419,#422,.T.);
#357=EDGE_CURVE('',#413,#421,#423,.T.);
#358=FILL_AREA_STYLE('',(#424));
#359=EDGE_CURVE('',#425,#426,#427,.T.);
#360=EDGE_CURVE('',#428,#426,#429,.T.);
#361=EDGE_CURVE('',#428,#430,#431,.T.);
#362=EDGE_CURVE('',#425,#430,#432,.T.);
#363=FILL_AREA_STYLE('',(#433));
#364=EDGE_CURVE('',#434,#415,#435,.T.);
#365=EDGE_CURVE('',#412,#436,#437,.T.);
#366=EDGE_CURVE('',#436,#438,#439,.T.);
#367=EDGE_CURVE('',#434,#438,#440,.T.);
#368=FILL_AREA_STYLE('',(#441));
#369=EDGE_CURVE('',#419,#413,#442,.T.);
#370=EDGE_CURVE('',#443,#444,#445,.T.);
#371=EDGE_CURVE('',#443,#446,#447,.T.);
#372=EDGE_CURVE('',#446,#448,#449,.T.);
#373=EDGE_CURVE('',#448,#444,#450,.T.);
#374=FILL_AREA_STYLE('',(#451));
#375=EDGE_CURVE('',#452,#448,#453,.T.);
#376=EDGE_CURVE('',#446,#454,#455,.T.);
#377=EDGE_CURVE('',#454,#452,#456,.T.);
#378=FILL_AREA_STYLE('',(#457));
#379=EDGE_CURVE('',#426,#458,#459,.T.);
#380=EDGE_CURVE('',#460,#458,#461,.T.);
#381=EDGE_CURVE('',#460,#428,#462,.T.);
#382=EDGE_CURVE('',#438,#434,#463,.T.);
#383=FILL_AREA_STYLE('',(#464));
#384=EDGE_CURVE('',#436,#417,#465,.T.);
#385=FILL_AREA_STYLE('',(#466));
#386=EDGE_CURVE('',#467,#468,#469,.T.);
#387=EDGE_CURVE('',#468,#470,#471,.T.);
#388=EDGE_CURVE('',#470,#472,#473,.T.);
#389=EDGE_CURVE('',#467,#472,#474,.T.);
#390=FILL_AREA_STYLE('',(#475));
#391=FILL_AREA_STYLE('',(#476));
#392=EDGE_CURVE('',#430,#477,#478,.T.);
#393=EDGE_CURVE('',#479,#477,#480,.T.);
#394=EDGE_CURVE('',#479,#425,#481,.T.);
#395=FILL_AREA_STYLE('',(#482));
#396=EDGE_CURVE('',#472,#452,#483,.T.);
#397=EDGE_CURVE('',#458,#470,#484,.T.);
#398=EDGE_CURVE('',#485,#479,#486,.T.);
#399=EDGE_CURVE('',#444,#485,#487,.T.);
#400=FILL_AREA_STYLE('',(#488));
#401=EDGE_CURVE('',#468,#460,#489,.T.);
#402=FILL_AREA_STYLE('',(#490));
#403=EDGE_CURVE('',#454,#467,#491,.T.);
#404=FILL_AREA_STYLE('',(#492));
#405=FILL_AREA_STYLE('',(#493));
#406=EDGE_CURVE('',#494,#485,#495,.T.);
#407=EDGE_CURVE('',#494,#443,#496,.T.);
#408=FILL_AREA_STYLE('',(#497));
#409=EDGE_CURVE('',#477,#494,#498,.T.);
#410=FILL_AREA_STYLE('',(#499));
#411=FILL_AREA_STYLE_COLOUR('',#500);
#412=VERTEX_POINT('',#501);
#413=VERTEX_POINT('',#502);
#414=LINE('',#503,#504);
#415=VERTEX_POINT('',#505);
#416=CIRCLE('',#506,10.5);
#417=VERTEX_POINT('',#507);
#418=CIRCLE('',#508,10.5);
#419=VERTEX_POINT('',#509);
#420=LINE('',#510,#511);
#421=VERTEX_POINT('',#512);
#422=CIRCLE('',#513,12.0);
#423=CIRCLE('',#514,12.0);
#424=FILL_AREA_STYLE_COLOUR('',#515);
#425=VERTEX_POINT('',#516);
#426=VERTEX_POINT('',#517);
#427=LINE('',#518,#519);
#428=VERTEX_POINT('',#520);
#429=LINE('',#521,#522);
#430=VERTEX_POINT('',#523);
#431=LINE('',#524,#525);
#432=LINE('',#526,#527);
#433=FILL_AREA_STYLE_COLOUR('',#528);
#434=VERTEX_POINT('',#529);
#435=LINE('',#530,#531);
#436=VERTEX_POINT('',#532);
#437=CIRCLE('',#533,10.5);
#438=VERTEX_POINT('',#534);
#439=LINE('',#535,#536);
#440=CIRCLE('',#537,10.5);
#441=FILL_AREA_STYLE_COLOUR('',#538);
#442=CIRCLE('',#539,12.0);
#443=VERTEX_POINT('',#540);
#444=VERTEX_POINT('',#541);
#445=LINE('',#542,#543);
#446=VERTEX_POINT('',#544);
#447=LINE('',#545,#546);
#448=VERTEX_POINT('',#547);
#449=LINE('',#548,#549);
#450=LINE('',#550,#551);
#451=FILL_AREA_STYLE_COLOUR('',#552);
#452=VERTEX_POINT('',#553);
#453=LINE('',#554,#555);
#454=VERTEX_POINT('',#556);
#455=LINE('',#557,#558);
#456=LINE('',#559,#560);
#457=FILL_AREA_STYLE_COLOUR('',#561);
#458=VERTEX_POINT('',#562);
#459=LINE('',#563,#564);
#460=VERTEX_POINT('',#565);
#461=LINE('',#566,#567);
#462=LINE('',#568,#569);
#463=CIRCLE('',#570,10.5);
#464=FILL_AREA_STYLE_COLOUR('',#571);
#465=CIRCLE('',#572,10.5);
#466=FILL_AREA_STYLE_COLOUR('',#573);
#467=VERTEX_POINT('',#574);
#468=VERTEX_POINT('',#575);
#469=LINE('',#576,#577);
#470=VERTEX_POINT('',#578);
#471=LINE('',#579,#580);
#472=VERTEX_POINT('',#581);
#473=LINE('',#582,#583);
#474=LINE('',#584,#585);
#475=FILL_AREA_STYLE_COLOUR('',#586);
#476=FILL_AREA_STYLE_COLOUR('',#587);
#477=VERTEX_POINT('',#588);
#478=LINE('',#589,#590);
#479=VERTEX_POINT('',#591);
#480=LINE('',#592,#593);
#481=LINE('',#594,#595);
#482=FILL_AREA_STYLE_COLOUR('',#596);
#483=LINE('',#597,#598);
#484=LINE('',#599,#600);
#485=VERTEX_POINT('',#601);
#486=LINE('',#602,#603);
#487=LINE('',#604,#605);
#488=FILL_AREA_STYLE_COLOUR('',#606);
#489=LINE('',#607,#608);
#490=FILL_AREA_STYLE_COLOUR('',#609);
#491=LINE('',#610,#611);
#492=FILL_AREA_STYLE_COLOUR('',#612);
#493=FILL_AREA_STYLE_COLOUR('',#613);
#494=VERTEX_POINT('',#614);
#495=LINE('',#615,#616);
#496=LINE('',#617,#618);
#497=FILL_AREA_STYLE_COLOUR('',#619);
#498=LINE('',#620,#621);
#499=FILL_AREA_STYLE_COLOUR('',#622);
#500=COLOUR_RGB('',0.509803950786591,0.509803950786591,0.588235318660736);
#501=CARTESIAN_POINT('',(-1.87074519221508E-015,10.5,17.1339745962156));
#502=CARTESIAN_POINT('',(-2.13799450538866E-015,12.0,18.0));
#503=CARTESIAN_POINT('',(-1.99333266310806E-015,11.1880511839521,17.5312211324865));
#504=VECTOR('',#623,1.0);
#505=CARTESIAN_POINT('',(10.5,1.03273803061746E-014,17.1339745962156));
#506=AXIS2_PLACEMENT_3D('',#624,#625,#626);
#507=CARTESIAN_POINT('',(1.87074519221508E-015,-10.5,17.1339745962156));
#508=AXIS2_PLACEMENT_3D('',#627,#628,#629);
#509=CARTESIAN_POINT('',(2.13799450538866E-015,-12.0,18.0));
#510=CARTESIAN_POINT('',(1.99333266310806E-015,-11.1880511839521,17.5312211324865));
#511=VECTOR('',#630,1.0);
#512=CARTESIAN_POINT('',(12.0,1.03273803061746E-014,18.0));
#513=AXIS2_PLACEMENT_3D('',#631,#632,#633);
#514=AXIS2_PLACEMENT_3D('',#634,#635,#636);
#515=COLOUR_RGB('',0.509803950786591,0.509803950786591,0.588235318660736);
#516=CARTESIAN_POINT('',(22.0,2.48385283925134,-14.0));
#517=CARTESIAN_POINT('',(18.0,-1.51614716074869,-18.0));
#518=CARTESIAN_POINT('',(4.91935786012477,-14.5967893006239,-31.0806421398752));
#519=VECTOR('',#637,1.0);
#520=CARTESIAN_POINT('',(18.0,37.5161471607487,-18.0));
#521=CARTESIAN_POINT('',(18.0,8.12308886929431E-015,-18.0));
#522=VECTOR('',#638,1.0);
#523=CARTESIAN_POINT('',(22.0,41.5161471607487,-14.0));
#524=CARTESIAN_POINT('',(13.0806421398752,32.5967893006239,-22.9193578601248));
#525=VECTOR('',#639,1.0);
#526=CARTESIAN_POINT('',(22.0,8.36801014005879E-015,-14.0));
#527=VECTOR('',#640,1.0);
#528=COLOUR_RGB('',0.509803950786591,0.509803950786591,0.588235318660736);
#529=CARTESIAN_POINT('',(10.5,0.0,-18.0));
#530=CARTESIAN_POINT('',(10.5,1.2858366715135E-015,-0.433012701892235));
#531=VECTOR('',#641,1.0);
#532=CARTESIAN_POINT('',(-10.5,-1.2858366715135E-015,17.1339745962156));
#533=AXIS2_PLACEMENT_3D('',#642,#643,#644);
#534=CARTESIAN_POINT('',(-10.5,-1.2858366715135E-015,-18.0));
#535=CARTESIAN_POINT('',(-10.5,-1.2858366715135E-015,-0.433012701892235));
#536=VECTOR('',#645,1.0);
#537=AXIS2_PLACEMENT_3D('',#646,#647,#648);
#538=COLOUR_RGB('',0.509803950786591,0.509803950786591,0.588235318660736);
#539=AXIS2_PLACEMENT_3D('',#649,#650,#651);
#540=CARTESIAN_POINT('',(13.8,33.3161471607487,18.0));
#541=CARTESIAN_POINT('',(13.8,-5.71614716074865,18.0));
#542=CARTESIAN_POINT('',(13.8,1.03273803061746E-014,18.0));
#543=VECTOR('',#652,1.0);
#544=CARTESIAN_POINT('',(-13.8,5.71614716074868,18.0));
#545=CARTESIAN_POINT('',(9.57096320981284,29.0871103705616,18.0));
#546=VECTOR('',#653,1.0);
#547=CARTESIAN_POINT('',(-13.8,-33.3161471607487,18.0));
#548=CARTESIAN_POINT('',(-13.8,1.03273803061746E-014,18.0));
#549=VECTOR('',#654,1.0);
#550=CARTESIAN_POINT('',(-9.57096320981283,-29.0871103705615,18.0));
#551=VECTOR('',#655,1.0);
#552=COLOUR_RGB('',0.509803950786591,0.509803950786591,0.588235318660736);
#553=CARTESIAN_POINT('',(-13.8,-33.3161471607487,2.03995827489671E-015));
#554=CARTESIAN_POINT('',(-13.8,-33.3161471607487,-8.99999999999999));
#555=VECTOR('',#656,1.0);
#556=CARTESIAN_POINT('',(-13.8,5.71614716074868,-3.50001506621828E-016));
#557=CARTESIAN_POINT('',(-13.8,5.71614716074868,1.4210854715202E-014));
#558=VECTOR('',#657,1.0);
#559=CARTESIAN_POINT('',(-13.8,9.22523458773445E-015,0.0));
#560=VECTOR('',#658,1.0);
#561=COLOUR_RGB('',0.509803950786591,0.509803950786591,0.588235318660736);
#562=CARTESIAN_POINT('',(-17.9999999999999,-37.5161471607486,-18.0));
#563=CARTESIAN_POINT('',(-1.62096320981284,-21.1371103705615,-18.0));
#564=VECTOR('',#659,1.0);
#565=CARTESIAN_POINT('',(-17.9999999999999,1.51614716074875,-18.0));
#566=CARTESIAN_POINT('',(-17.9999999999999,8.12308886929431E-015,-18.0));
#567=VECTOR('',#660,1.0);
#568=CARTESIAN_POINT('',(1.62096320981287,21.1371103705616,-18.0));
#569=VECTOR('',#661,1.0);
#570=AXIS2_PLACEMENT_3D('',#662,#663,#664);
#571=COLOUR_RGB('',0.509803950786591,0.509803950786591,0.588235318660736);
#572=AXIS2_PLACEMENT_3D('',#665,#666,#667);
#573=COLOUR_RGB('',0.509803950786591,0.509803950786591,0.588235318660736);
#574=CARTESIAN_POINT('',(-22.0,-2.48385283925131,1.52087098445346E-016));
#575=CARTESIAN_POINT('',(-22.0,-2.48385283925128,-14.0));
#576=CARTESIAN_POINT('',(-22.0,-2.48385283925131,-16.0));
#577=VECTOR('',#668,1.0);
#578=CARTESIAN_POINT('',(-22.0,-41.5161471607487,-14.0));
#579=CARTESIAN_POINT('',(-22.0,8.36801014005879E-015,-14.0));
#580=VECTOR('',#669,1.0);
#581=CARTESIAN_POINT('',(-22.0,-41.5161471607487,2.54204687996388E-015));
#582=CARTESIAN_POINT('',(-22.0,-41.5161471607487,-16.0));
#583=VECTOR('',#670,1.0);
#584=CARTESIAN_POINT('',(-22.0,9.22523458773445E-015,0.0));
#585=VECTOR('',#671,1.0);
#586=COLOUR_RGB('',0.509803950786591,0.509803950786591,0.588235318660736);
#587=COLOUR_RGB('',0.509803950786591,0.509803950786591,0.588235318660736);
#588=CARTESIAN_POINT('',(22.0,41.5161471607487,2.48689957516035E-014));
#589=CARTESIAN_POINT('',(22.0,41.5161471607487,-16.0));
#590=VECTOR('',#672,1.0);
#591=CARTESIAN_POINT('',(22.0,2.48385283925134,2.8421709430404E-014));
#592=CARTESIAN_POINT('',(22.0,9.22523458773445E-015,2.8421709430404E-014));
#593=VECTOR('',#673,1.0);
#594=CARTESIAN_POINT('',(22.0,2.48385283925134,-16.0));
#595=VECTOR('',#674,1.0);
#596=COLOUR_RGB('',0.509803950786591,0.509803950786591,0.588235318660736);
#597=CARTESIAN_POINT('',(-11.6209632098128,-31.1371103705615,3.5527136788005E-015));
#598=VECTOR('',#675,1.0);
#599=CARTESIAN_POINT('',(-13.0806421398751,-32.5967893006238,-22.9193578601247));
#600=VECTOR('',#676,1.0);
#601=CARTESIAN_POINT('',(13.8,-5.71614716074865,2.87717109370258E-014));
#602=CARTESIAN_POINT('',(-0.620963209812834,-20.1371103705615,3.19744231092045E-014));
#603=VECTOR('',#677,1.0);
#604=CARTESIAN_POINT('',(13.8,-5.71614716074865,1.4210854715202E-014));
#605=VECTOR('',#678,1.0);
#606=COLOUR_RGB('',0.509803950786591,0.509803950786591,0.588235318660736);
#607=CARTESIAN_POINT('',(-6.25269119345796,13.2634559672907,-29.7473088065418));
#608=VECTOR('',#679,1.0);
#609=COLOUR_RGB('',0.509803950786591,0.509803950786591,0.588235318660736);
#610=CARTESIAN_POINT('',(0.620963209812844,20.1371103705615,0.0));
#611=VECTOR('',#680,1.0);
#612=COLOUR_RGB('',0.509803950786591,0.509803950786591,0.588235318660736);
#613=COLOUR_RGB('',0.509803950786591,0.509803950786591,0.588235318660736);
#614=CARTESIAN_POINT('',(13.8,33.3161471607487,2.63817511555073E-014));
#615=CARTESIAN_POINT('',(13.8,9.22523458773445E-015,2.8421709430404E-014));
#616=VECTOR('',#681,1.0);
#617=CARTESIAN_POINT('',(13.8,33.3161471607487,-8.99999999999997));
#618=VECTOR('',#682,1.0);
#619=COLOUR_RGB('',0.509803950786591,0.509803950786591,0.588235318660736);
#620=CARTESIAN_POINT('',(11.6209632098128,31.1371103705615,2.8421709430404E-014));
#621=VECTOR('',#683,1.0);
#622=COLOUR_RGB('',0.509803950786591,0.509803950786591,0.588235318660736);
#623=DIRECTION('',(-1.54296462901511E-016,0.866025403784439,0.5));
#624=CARTESIAN_POINT('',(0.0,0.0,17.1339745962156));
#625=DIRECTION('',(0.0,0.0,1.0));
#626=DIRECTION('',(1.0,0.0,0.0));
#627=CARTESIAN_POINT('',(0.0,0.0,17.1339745962156));
#628=DIRECTION('',(0.0,0.0,1.0));
#629=DIRECTION('',(1.0,0.0,0.0));
#630=DIRECTION('',(-1.54296462901511E-016,0.866025403784439,-0.5));
#631=CARTESIAN_POINT('',(0.0,1.03273803061746E-014,18.0));
#632=DIRECTION('',(-1.35717052501348E-049,-6.12303176911189E-017,-1.0));
#633=DIRECTION('',(-5.57055734001507E-017,1.0,-6.12303176911189E-017));
#634=CARTESIAN_POINT('',(0.0,1.03273803061746E-014,18.0));
#635=DIRECTION('',(-1.35717052501348E-049,-6.12303176911189E-017,-1.0));
#636=DIRECTION('',(-5.57055734001507E-017,1.0,-6.12303176911189E-017));
#637=DIRECTION('',(-0.577350269189626,-0.577350269189626,-0.577350269189626));
#638=DIRECTION('',(0.0,-1.0,6.12303176911189E-017));
#639=DIRECTION('',(0.577350269189626,0.577350269189626,0.577350269189626));
#640=DIRECTION('',(0.0,1.0,-6.12303176911189E-017));
#641=DIRECTION('',(-0.0,-0.0,1.0));
#642=CARTESIAN_POINT('',(0.0,0.0,17.1339745962156));
#643=DIRECTION('',(0.0,0.0,1.0));
#644=DIRECTION('',(1.0,0.0,0.0));
#645=DIRECTION('',(-0.0,-0.0,-1.0));
#646=CARTESIAN_POINT('',(0.0,0.0,-18.0));
#647=DIRECTION('',(-0.0,6.12303176911189E-017,1.0));
#648=DIRECTION('',(1.0,0.0,0.0));
#649=CARTESIAN_POINT('',(0.0,1.03273803061746E-014,18.0));
#650=DIRECTION('',(-1.35717052501348E-049,-6.12303176911189E-017,-1.0));
#651=DIRECTION('',(-5.57055734001507E-017,1.0,-6.12303176911189E-017));
#652=DIRECTION('',(0.0,-1.0,6.12303176911189E-017));
#653=DIRECTION('',(-0.707106781186547,-0.707106781186548,4.32963728535968E-017));
#654=DIRECTION('',(0.0,-1.0,6.12303176911189E-017));
#655=DIRECTION('',(0.707106781186547,0.707106781186548,-4.32963728535968E-017));
#656=DIRECTION('',(0.0,0.0,1.0));
#657=DIRECTION('',(0.0,0.0,-1.0));
#658=DIRECTION('',(0.0,-1.0,6.12303176911189E-017));
#659=DIRECTION('',(-0.707106781186547,-0.707106781186548,4.32963728535968E-017));
#660=DIRECTION('',(0.0,-1.0,6.12303176911189E-017));
#661=DIRECTION('',(0.707106781186547,0.707106781186548,-4.32963728535968E-017));
#662=CARTESIAN_POINT('',(0.0,0.0,-18.0));
#663=DIRECTION('',(-0.0,6.12303176911189E-017,1.0));
#664=DIRECTION('',(1.0,0.0,0.0));
#665=CARTESIAN_POINT('',(0.0,0.0,17.1339745962156));
#666=DIRECTION('',(0.0,0.0,1.0));
#667=DIRECTION('',(1.0,0.0,0.0));
#668=DIRECTION('',(0.0,0.0,-1.0));
#669=DIRECTION('',(0.0,-1.0,6.12303176911189E-017));
#670=DIRECTION('',(0.0,0.0,1.0));
#671=DIRECTION('',(0.0,-1.0,6.12303176911189E-017));
#672=DIRECTION('',(0.0,0.0,1.0));
#673=DIRECTION('',(0.0,1.0,-6.12303176911189E-017));
#674=DIRECTION('',(0.0,0.0,-1.0));
#675=DIRECTION('',(0.707106781186547,0.707106781186548,-4.32963728535968E-017));
#676=DIRECTION('',(-0.577350269189628,-0.577350269189629,0.57735026918962));
#677=DIRECTION('',(0.707106781186547,0.707106781186548,-4.32963728535968E-017));
#678=DIRECTION('',(0.0,0.0,-1.0));
#679=DIRECTION('',(0.577350269189628,0.577350269189629,-0.57735026918962));
#680=DIRECTION('',(-0.707106781186547,-0.707106781186548,4.32963728535968E-017));
#681=DIRECTION('',(0.0,-1.0,6.12303176911189E-017));
#682=DIRECTION('',(0.0,0.0,1.0));
#683=DIRECTION('',(-0.707106781186547,-0.707106781186548,4.32963728535968E-017));
ENDSEC;
END-ISO-10303-21;
