ISO-10303-21;
HEADER;
FILE_DESCRIPTION(('STEP AP214'),'1');
FILE_NAME('C:/temp/halder/09_10_2014/CAD/Temp/HALDERN_EH_23020_0600.stp','2014-10-09T11:17:38',('TraceParts'),('TraceParts S.A.'),'Spatial InterOp 3D',' ',' ');
FILE_SCHEMA(('automotive_design'));
ENDSEC;
DATA;
#1=MECHANICAL_DESIGN_GEOMETRIC_PRESENTATION_REPRESENTATION(' ',(#10,#11,#12,#13,#14,#15,#16,#17,#18,#19,#20,#21,#22,#23,#24,#25,#26),#6);
#2=PRODUCT_DEFINITION_CONTEXT('',#27,'design');
#3=APPLICATION_PROTOCOL_DEFINITION('INTERNATIONAL STANDARD','automotive_design',1994,#27);
#4=PRODUCT_CATEGORY_RELATIONSHIP('NONE','NONE',#28,#29);
#5=SHAPE_DEFINITION_REPRESENTATION(#30,#31);
#6= (GEOMETRIC_REPRESENTATION_CONTEXT(3)GLOBAL_UNCERTAINTY_ASSIGNED_CONTEXT((#34))GLOBAL_UNIT_ASSIGNED_CONTEXT((#36,#37,#38))REPRESENTATION_CONTEXT('NONE','WORKSPACE'));
#10=STYLED_ITEM('',(#40),#41);
#11=STYLED_ITEM('',(#42),#43);
#12=STYLED_ITEM('',(#44),#45);
#13=STYLED_ITEM('',(#46),#47);
#14=STYLED_ITEM('',(#48),#49);
#15=STYLED_ITEM('',(#50),#51);
#16=STYLED_ITEM('',(#52),#53);
#17=STYLED_ITEM('',(#54),#55);
#18=STYLED_ITEM('',(#56),#57);
#19=STYLED_ITEM('',(#58),#59);
#20=STYLED_ITEM('',(#60),#61);
#21=STYLED_ITEM('',(#62),#63);
#22=STYLED_ITEM('',(#64),#65);
#23=STYLED_ITEM('',(#66),#67);
#24=STYLED_ITEM('',(#68),#69);
#25=STYLED_ITEM('',(#70),#71);
#26=STYLED_ITEM('',(#72),#73);
#27=APPLICATION_CONTEXT(' ');
#28=PRODUCT_CATEGORY('part','NONE');
#29=PRODUCT_RELATED_PRODUCT_CATEGORY('detail',' ',(#74));
#30=PRODUCT_DEFINITION_SHAPE('NONE','NONE',#75);
#31=ADVANCED_BREP_SHAPE_REPRESENTATION('1',(#61,#76),#6);
#34=UNCERTAINTY_MEASURE_WITH_UNIT(LENGTH_MEASURE(1.0E-006),#36,'','');
#36= (CONVERSION_BASED_UNIT('MILLIMETRE',#79)LENGTH_UNIT()NAMED_UNIT(#82));
#37= (NAMED_UNIT(#84)PLANE_ANGLE_UNIT()SI_UNIT($,.RADIAN.));
#38= (NAMED_UNIT(#84)SOLID_ANGLE_UNIT()SI_UNIT($,.STERADIAN.));
#40=PRESENTATION_STYLE_ASSIGNMENT((#90));
#41=ADVANCED_FACE('',(#91),#92,.T.);
#42=PRESENTATION_STYLE_ASSIGNMENT((#93));
#43=ADVANCED_FACE('',(#94),#95,.T.);
#44=PRESENTATION_STYLE_ASSIGNMENT((#96));
#45=ADVANCED_FACE('',(#97),#98,.T.);
#46=PRESENTATION_STYLE_ASSIGNMENT((#99));
#47=ADVANCED_FACE('',(#100,#101),#102,.T.);
#48=PRESENTATION_STYLE_ASSIGNMENT((#103));
#49=ADVANCED_FACE('',(#104,#105),#106,.T.);
#50=PRESENTATION_STYLE_ASSIGNMENT((#107));
#51=ADVANCED_FACE('',(#108),#109,.T.);
#52=PRESENTATION_STYLE_ASSIGNMENT((#110));
#53=ADVANCED_FACE('',(#111),#112,.T.);
#54=PRESENTATION_STYLE_ASSIGNMENT((#113));
#55=ADVANCED_FACE('',(#114),#115,.T.);
#56=PRESENTATION_STYLE_ASSIGNMENT((#116));
#57=ADVANCED_FACE('',(#117),#118,.F.);
#58=PRESENTATION_STYLE_ASSIGNMENT((#119));
#59=ADVANCED_FACE('',(#120),#121,.F.);
#60=PRESENTATION_STYLE_ASSIGNMENT((#122));
#61=MANIFOLD_SOLID_BREP('1',#123);
#62=PRESENTATION_STYLE_ASSIGNMENT((#124));
#63=ADVANCED_FACE('',(#125),#126,.F.);
#64=PRESENTATION_STYLE_ASSIGNMENT((#127));
#65=ADVANCED_FACE('',(#128),#129,.F.);
#66=PRESENTATION_STYLE_ASSIGNMENT((#130));
#67=ADVANCED_FACE('',(#131),#132,.T.);
#68=PRESENTATION_STYLE_ASSIGNMENT((#133));
#69=ADVANCED_FACE('',(#134),#135,.T.);
#70=PRESENTATION_STYLE_ASSIGNMENT((#136));
#71=ADVANCED_FACE('',(#137),#138,.F.);
#72=PRESENTATION_STYLE_ASSIGNMENT((#139));
#73=ADVANCED_FACE('',(#140),#141,.F.);
#74=PRODUCT('1','1','PART-1-DESC',(#142));
#75=PRODUCT_DEFINITION('NONE','NONE',#143,#2);
#76=AXIS2_PLACEMENT_3D('',#144,#145,#146);
#79=LENGTH_MEASURE_WITH_UNIT(LENGTH_MEASURE(1.0),#147);
#82=DIMENSIONAL_EXPONENTS(1.0,0.0,0.0,0.0,0.0,0.0,0.0);
#84=DIMENSIONAL_EXPONENTS(0.0,0.0,0.0,0.0,0.0,0.0,0.0);
#90=SURFACE_STYLE_USAGE(.BOTH.,#148);
#91=FACE_OUTER_BOUND('',#149,.T.);
#92=PLANE('',#150);
#93=SURFACE_STYLE_USAGE(.BOTH.,#151);
#94=FACE_OUTER_BOUND('',#152,.T.);
#95=PLANE('',#153);
#96=SURFACE_STYLE_USAGE(.BOTH.,#154);
#97=FACE_OUTER_BOUND('',#155,.T.);
#98=PLANE('',#156);
#99=SURFACE_STYLE_USAGE(.BOTH.,#157);
#100=FACE_BOUND('',#158,.T.);
#101=FACE_OUTER_BOUND('',#159,.T.);
#102=PLANE('',#160);
#103=SURFACE_STYLE_USAGE(.BOTH.,#161);
#104=FACE_OUTER_BOUND('',#162,.T.);
#105=FACE_BOUND('',#163,.T.);
#106=PLANE('',#164);
#107=SURFACE_STYLE_USAGE(.BOTH.,#165);
#108=FACE_OUTER_BOUND('',#166,.T.);
#109=PLANE('',#167);
#110=SURFACE_STYLE_USAGE(.BOTH.,#168);
#111=FACE_OUTER_BOUND('',#169,.T.);
#112=PLANE('',#170);
#113=SURFACE_STYLE_USAGE(.BOTH.,#171);
#114=FACE_OUTER_BOUND('',#172,.T.);
#115=PLANE('',#173);
#116=SURFACE_STYLE_USAGE(.BOTH.,#174);
#117=FACE_OUTER_BOUND('',#175,.T.);
#118=CYLINDRICAL_SURFACE('',#176,3.40000000000001);
#119=SURFACE_STYLE_USAGE(.BOTH.,#177);
#120=FACE_OUTER_BOUND('',#178,.T.);
#121=CONICAL_SURFACE('',#179,3.6616588266467,1.0471975511966);
#122=SURFACE_STYLE_USAGE(.BOTH.,#180);
#123=CLOSED_SHELL('',(#57,#59,#41,#63,#71,#45,#69,#47,#43,#55,#65,#73,#49,#53,#51,#67));
#124=SURFACE_STYLE_USAGE(.BOTH.,#181);
#125=FACE_OUTER_BOUND('',#182,.T.);
#126=PLANE('',#183);
#127=SURFACE_STYLE_USAGE(.BOTH.,#184);
#128=FACE_OUTER_BOUND('',#185,.T.);
#129=CONICAL_SURFACE('',#186,3.6616588266467,1.0471975511966);
#130=SURFACE_STYLE_USAGE(.BOTH.,#187);
#131=FACE_OUTER_BOUND('',#188,.T.);
#132=PLANE('',#189);
#133=SURFACE_STYLE_USAGE(.BOTH.,#190);
#134=FACE_OUTER_BOUND('',#191,.T.);
#135=PLANE('',#192);
#136=SURFACE_STYLE_USAGE(.BOTH.,#193);
#137=FACE_OUTER_BOUND('',#194,.T.);
#138=PLANE('',#195);
#139=SURFACE_STYLE_USAGE(.BOTH.,#196);
#140=FACE_OUTER_BOUND('',#197,.T.);
#141=CYLINDRICAL_SURFACE('',#198,3.40000000000001);
#142=PRODUCT_CONTEXT('',#27,'mechanical');
#143=PRODUCT_DEFINITION_FORMATION_WITH_SPECIFIED_SOURCE(' ','NONE',#74,.NOT_KNOWN.);
#144=CARTESIAN_POINT('',(0.0,0.0,0.0));
#145=DIRECTION('',(0.0,0.0,1.0));
#146=DIRECTION('',(1.0,0.0,0.0));
#147= (NAMED_UNIT(#82)LENGTH_UNIT()SI_UNIT(.MILLI.,.METRE.));
#148=SURFACE_SIDE_STYLE('',(#200));
#149=EDGE_LOOP('',(#201,#202,#203,#204));
#150=AXIS2_PLACEMENT_3D('',#205,#206,#207);
#151=SURFACE_SIDE_STYLE('',(#208));
#152=EDGE_LOOP('',(#209,#210,#211,#212));
#153=AXIS2_PLACEMENT_3D('',#213,#214,#215);
#154=SURFACE_SIDE_STYLE('',(#216));
#155=EDGE_LOOP('',(#217,#218,#219,#220));
#156=AXIS2_PLACEMENT_3D('',#221,#222,#223);
#157=SURFACE_SIDE_STYLE('',(#224));
#158=EDGE_LOOP('',(#225,#226,#227));
#159=EDGE_LOOP('',(#228,#229,#230,#231));
#160=AXIS2_PLACEMENT_3D('',#232,#233,#234);
#161=SURFACE_SIDE_STYLE('',(#235));
#162=EDGE_LOOP('',(#236,#237,#238,#239));
#163=EDGE_LOOP('',(#240,#241));
#164=AXIS2_PLACEMENT_3D('',#242,#243,#244);
#165=SURFACE_SIDE_STYLE('',(#245));
#166=EDGE_LOOP('',(#246,#247,#248,#249));
#167=AXIS2_PLACEMENT_3D('',#250,#251,#252);
#168=SURFACE_SIDE_STYLE('',(#253));
#169=EDGE_LOOP('',(#254,#255,#256,#257));
#170=AXIS2_PLACEMENT_3D('',#258,#259,#260);
#171=SURFACE_SIDE_STYLE('',(#261));
#172=EDGE_LOOP('',(#262,#263,#264,#265));
#173=AXIS2_PLACEMENT_3D('',#266,#267,#268);
#174=SURFACE_SIDE_STYLE('',(#269));
#175=EDGE_LOOP('',(#270,#271,#272,#273,#274));
#176=AXIS2_PLACEMENT_3D('',#275,#276,#277);
#177=SURFACE_SIDE_STYLE('',(#278));
#178=EDGE_LOOP('',(#279,#280,#281,#282,#283,#284));
#179=AXIS2_PLACEMENT_3D('',#285,#286,#287);
#180=SURFACE_SIDE_STYLE('',(#288));
#181=SURFACE_SIDE_STYLE('',(#289));
#182=EDGE_LOOP('',(#290,#291,#292,#293,#294,#295,#296,#297,#298,#299));
#183=AXIS2_PLACEMENT_3D('',#300,#301,#302);
#184=SURFACE_SIDE_STYLE('',(#303));
#185=EDGE_LOOP('',(#304,#305,#306,#307,#308));
#186=AXIS2_PLACEMENT_3D('',#309,#310,#311);
#187=SURFACE_SIDE_STYLE('',(#312));
#188=EDGE_LOOP('',(#313,#314,#315,#316));
#189=AXIS2_PLACEMENT_3D('',#317,#318,#319);
#190=SURFACE_SIDE_STYLE('',(#320));
#191=EDGE_LOOP('',(#321,#322,#323,#324));
#192=AXIS2_PLACEMENT_3D('',#325,#326,#327);
#193=SURFACE_SIDE_STYLE('',(#328));
#194=EDGE_LOOP('',(#329,#330,#331,#332,#333,#334,#335,#336,#337,#338));
#195=AXIS2_PLACEMENT_3D('',#339,#340,#341);
#196=SURFACE_SIDE_STYLE('',(#342));
#197=EDGE_LOOP('',(#343,#344,#345,#346,#347));
#198=AXIS2_PLACEMENT_3D('',#348,#349,#350);
#200=SURFACE_STYLE_FILL_AREA(#351);
#201=ORIENTED_EDGE('',*,*,#352,.T.);
#202=ORIENTED_EDGE('',*,*,#353,.F.);
#203=ORIENTED_EDGE('',*,*,#354,.T.);
#204=ORIENTED_EDGE('',*,*,#355,.T.);
#205=CARTESIAN_POINT('',(7.5,8.95582118989353E-015,-4.40000000000001));
#206=DIRECTION('',(1.0,0.0,0.0));
#207=DIRECTION('',(0.0,1.0,-6.12303176911189E-017));
#208=SURFACE_STYLE_FILL_AREA(#356);
#209=ORIENTED_EDGE('',*,*,#357,.T.);
#210=ORIENTED_EDGE('',*,*,#358,.F.);
#211=ORIENTED_EDGE('',*,*,#359,.T.);
#212=ORIENTED_EDGE('',*,*,#360,.T.);
#213=CARTESIAN_POINT('',(4.80000000000001,9.59261649388117E-015,6.0));
#214=DIRECTION('',(1.0,0.0,0.0));
#215=DIRECTION('',(0.0,1.0,-6.12303176911189E-017));
#216=SURFACE_STYLE_FILL_AREA(#361);
#217=ORIENTED_EDGE('',*,*,#362,.T.);
#218=ORIENTED_EDGE('',*,*,#363,.T.);
#219=ORIENTED_EDGE('',*,*,#364,.T.);
#220=ORIENTED_EDGE('',*,*,#365,.F.);
#221=CARTESIAN_POINT('',(-7.5,9.22523458773445E-015,0.0));
#222=DIRECTION('',(0.0,6.12303176911189E-017,1.0));
#223=DIRECTION('',(0.0,-1.0,6.12303176911189E-017));
#224=SURFACE_STYLE_FILL_AREA(#366);
#225=ORIENTED_EDGE('',*,*,#367,.T.);
#226=ORIENTED_EDGE('',*,*,#368,.T.);
#227=ORIENTED_EDGE('',*,*,#369,.T.);
#228=ORIENTED_EDGE('',*,*,#360,.F.);
#229=ORIENTED_EDGE('',*,*,#370,.T.);
#230=ORIENTED_EDGE('',*,*,#371,.T.);
#231=ORIENTED_EDGE('',*,*,#372,.T.);
#232=CARTESIAN_POINT('',(-4.80000000000001,9.59261649388117E-015,6.0));
#233=DIRECTION('',(0.0,6.12303176911189E-017,1.0));
#234=DIRECTION('',(0.0,-1.0,6.12303176911189E-017));
#235=SURFACE_STYLE_FILL_AREA(#373);
#236=ORIENTED_EDGE('',*,*,#374,.T.);
#237=ORIENTED_EDGE('',*,*,#375,.T.);
#238=ORIENTED_EDGE('',*,*,#376,.F.);
#239=ORIENTED_EDGE('',*,*,#377,.T.);
#240=ORIENTED_EDGE('',*,*,#378,.T.);
#241=ORIENTED_EDGE('',*,*,#379,.T.);
#242=CARTESIAN_POINT('',(5.90000000000001,8.85785268158774E-015,-6.0));
#243=DIRECTION('',(0.0,-6.12303176911189E-017,-1.0));
#244=DIRECTION('',(0.0,1.0,-6.12303176911189E-017));
#245=SURFACE_STYLE_FILL_AREA(#380);
#246=ORIENTED_EDGE('',*,*,#381,.T.);
#247=ORIENTED_EDGE('',*,*,#376,.T.);
#248=ORIENTED_EDGE('',*,*,#382,.T.);
#249=ORIENTED_EDGE('',*,*,#383,.F.);
#250=CARTESIAN_POINT('',(-5.89999999999998,8.85785268158774E-015,-6.0));
#251=DIRECTION('',(-0.707106781186541,-4.32963728535972E-017,-0.707106781186554));
#252=DIRECTION('',(-6.59640341199366E-035,-1.0,6.12303176911189E-017));
#253=SURFACE_STYLE_FILL_AREA(#384);
#254=ORIENTED_EDGE('',*,*,#385,.T.);
#255=ORIENTED_EDGE('',*,*,#374,.F.);
#256=ORIENTED_EDGE('',*,*,#386,.T.);
#257=ORIENTED_EDGE('',*,*,#355,.F.);
#258=CARTESIAN_POINT('',(7.5,8.95582118989353E-015,-4.40000000000001));
#259=DIRECTION('',(0.707106781186548,-4.32963728535968E-017,-0.707106781186548));
#260=DIRECTION('',(-1.07031965039769E-033,1.0,-6.12303176911189E-017));
#261=SURFACE_STYLE_FILL_AREA(#387);
#262=ORIENTED_EDGE('',*,*,#388,.T.);
#263=ORIENTED_EDGE('',*,*,#353,.T.);
#264=ORIENTED_EDGE('',*,*,#389,.T.);
#265=ORIENTED_EDGE('',*,*,#358,.T.);
#266=CARTESIAN_POINT('',(4.80000000000001,9.22523458773445E-015,0.0));
#267=DIRECTION('',(0.0,6.12303176911189E-017,1.0));
#268=DIRECTION('',(0.0,-1.0,6.12303176911189E-017));
#269=SURFACE_STYLE_FILL_AREA(#390);
#270=ORIENTED_EDGE('',*,*,#391,.F.);
#271=ORIENTED_EDGE('',*,*,#379,.F.);
#272=ORIENTED_EDGE('',*,*,#392,.F.);
#273=ORIENTED_EDGE('',*,*,#393,.T.);
#274=ORIENTED_EDGE('',*,*,#394,.T.);
#275=CARTESIAN_POINT('',(0.0,0.0,6.00000000000003));
#276=DIRECTION('',(0.0,0.0,-1.0));
#277=DIRECTION('',(1.0,0.0,0.0));
#278=SURFACE_STYLE_FILL_AREA(#395);
#279=ORIENTED_EDGE('',*,*,#396,.F.);
#280=ORIENTED_EDGE('',*,*,#397,.F.);
#281=ORIENTED_EDGE('',*,*,#394,.F.);
#282=ORIENTED_EDGE('',*,*,#398,.F.);
#283=ORIENTED_EDGE('',*,*,#367,.F.);
#284=ORIENTED_EDGE('',*,*,#369,.F.);
#285=CARTESIAN_POINT('',(0.0,9.59261649388117E-015,5.80465863248654));
#286=DIRECTION('',(-0.0,-0.0,1.0));
#287=DIRECTION('',(-5.40428548579746E-017,1.0,0.0));
#288=SURFACE_STYLE_FILL_AREA(#399);
#289=SURFACE_STYLE_FILL_AREA(#400);
#290=ORIENTED_EDGE('',*,*,#381,.F.);
#291=ORIENTED_EDGE('',*,*,#401,.F.);
#292=ORIENTED_EDGE('',*,*,#362,.F.);
#293=ORIENTED_EDGE('',*,*,#402,.F.);
#294=ORIENTED_EDGE('',*,*,#370,.F.);
#295=ORIENTED_EDGE('',*,*,#359,.F.);
#296=ORIENTED_EDGE('',*,*,#389,.F.);
#297=ORIENTED_EDGE('',*,*,#352,.F.);
#298=ORIENTED_EDGE('',*,*,#386,.F.);
#299=ORIENTED_EDGE('',*,*,#377,.F.);
#300=CARTESIAN_POINT('',(7.5,14.2882250993909,-5.99999999999997));
#301=DIRECTION('',(0.707106781186548,-0.707106781186547,0.0));
#302=DIRECTION('',(0.0,0.0,-1.0));
#303=SURFACE_STYLE_FILL_AREA(#403);
#304=ORIENTED_EDGE('',*,*,#396,.T.);
#305=ORIENTED_EDGE('',*,*,#368,.F.);
#306=ORIENTED_EDGE('',*,*,#398,.T.);
#307=ORIENTED_EDGE('',*,*,#393,.F.);
#308=ORIENTED_EDGE('',*,*,#404,.F.);
#309=CARTESIAN_POINT('',(0.0,9.59261649388117E-015,5.80465863248654));
#310=DIRECTION('',(-0.0,-0.0,1.0));
#311=DIRECTION('',(-5.40428548579746E-017,1.0,0.0));
#312=SURFACE_STYLE_FILL_AREA(#405);
#313=ORIENTED_EDGE('',*,*,#401,.T.);
#314=ORIENTED_EDGE('',*,*,#383,.T.);
#315=ORIENTED_EDGE('',*,*,#406,.T.);
#316=ORIENTED_EDGE('',*,*,#363,.F.);
#317=CARTESIAN_POINT('',(-7.5,8.95582118989353E-015,-4.40000000000001));
#318=DIRECTION('',(-1.0,0.0,0.0));
#319=DIRECTION('',(0.0,-1.0,6.12303176911189E-017));
#320=SURFACE_STYLE_FILL_AREA(#407);
#321=ORIENTED_EDGE('',*,*,#408,.T.);
#322=ORIENTED_EDGE('',*,*,#371,.F.);
#323=ORIENTED_EDGE('',*,*,#402,.T.);
#324=ORIENTED_EDGE('',*,*,#365,.T.);
#325=CARTESIAN_POINT('',(-4.80000000000001,9.22523458773445E-015,0.0));
#326=DIRECTION('',(-1.0,0.0,0.0));
#327=DIRECTION('',(0.0,-1.0,6.12303176911189E-017));
#328=SURFACE_STYLE_FILL_AREA(#409);
#329=ORIENTED_EDGE('',*,*,#364,.F.);
#330=ORIENTED_EDGE('',*,*,#406,.F.);
#331=ORIENTED_EDGE('',*,*,#382,.F.);
#332=ORIENTED_EDGE('',*,*,#375,.F.);
#333=ORIENTED_EDGE('',*,*,#385,.F.);
#334=ORIENTED_EDGE('',*,*,#354,.F.);
#335=ORIENTED_EDGE('',*,*,#388,.F.);
#336=ORIENTED_EDGE('',*,*,#357,.F.);
#337=ORIENTED_EDGE('',*,*,#372,.F.);
#338=ORIENTED_EDGE('',*,*,#408,.F.);
#339=CARTESIAN_POINT('',(-7.5,-14.2882250993909,-5.99999999999997));
#340=DIRECTION('',(-0.707106781186548,0.707106781186547,0.0));
#341=DIRECTION('',(0.0,0.0,1.0));
#342=SURFACE_STYLE_FILL_AREA(#410);
#343=ORIENTED_EDGE('',*,*,#391,.T.);
#344=ORIENTED_EDGE('',*,*,#397,.T.);
#345=ORIENTED_EDGE('',*,*,#404,.T.);
#346=ORIENTED_EDGE('',*,*,#392,.T.);
#347=ORIENTED_EDGE('',*,*,#378,.F.);
#348=CARTESIAN_POINT('',(0.0,0.0,6.00000000000003));
#349=DIRECTION('',(0.0,0.0,-1.0));
#350=DIRECTION('',(1.0,0.0,0.0));
#351=FILL_AREA_STYLE('',(#411));
#352=EDGE_CURVE('',#412,#413,#414,.T.);
#353=EDGE_CURVE('',#415,#413,#416,.T.);
#354=EDGE_CURVE('',#415,#417,#418,.T.);
#355=EDGE_CURVE('',#417,#412,#419,.T.);
#356=FILL_AREA_STYLE('',(#420));
#357=EDGE_CURVE('',#421,#422,#423,.T.);
#358=EDGE_CURVE('',#424,#422,#425,.T.);
#359=EDGE_CURVE('',#424,#426,#427,.T.);
#360=EDGE_CURVE('',#426,#421,#428,.T.);
#361=FILL_AREA_STYLE('',(#429));
#362=EDGE_CURVE('',#430,#431,#432,.T.);
#363=EDGE_CURVE('',#431,#433,#434,.T.);
#364=EDGE_CURVE('',#433,#435,#436,.T.);
#365=EDGE_CURVE('',#430,#435,#437,.T.);
#366=FILL_AREA_STYLE('',(#438));
#367=EDGE_CURVE('',#439,#440,#441,.T.);
#368=EDGE_CURVE('',#440,#442,#443,.T.);
#369=EDGE_CURVE('',#442,#439,#444,.T.);
#370=EDGE_CURVE('',#426,#445,#446,.T.);
#371=EDGE_CURVE('',#445,#447,#448,.T.);
#372=EDGE_CURVE('',#447,#421,#449,.T.);
#373=FILL_AREA_STYLE('',(#450));
#374=EDGE_CURVE('',#451,#452,#453,.T.);
#375=EDGE_CURVE('',#452,#454,#455,.T.);
#376=EDGE_CURVE('',#456,#454,#457,.T.);
#377=EDGE_CURVE('',#456,#451,#458,.T.);
#378=EDGE_CURVE('',#459,#460,#461,.T.);
#379=EDGE_CURVE('',#460,#459,#462,.T.);
#380=FILL_AREA_STYLE('',(#463));
#381=EDGE_CURVE('',#464,#456,#465,.T.);
#382=EDGE_CURVE('',#454,#466,#467,.T.);
#383=EDGE_CURVE('',#464,#466,#468,.T.);
#384=FILL_AREA_STYLE('',(#469));
#385=EDGE_CURVE('',#417,#452,#470,.T.);
#386=EDGE_CURVE('',#451,#412,#471,.T.);
#387=FILL_AREA_STYLE('',(#472));
#388=EDGE_CURVE('',#422,#415,#473,.T.);
#389=EDGE_CURVE('',#413,#424,#474,.T.);
#390=FILL_AREA_STYLE('',(#475));
#391=EDGE_CURVE('',#459,#476,#477,.T.);
#392=EDGE_CURVE('',#478,#460,#479,.T.);
#393=EDGE_CURVE('',#478,#480,#481,.T.);
#394=EDGE_CURVE('',#480,#476,#482,.T.);
#395=FILL_AREA_STYLE('',(#483));
#396=EDGE_CURVE('',#484,#442,#485,.T.);
#397=EDGE_CURVE('',#476,#484,#486,.T.);
#398=EDGE_CURVE('',#440,#480,#487,.T.);
#399=FILL_AREA_STYLE('',(#488));
#400=FILL_AREA_STYLE('',(#489));
#401=EDGE_CURVE('',#431,#464,#490,.T.);
#402=EDGE_CURVE('',#445,#430,#491,.T.);
#403=FILL_AREA_STYLE('',(#492));
#404=EDGE_CURVE('',#484,#478,#493,.T.);
#405=FILL_AREA_STYLE('',(#494));
#406=EDGE_CURVE('',#466,#433,#495,.T.);
#407=FILL_AREA_STYLE('',(#496));
#408=EDGE_CURVE('',#435,#447,#497,.T.);
#409=FILL_AREA_STYLE('',(#498));
#410=FILL_AREA_STYLE('',(#499));
#411=FILL_AREA_STYLE_COLOUR('',#500);
#412=VERTEX_POINT('',#501);
#413=VERTEX_POINT('',#502);
#414=LINE('',#503,#504);
#415=VERTEX_POINT('',#505);
#416=LINE('',#506,#507);
#417=VERTEX_POINT('',#508);
#418=LINE('',#509,#510);
#419=LINE('',#511,#512);
#420=FILL_AREA_STYLE_COLOUR('',#513);
#421=VERTEX_POINT('',#514);
#422=VERTEX_POINT('',#515);
#423=LINE('',#516,#517);
#424=VERTEX_POINT('',#518);
#425=LINE('',#519,#520);
#426=VERTEX_POINT('',#521);
#427=LINE('',#522,#523);
#428=LINE('',#524,#525);
#429=FILL_AREA_STYLE_COLOUR('',#526);
#430=VERTEX_POINT('',#527);
#431=VERTEX_POINT('',#528);
#432=LINE('',#529,#530);
#433=VERTEX_POINT('',#531);
#434=LINE('',#532,#533);
#435=VERTEX_POINT('',#534);
#436=LINE('',#535,#536);
#437=LINE('',#537,#538);
#438=FILL_AREA_STYLE_COLOUR('',#539);
#439=VERTEX_POINT('',#540);
#440=VERTEX_POINT('',#541);
#441=CIRCLE('',#542,4.0);
#442=VERTEX_POINT('',#543);
#443=CIRCLE('',#544,4.0);
#444=CIRCLE('',#545,4.0);
#445=VERTEX_POINT('',#546);
#446=LINE('',#547,#548);
#447=VERTEX_POINT('',#549);
#448=LINE('',#550,#551);
#449=LINE('',#552,#553);
#450=FILL_AREA_STYLE_COLOUR('',#554);
#451=VERTEX_POINT('',#555);
#452=VERTEX_POINT('',#556);
#453=LINE('',#557,#558);
#454=VERTEX_POINT('',#559);
#455=LINE('',#560,#561);
#456=VERTEX_POINT('',#562);
#457=LINE('',#563,#564);
#458=LINE('',#565,#566);
#459=VERTEX_POINT('',#567);
#460=VERTEX_POINT('',#568);
#461=CIRCLE('',#569,3.40000000000001);
#462=CIRCLE('',#570,3.40000000000001);
#463=FILL_AREA_STYLE_COLOUR('',#571);
#464=VERTEX_POINT('',#572);
#465=LINE('',#573,#574);
#466=VERTEX_POINT('',#575);
#467=LINE('',#576,#577);
#468=LINE('',#578,#579);
#469=FILL_AREA_STYLE_COLOUR('',#580);
#470=LINE('',#581,#582);
#471=LINE('',#583,#584);
#472=FILL_AREA_STYLE_COLOUR('',#585);
#473=LINE('',#586,#587);
#474=LINE('',#588,#589);
#475=FILL_AREA_STYLE_COLOUR('',#590);
#476=VERTEX_POINT('',#591);
#477=LINE('',#592,#593);
#478=VERTEX_POINT('',#594);
#479=LINE('',#595,#596);
#480=VERTEX_POINT('',#597);
#481=CIRCLE('',#598,3.40000000000001);
#482=CIRCLE('',#599,3.40000000000001);
#483=FILL_AREA_STYLE_COLOUR('',#600);
#484=VERTEX_POINT('',#601);
#485=LINE('',#602,#603);
#486=CIRCLE('',#604,3.40000000000001);
#487=LINE('',#605,#606);
#488=FILL_AREA_STYLE_COLOUR('',#607);
#489=FILL_AREA_STYLE_COLOUR('',#608);
#490=LINE('',#609,#610);
#491=LINE('',#611,#612);
#492=FILL_AREA_STYLE_COLOUR('',#613);
#493=CIRCLE('',#614,3.40000000000001);
#494=FILL_AREA_STYLE_COLOUR('',#615);
#495=LINE('',#616,#617);
#496=FILL_AREA_STYLE_COLOUR('',#618);
#497=LINE('',#619,#620);
#498=FILL_AREA_STYLE_COLOUR('',#621);
#499=FILL_AREA_STYLE_COLOUR('',#622);
#500=COLOUR_RGB('',0.509803950786591,0.509803950786591,0.588235318660736);
#501=CARTESIAN_POINT('',(7.5,14.2882250993909,-4.40000000000001));
#502=CARTESIAN_POINT('',(7.5,14.2882250993909,-8.88178419700125E-016));
#503=CARTESIAN_POINT('',(7.5,14.2882250993909,-5.19999999999999));
#504=VECTOR('',#623,1.0);
#505=CARTESIAN_POINT('',(7.49999999999997,0.711774900609157,0.0));
#506=CARTESIAN_POINT('',(7.5,9.22523458773445E-015,0.0));
#507=VECTOR('',#624,1.0);
#508=CARTESIAN_POINT('',(7.49999999999997,0.711774900609157,-4.40000000000003));
#509=CARTESIAN_POINT('',(7.5,0.711774900609157,-5.19999999999999));
#510=VECTOR('',#625,1.0);
#511=CARTESIAN_POINT('',(7.5,8.95582118989353E-015,-4.40000000000001));
#512=VECTOR('',#626,1.0);
#513=COLOUR_RGB('',0.509803950786591,0.509803950786591,0.588235318660736);
#514=CARTESIAN_POINT('',(4.80000000000001,-1.98822509939084,6.0));
#515=CARTESIAN_POINT('',(4.80000000000001,-1.98822509939084,1.21739654477158E-016));
#516=CARTESIAN_POINT('',(4.80000000000001,-1.98822509939084,1.4210854715202E-014));
#517=VECTOR('',#627,1.0);
#518=CARTESIAN_POINT('',(4.80000000000001,11.5882250993909,-7.095507043119E-016));
#519=CARTESIAN_POINT('',(4.80000000000001,9.22523458773445E-015,0.0));
#520=VECTOR('',#628,1.0);
#521=CARTESIAN_POINT('',(4.80000000000001,11.5882250993909,6.0));
#522=CARTESIAN_POINT('',(4.80000000000001,11.5882250993909,-2.99999999999999));
#523=VECTOR('',#629,1.0);
#524=CARTESIAN_POINT('',(4.80000000000001,9.59261649388117E-015,6.0));
#525=VECTOR('',#630,1.0);
#526=COLOUR_RGB('',0.509803950786591,0.509803950786591,0.588235318660736);
#527=CARTESIAN_POINT('',(-4.80000000000001,1.98822509939084,-1.21739654477157E-016));
#528=CARTESIAN_POINT('',(-7.5,-0.711774900609157,4.35822032888638E-017));
#529=CARTESIAN_POINT('',(0.177943725152292,6.96616882454315,0.0));
#530=VECTOR('',#631,1.0);
#531=CARTESIAN_POINT('',(-7.5,-14.2882250993909,8.74872562077922E-016));
#532=CARTESIAN_POINT('',(-7.5,9.22523458773445E-015,0.0));
#533=VECTOR('',#632,1.0);
#534=CARTESIAN_POINT('',(-4.80000000000001,-11.5882250993909,7.09550704311901E-016));
#535=CARTESIAN_POINT('',(-3.92794372515228,-10.7161688245431,8.88178419700125E-016));
#536=VECTOR('',#633,1.0);
#537=CARTESIAN_POINT('',(-4.80000000000001,9.22523458773445E-015,0.0));
#538=VECTOR('',#634,1.0);
#539=COLOUR_RGB('',0.509803950786591,0.509803950786591,0.588235318660736);
#540=CARTESIAN_POINT('',(4.0,9.59261649388117E-015,6.0));
#541=CARTESIAN_POINT('',(7.0601396096085E-016,-3.99999999999999,6.0));
#542=AXIS2_PLACEMENT_3D('',#635,#636,#637);
#543=CARTESIAN_POINT('',(-7.0601396096085E-016,4.00000000000001,6.0));
#544=AXIS2_PLACEMENT_3D('',#638,#639,#640);
#545=AXIS2_PLACEMENT_3D('',#641,#642,#643);
#546=CARTESIAN_POINT('',(-4.80000000000001,1.98822509939084,6.0));
#547=CARTESIAN_POINT('',(3.25294372515229,10.0411688245432,6.0));
#548=VECTOR('',#644,1.0);
#549=CARTESIAN_POINT('',(-4.80000000000001,-11.5882250993909,6.0));
#550=CARTESIAN_POINT('',(-4.80000000000001,9.59261649388117E-015,6.0));
#551=VECTOR('',#645,1.0);
#552=CARTESIAN_POINT('',(-3.25294372515228,-10.0411688245431,6.0));
#553=VECTOR('',#646,1.0);
#554=COLOUR_RGB('',0.509803950786591,0.509803950786591,0.588235318660736);
#555=CARTESIAN_POINT('',(5.90000000000001,12.6882250993909,-6.0));
#556=CARTESIAN_POINT('',(5.90000000000001,-0.888225099390841,-6.0));
#557=CARTESIAN_POINT('',(5.90000000000001,8.85785268158774E-015,-6.0));
#558=VECTOR('',#647,1.0);
#559=CARTESIAN_POINT('',(-5.89999999999998,-12.6882250993908,-6.0));
#560=CARTESIAN_POINT('',(-0.577943725152285,-7.36616882454314,-6.0));
#561=VECTOR('',#648,1.0);
#562=CARTESIAN_POINT('',(-5.90000000000001,0.88822509939084,-5.99999999999997));
#563=CARTESIAN_POINT('',(-5.89999999999998,8.85785268158774E-015,-6.0));
#564=VECTOR('',#649,1.0);
#565=CARTESIAN_POINT('',(0.577943725152296,7.36616882454315,-6.0));
#566=VECTOR('',#650,1.0);
#567=CARTESIAN_POINT('',(3.40000000000001,0.0,-5.99999999999997));
#568=CARTESIAN_POINT('',(-3.40000000000001,-4.16366160299609E-016,-6.0));
#569=AXIS2_PLACEMENT_3D('',#651,#652,#653);
#570=AXIS2_PLACEMENT_3D('',#654,#655,#656);
#571=COLOUR_RGB('',0.509803950786591,0.509803950786591,0.588235318660736);
#572=CARTESIAN_POINT('',(-7.5,-0.711774900609157,-4.40000000000001));
#573=CARTESIAN_POINT('',(-2.11470418323175,4.6735209161591,-9.78529581676816));
#574=VECTOR('',#657,1.0);
#575=CARTESIAN_POINT('',(-7.5,-14.2882250993909,-4.4));
#576=CARTESIAN_POINT('',(-4.31862915010149,-11.1068542494924,-7.58137084989846));
#577=VECTOR('',#658,1.0);
#578=CARTESIAN_POINT('',(-7.5,8.95582118989353E-015,-4.40000000000001));
#579=VECTOR('',#659,1.0);
#580=COLOUR_RGB('',0.509803950786591,0.509803950786591,0.588235318660736);
#581=CARTESIAN_POINT('',(1.58137084989848,-5.20685424949237,-10.3186291501015));
#582=VECTOR('',#660,1.0);
#583=CARTESIAN_POINT('',(4.31862915010153,11.1068542494924,-7.58137084989848));
#584=VECTOR('',#661,1.0);
#585=COLOUR_RGB('',0.509803950786591,0.509803950786591,0.588235318660736);
#586=CARTESIAN_POINT('',(-0.177943725152287,-6.96616882454314,8.88178419700125E-016));
#587=VECTOR('',#662,1.0);
#588=CARTESIAN_POINT('',(3.92794372515228,10.7161688245432,0.0));
#589=VECTOR('',#663,1.0);
#590=COLOUR_RGB('',0.509803950786591,0.509803950786591,0.588235318660736);
#591=CARTESIAN_POINT('',(3.40000000000001,9.59261649388117E-015,5.65358983848623));
#592=CARTESIAN_POINT('',(3.40000000000001,4.16366160299609E-016,-0.173205080756886));
#593=VECTOR('',#664,1.0);
#594=CARTESIAN_POINT('',(-3.40000000000001,-4.16366160299609E-016,5.65358983848623));
#595=CARTESIAN_POINT('',(-3.40000000000001,-4.16366160299609E-016,-0.173205080756886));
#596=VECTOR('',#665,1.0);
#597=CARTESIAN_POINT('',(6.00111866816725E-016,-3.40000000000001,5.65358983848623));
#598=AXIS2_PLACEMENT_3D('',#666,#667,#668);
#599=AXIS2_PLACEMENT_3D('',#669,#670,#671);
#600=COLOUR_RGB('',0.509803950786591,0.509803950786591,0.588235318660736);
#601=CARTESIAN_POINT('',(-6.00111866816721E-016,3.40000000000001,5.65358983848623));
#602=CARTESIAN_POINT('',(-6.46295562972024E-016,3.66165882664671,5.80465863248654));
#603=VECTOR('',#672,1.0);
#604=AXIS2_PLACEMENT_3D('',#673,#674,#675);
#605=CARTESIAN_POINT('',(6.46295562972024E-016,-3.66165882664669,5.80465863248654));
#606=VECTOR('',#676,1.0);
#607=COLOUR_RGB('',0.509803950786591,0.509803950786591,0.588235318660736);
#608=COLOUR_RGB('',0.509803950786591,0.509803950786591,0.588235318660736);
#609=CARTESIAN_POINT('',(-7.5,-0.711774900609157,-5.19999999999999));
#610=VECTOR('',#677,1.0);
#611=CARTESIAN_POINT('',(-4.80000000000001,1.98822509939084,1.4210854715202E-014));
#612=VECTOR('',#678,1.0);
#613=COLOUR_RGB('',0.509803950786591,0.509803950786591,0.588235318660736);
#614=AXIS2_PLACEMENT_3D('',#679,#680,#681);
#615=COLOUR_RGB('',0.509803950786591,0.509803950786591,0.588235318660736);
#616=CARTESIAN_POINT('',(-7.5,-14.2882250993909,-5.19999999999999));
#617=VECTOR('',#682,1.0);
#618=COLOUR_RGB('',0.509803950786591,0.509803950786591,0.588235318660736);
#619=CARTESIAN_POINT('',(-4.80000000000001,-11.5882250993909,-2.99999999999999));
#620=VECTOR('',#683,1.0);
#621=COLOUR_RGB('',0.509803950786591,0.509803950786591,0.588235318660736);
#622=COLOUR_RGB('',0.509803950786591,0.509803950786591,0.588235318660736);
#623=DIRECTION('',(0.0,0.0,1.0));
#624=DIRECTION('',(0.0,1.0,-6.12303176911189E-017));
#625=DIRECTION('',(0.0,0.0,-1.0));
#626=DIRECTION('',(0.0,1.0,-6.12303176911189E-017));
#627=DIRECTION('',(0.0,0.0,-1.0));
#628=DIRECTION('',(0.0,-1.0,6.12303176911189E-017));
#629=DIRECTION('',(0.0,0.0,1.0));
#630=DIRECTION('',(0.0,-1.0,6.12303176911189E-017));
#631=DIRECTION('',(-0.707106781186547,-0.707106781186548,4.32963728535968E-017));
#632=DIRECTION('',(0.0,-1.0,6.12303176911189E-017));
#633=DIRECTION('',(0.707106781186547,0.707106781186548,-4.32963728535968E-017));
#634=DIRECTION('',(0.0,-1.0,6.12303176911189E-017));
#635=CARTESIAN_POINT('',(0.0,9.59261649388117E-015,6.0));
#636=DIRECTION('',(9.72218163296036E-050,-6.12303176911189E-017,-1.0));
#637=DIRECTION('',(-5.40428548579746E-017,1.0,-6.12303176911189E-017));
#638=CARTESIAN_POINT('',(0.0,9.59261649388117E-015,6.0));
#639=DIRECTION('',(9.72218163296036E-050,-6.12303176911189E-017,-1.0));
#640=DIRECTION('',(-5.40428548579746E-017,1.0,-6.12303176911189E-017));
#641=CARTESIAN_POINT('',(0.0,9.59261649388117E-015,6.0));
#642=DIRECTION('',(9.72218163296036E-050,-6.12303176911189E-017,-1.0));
#643=DIRECTION('',(-5.40428548579746E-017,1.0,-6.12303176911189E-017));
#644=DIRECTION('',(-0.707106781186547,-0.707106781186548,4.32963728535968E-017));
#645=DIRECTION('',(0.0,-1.0,6.12303176911189E-017));
#646=DIRECTION('',(0.707106781186547,0.707106781186548,-4.32963728535968E-017));
#647=DIRECTION('',(0.0,-1.0,6.12303176911189E-017));
#648=DIRECTION('',(-0.707106781186547,-0.707106781186548,4.32963728535968E-017));
#649=DIRECTION('',(0.0,-1.0,6.12303176911189E-017));
#650=DIRECTION('',(0.707106781186547,0.707106781186548,-4.32963728535968E-017));
#651=CARTESIAN_POINT('',(0.0,0.0,-6.0));
#652=DIRECTION('',(-0.0,6.12303176911189E-017,1.0));
#653=DIRECTION('',(1.0,0.0,0.0));
#654=CARTESIAN_POINT('',(0.0,0.0,-6.0));
#655=DIRECTION('',(-0.0,6.12303176911189E-017,1.0));
#656=DIRECTION('',(1.0,0.0,0.0));
#657=DIRECTION('',(0.577350269189629,0.57735026918963,-0.577350269189619));
#658=DIRECTION('',(-0.577350269189629,-0.57735026918963,0.577350269189619));
#659=DIRECTION('',(0.0,-1.0,6.12303176911189E-017));
#660=DIRECTION('',(-0.577350269189625,-0.577350269189627,-0.577350269189625));
#661=DIRECTION('',(0.577350269189625,0.577350269189627,0.577350269189625));
#662=DIRECTION('',(0.707106781186547,0.707106781186548,-4.32963728535968E-017));
#663=DIRECTION('',(-0.707106781186547,-0.707106781186548,4.32963728535968E-017));
#664=DIRECTION('',(-0.0,-0.0,1.0));
#665=DIRECTION('',(-0.0,-0.0,-1.0));
#666=CARTESIAN_POINT('',(0.0,0.0,5.65358983848623));
#667=DIRECTION('',(0.0,0.0,1.0));
#668=DIRECTION('',(1.0,0.0,0.0));
#669=CARTESIAN_POINT('',(0.0,0.0,5.65358983848623));
#670=DIRECTION('',(0.0,0.0,1.0));
#671=DIRECTION('',(1.0,0.0,0.0));
#672=DIRECTION('',(-1.52856506404643E-016,0.866025403784439,0.5));
#673=CARTESIAN_POINT('',(0.0,0.0,5.65358983848623));
#674=DIRECTION('',(0.0,0.0,1.0));
#675=DIRECTION('',(1.0,0.0,0.0));
#676=DIRECTION('',(-1.52856506404643E-016,0.866025403784439,-0.5));
#677=DIRECTION('',(0.0,0.0,-1.0));
#678=DIRECTION('',(0.0,0.0,-1.0));
#679=CARTESIAN_POINT('',(0.0,0.0,5.65358983848623));
#680=DIRECTION('',(0.0,0.0,1.0));
#681=DIRECTION('',(1.0,0.0,0.0));
#682=DIRECTION('',(0.0,0.0,1.0));
#683=DIRECTION('',(0.0,0.0,1.0));
ENDSEC;
END-ISO-10303-21;
