ISO-10303-21;
HEADER;
FILE_DESCRIPTION(('STEP AP214'),'1');
FILE_NAME('C:/temp/halder/09_10_2014/CAD/Temp/HALDERN_EH_23020_0580.stp','2014-10-09T11:17:37',('TraceParts'),('TraceParts S.A.'),'Spatial InterOp 3D',' ',' ');
FILE_SCHEMA(('automotive_design'));
ENDSEC;
DATA;
#1=MECHANICAL_DESIGN_GEOMETRIC_PRESENTATION_REPRESENTATION(' ',(#10,#11,#12,#13,#14,#15,#16,#17,#18,#19,#20,#21,#22,#23,#24,#25,#26),#6);
#2=PRODUCT_DEFINITION_CONTEXT('',#27,'design');
#3=APPLICATION_PROTOCOL_DEFINITION('INTERNATIONAL STANDARD','automotive_design',1994,#27);
#4=PRODUCT_CATEGORY_RELATIONSHIP('NONE','NONE',#28,#29);
#5=SHAPE_DEFINITION_REPRESENTATION(#30,#31);
#6= (GEOMETRIC_REPRESENTATION_CONTEXT(3)GLOBAL_UNCERTAINTY_ASSIGNED_CONTEXT((#34))GLOBAL_UNIT_ASSIGNED_CONTEXT((#36,#37,#38))REPRESENTATION_CONTEXT('NONE','WORKSPACE'));
#10=STYLED_ITEM('',(#40),#41);
#11=STYLED_ITEM('',(#42),#43);
#12=STYLED_ITEM('',(#44),#45);
#13=STYLED_ITEM('',(#46),#47);
#14=STYLED_ITEM('',(#48),#49);
#15=STYLED_ITEM('',(#50),#51);
#16=STYLED_ITEM('',(#52),#53);
#17=STYLED_ITEM('',(#54),#55);
#18=STYLED_ITEM('',(#56),#57);
#19=STYLED_ITEM('',(#58),#59);
#20=STYLED_ITEM('',(#60),#61);
#21=STYLED_ITEM('',(#62),#63);
#22=STYLED_ITEM('',(#64),#65);
#23=STYLED_ITEM('',(#66),#67);
#24=STYLED_ITEM('',(#68),#69);
#25=STYLED_ITEM('',(#70),#71);
#26=STYLED_ITEM('',(#72),#73);
#27=APPLICATION_CONTEXT(' ');
#28=PRODUCT_CATEGORY('part','NONE');
#29=PRODUCT_RELATED_PRODUCT_CATEGORY('detail',' ',(#74));
#30=PRODUCT_DEFINITION_SHAPE('NONE','NONE',#75);
#31=ADVANCED_BREP_SHAPE_REPRESENTATION('1',(#51,#76),#6);
#34=UNCERTAINTY_MEASURE_WITH_UNIT(LENGTH_MEASURE(1.0E-006),#36,'','');
#36= (CONVERSION_BASED_UNIT('MILLIMETRE',#79)LENGTH_UNIT()NAMED_UNIT(#82));
#37= (NAMED_UNIT(#84)PLANE_ANGLE_UNIT()SI_UNIT($,.RADIAN.));
#38= (NAMED_UNIT(#84)SOLID_ANGLE_UNIT()SI_UNIT($,.STERADIAN.));
#40=PRESENTATION_STYLE_ASSIGNMENT((#90));
#41=ADVANCED_FACE('',(#91),#92,.F.);
#42=PRESENTATION_STYLE_ASSIGNMENT((#93));
#43=ADVANCED_FACE('',(#94),#95,.T.);
#44=PRESENTATION_STYLE_ASSIGNMENT((#96));
#45=ADVANCED_FACE('',(#97),#98,.T.);
#46=PRESENTATION_STYLE_ASSIGNMENT((#99));
#47=ADVANCED_FACE('',(#100),#101,.T.);
#48=PRESENTATION_STYLE_ASSIGNMENT((#102));
#49=ADVANCED_FACE('',(#103),#104,.T.);
#50=PRESENTATION_STYLE_ASSIGNMENT((#105));
#51=MANIFOLD_SOLID_BREP('1',#106);
#52=PRESENTATION_STYLE_ASSIGNMENT((#107));
#53=ADVANCED_FACE('',(#108),#109,.T.);
#54=PRESENTATION_STYLE_ASSIGNMENT((#110));
#55=ADVANCED_FACE('',(#111),#112,.F.);
#56=PRESENTATION_STYLE_ASSIGNMENT((#113));
#57=ADVANCED_FACE('',(#114),#115,.F.);
#58=PRESENTATION_STYLE_ASSIGNMENT((#116));
#59=ADVANCED_FACE('',(#117),#118,.T.);
#60=PRESENTATION_STYLE_ASSIGNMENT((#119));
#61=ADVANCED_FACE('',(#120),#121,.F.);
#62=PRESENTATION_STYLE_ASSIGNMENT((#122));
#63=ADVANCED_FACE('',(#123,#124),#125,.T.);
#64=PRESENTATION_STYLE_ASSIGNMENT((#126));
#65=ADVANCED_FACE('',(#127,#128),#129,.T.);
#66=PRESENTATION_STYLE_ASSIGNMENT((#130));
#67=ADVANCED_FACE('',(#131),#132,.F.);
#68=PRESENTATION_STYLE_ASSIGNMENT((#133));
#69=ADVANCED_FACE('',(#134),#135,.T.);
#70=PRESENTATION_STYLE_ASSIGNMENT((#136));
#71=ADVANCED_FACE('',(#137),#138,.T.);
#72=PRESENTATION_STYLE_ASSIGNMENT((#139));
#73=ADVANCED_FACE('',(#140),#141,.F.);
#74=PRODUCT('1','1','PART-1-DESC',(#142));
#75=PRODUCT_DEFINITION('NONE','NONE',#143,#2);
#76=AXIS2_PLACEMENT_3D('',#144,#145,#146);
#79=LENGTH_MEASURE_WITH_UNIT(LENGTH_MEASURE(1.0),#147);
#82=DIMENSIONAL_EXPONENTS(1.0,0.0,0.0,0.0,0.0,0.0,0.0);
#84=DIMENSIONAL_EXPONENTS(0.0,0.0,0.0,0.0,0.0,0.0,0.0);
#90=SURFACE_STYLE_USAGE(.BOTH.,#148);
#91=FACE_OUTER_BOUND('',#149,.T.);
#92=PLANE('',#150);
#93=SURFACE_STYLE_USAGE(.BOTH.,#151);
#94=FACE_OUTER_BOUND('',#152,.T.);
#95=PLANE('',#153);
#96=SURFACE_STYLE_USAGE(.BOTH.,#154);
#97=FACE_OUTER_BOUND('',#155,.T.);
#98=PLANE('',#156);
#99=SURFACE_STYLE_USAGE(.BOTH.,#157);
#100=FACE_OUTER_BOUND('',#158,.T.);
#101=PLANE('',#159);
#102=SURFACE_STYLE_USAGE(.BOTH.,#160);
#103=FACE_OUTER_BOUND('',#161,.T.);
#104=PLANE('',#162);
#105=SURFACE_STYLE_USAGE(.BOTH.,#163);
#106=CLOSED_SHELL('',(#67,#73,#59,#41,#55,#69,#43,#63,#53,#47,#57,#61,#65,#49,#45,#71));
#107=SURFACE_STYLE_USAGE(.BOTH.,#164);
#108=FACE_OUTER_BOUND('',#165,.T.);
#109=PLANE('',#166);
#110=SURFACE_STYLE_USAGE(.BOTH.,#167);
#111=FACE_OUTER_BOUND('',#168,.T.);
#112=PLANE('',#169);
#113=SURFACE_STYLE_USAGE(.BOTH.,#170);
#114=FACE_OUTER_BOUND('',#171,.T.);
#115=CONICAL_SURFACE('',#172,2.72931706131736,1.0471975511966);
#116=SURFACE_STYLE_USAGE(.BOTH.,#173);
#117=FACE_OUTER_BOUND('',#174,.T.);
#118=PLANE('',#175);
#119=SURFACE_STYLE_USAGE(.BOTH.,#176);
#120=FACE_OUTER_BOUND('',#177,.T.);
#121=CYLINDRICAL_SURFACE('',#178,2.5);
#122=SURFACE_STYLE_USAGE(.BOTH.,#179);
#123=FACE_BOUND('',#180,.T.);
#124=FACE_OUTER_BOUND('',#181,.T.);
#125=PLANE('',#182);
#126=SURFACE_STYLE_USAGE(.BOTH.,#183);
#127=FACE_OUTER_BOUND('',#184,.T.);
#128=FACE_BOUND('',#185,.T.);
#129=PLANE('',#186);
#130=SURFACE_STYLE_USAGE(.BOTH.,#187);
#131=FACE_OUTER_BOUND('',#188,.T.);
#132=CYLINDRICAL_SURFACE('',#189,2.5);
#133=SURFACE_STYLE_USAGE(.BOTH.,#190);
#134=FACE_OUTER_BOUND('',#191,.T.);
#135=PLANE('',#192);
#136=SURFACE_STYLE_USAGE(.BOTH.,#193);
#137=FACE_OUTER_BOUND('',#194,.T.);
#138=PLANE('',#195);
#139=SURFACE_STYLE_USAGE(.BOTH.,#196);
#140=FACE_OUTER_BOUND('',#197,.T.);
#141=CONICAL_SURFACE('',#198,2.72931706131736,1.0471975511966);
#142=PRODUCT_CONTEXT('',#27,'mechanical');
#143=PRODUCT_DEFINITION_FORMATION_WITH_SPECIFIED_SOURCE(' ','NONE',#74,.NOT_KNOWN.);
#144=CARTESIAN_POINT('',(0.0,0.0,0.0));
#145=DIRECTION('',(0.0,0.0,1.0));
#146=DIRECTION('',(1.0,0.0,0.0));
#147= (NAMED_UNIT(#82)LENGTH_UNIT()SI_UNIT(.MILLI.,.METRE.));
#148=SURFACE_SIDE_STYLE('',(#200));
#149=EDGE_LOOP('',(#201,#202,#203,#204,#205,#206,#207,#208,#209,#210));
#150=AXIS2_PLACEMENT_3D('',#211,#212,#213);
#151=SURFACE_SIDE_STYLE('',(#214));
#152=EDGE_LOOP('',(#215,#216,#217,#218));
#153=AXIS2_PLACEMENT_3D('',#219,#220,#221);
#154=SURFACE_SIDE_STYLE('',(#222));
#155=EDGE_LOOP('',(#223,#224,#225,#226));
#156=AXIS2_PLACEMENT_3D('',#227,#228,#229);
#157=SURFACE_SIDE_STYLE('',(#230));
#158=EDGE_LOOP('',(#231,#232,#233,#234));
#159=AXIS2_PLACEMENT_3D('',#235,#236,#237);
#160=SURFACE_SIDE_STYLE('',(#238));
#161=EDGE_LOOP('',(#239,#240,#241,#242));
#162=AXIS2_PLACEMENT_3D('',#243,#244,#245);
#163=SURFACE_SIDE_STYLE('',(#246));
#164=SURFACE_SIDE_STYLE('',(#247));
#165=EDGE_LOOP('',(#248,#249,#250,#251));
#166=AXIS2_PLACEMENT_3D('',#252,#253,#254);
#167=SURFACE_SIDE_STYLE('',(#255));
#168=EDGE_LOOP('',(#256,#257,#258,#259,#260,#261,#262,#263,#264,#265));
#169=AXIS2_PLACEMENT_3D('',#266,#267,#268);
#170=SURFACE_SIDE_STYLE('',(#269));
#171=EDGE_LOOP('',(#270,#271,#272,#273,#274));
#172=AXIS2_PLACEMENT_3D('',#275,#276,#277);
#173=SURFACE_SIDE_STYLE('',(#278));
#174=EDGE_LOOP('',(#279,#280,#281,#282));
#175=AXIS2_PLACEMENT_3D('',#283,#284,#285);
#176=SURFACE_SIDE_STYLE('',(#286));
#177=EDGE_LOOP('',(#287,#288,#289,#290,#291));
#178=AXIS2_PLACEMENT_3D('',#292,#293,#294);
#179=SURFACE_SIDE_STYLE('',(#295));
#180=EDGE_LOOP('',(#296,#297,#298));
#181=EDGE_LOOP('',(#299,#300,#301,#302));
#182=AXIS2_PLACEMENT_3D('',#303,#304,#305);
#183=SURFACE_SIDE_STYLE('',(#306));
#184=EDGE_LOOP('',(#307,#308,#309,#310));
#185=EDGE_LOOP('',(#311,#312));
#186=AXIS2_PLACEMENT_3D('',#313,#314,#315);
#187=SURFACE_SIDE_STYLE('',(#316));
#188=EDGE_LOOP('',(#317,#318,#319,#320,#321));
#189=AXIS2_PLACEMENT_3D('',#322,#323,#324);
#190=SURFACE_SIDE_STYLE('',(#325));
#191=EDGE_LOOP('',(#326,#327,#328,#329));
#192=AXIS2_PLACEMENT_3D('',#330,#331,#332);
#193=SURFACE_SIDE_STYLE('',(#333));
#194=EDGE_LOOP('',(#334,#335,#336,#337));
#195=AXIS2_PLACEMENT_3D('',#338,#339,#340);
#196=SURFACE_SIDE_STYLE('',(#341));
#197=EDGE_LOOP('',(#342,#343,#344,#345,#346,#347));
#198=AXIS2_PLACEMENT_3D('',#348,#349,#350);
#200=SURFACE_STYLE_FILL_AREA(#351);
#201=ORIENTED_EDGE('',*,*,#352,.F.);
#202=ORIENTED_EDGE('',*,*,#353,.F.);
#203=ORIENTED_EDGE('',*,*,#354,.F.);
#204=ORIENTED_EDGE('',*,*,#355,.F.);
#205=ORIENTED_EDGE('',*,*,#356,.F.);
#206=ORIENTED_EDGE('',*,*,#357,.F.);
#207=ORIENTED_EDGE('',*,*,#358,.F.);
#208=ORIENTED_EDGE('',*,*,#359,.F.);
#209=ORIENTED_EDGE('',*,*,#360,.F.);
#210=ORIENTED_EDGE('',*,*,#361,.F.);
#211=CARTESIAN_POINT('',(6.5,11.8740115370178,-4.99999999999997));
#212=DIRECTION('',(0.707106781186548,-0.707106781186548,0.0));
#213=DIRECTION('',(0.0,0.0,-1.0));
#214=SURFACE_STYLE_FILL_AREA(#362);
#215=ORIENTED_EDGE('',*,*,#363,.T.);
#216=ORIENTED_EDGE('',*,*,#364,.F.);
#217=ORIENTED_EDGE('',*,*,#355,.T.);
#218=ORIENTED_EDGE('',*,*,#365,.T.);
#219=CARTESIAN_POINT('',(-3.80000000000001,9.22523458773445E-015,1.0));
#220=DIRECTION('',(-1.0,0.0,0.0));
#221=DIRECTION('',(0.0,-1.0,6.12303176911189E-017));
#222=SURFACE_STYLE_FILL_AREA(#366);
#223=ORIENTED_EDGE('',*,*,#352,.T.);
#224=ORIENTED_EDGE('',*,*,#367,.T.);
#225=ORIENTED_EDGE('',*,*,#368,.T.);
#226=ORIENTED_EDGE('',*,*,#369,.F.);
#227=CARTESIAN_POINT('',(-4.89999999999998,8.85785268158774E-015,-5.0));
#228=DIRECTION('',(-0.707106781186541,-4.32963728535972E-017,-0.707106781186554));
#229=DIRECTION('',(-6.59640341199366E-035,-1.0,6.12303176911189E-017));
#230=SURFACE_STYLE_FILL_AREA(#370);
#231=ORIENTED_EDGE('',*,*,#371,.T.);
#232=ORIENTED_EDGE('',*,*,#372,.T.);
#233=ORIENTED_EDGE('',*,*,#358,.T.);
#234=ORIENTED_EDGE('',*,*,#373,.T.);
#235=CARTESIAN_POINT('',(3.80000000000001,9.22523458773445E-015,1.0));
#236=DIRECTION('',(0.0,6.12303176911189E-017,1.0));
#237=DIRECTION('',(0.0,-1.0,6.12303176911189E-017));
#238=SURFACE_STYLE_FILL_AREA(#374);
#239=ORIENTED_EDGE('',*,*,#375,.T.);
#240=ORIENTED_EDGE('',*,*,#376,.F.);
#241=ORIENTED_EDGE('',*,*,#360,.T.);
#242=ORIENTED_EDGE('',*,*,#377,.F.);
#243=CARTESIAN_POINT('',(6.5,8.95582118989353E-015,-3.40000000000001));
#244=DIRECTION('',(0.707106781186548,-4.32963728535968E-017,-0.707106781186548));
#245=DIRECTION('',(-1.07031965039769E-033,1.0,-6.12303176911189E-017));
#246=SURFACE_STYLE_FILL_AREA(#378);
#247=SURFACE_STYLE_FILL_AREA(#379);
#248=ORIENTED_EDGE('',*,*,#380,.T.);
#249=ORIENTED_EDGE('',*,*,#373,.F.);
#250=ORIENTED_EDGE('',*,*,#357,.T.);
#251=ORIENTED_EDGE('',*,*,#381,.T.);
#252=CARTESIAN_POINT('',(3.80000000000001,9.47015585849893E-015,5.0));
#253=DIRECTION('',(1.0,0.0,0.0));
#254=DIRECTION('',(0.0,1.0,-6.12303176911189E-017));
#255=SURFACE_STYLE_FILL_AREA(#382);
#256=ORIENTED_EDGE('',*,*,#383,.F.);
#257=ORIENTED_EDGE('',*,*,#384,.F.);
#258=ORIENTED_EDGE('',*,*,#368,.F.);
#259=ORIENTED_EDGE('',*,*,#385,.F.);
#260=ORIENTED_EDGE('',*,*,#375,.F.);
#261=ORIENTED_EDGE('',*,*,#386,.F.);
#262=ORIENTED_EDGE('',*,*,#371,.F.);
#263=ORIENTED_EDGE('',*,*,#380,.F.);
#264=ORIENTED_EDGE('',*,*,#387,.F.);
#265=ORIENTED_EDGE('',*,*,#363,.F.);
#266=CARTESIAN_POINT('',(-6.5,-11.8740115370178,-4.99999999999997));
#267=DIRECTION('',(-0.707106781186548,0.707106781186547,0.0));
#268=DIRECTION('',(0.0,0.0,1.0));
#269=SURFACE_STYLE_FILL_AREA(#388);
#270=ORIENTED_EDGE('',*,*,#389,.T.);
#271=ORIENTED_EDGE('',*,*,#390,.F.);
#272=ORIENTED_EDGE('',*,*,#391,.T.);
#273=ORIENTED_EDGE('',*,*,#392,.F.);
#274=ORIENTED_EDGE('',*,*,#393,.F.);
#275=CARTESIAN_POINT('',(0.0,9.47015585849893E-015,4.84372113248654));
#276=DIRECTION('',(-0.0,-0.0,1.0));
#277=DIRECTION('',(-5.34579964451412E-017,1.0,0.0));
#278=SURFACE_STYLE_FILL_AREA(#394);
#279=ORIENTED_EDGE('',*,*,#359,.T.);
#280=ORIENTED_EDGE('',*,*,#372,.F.);
#281=ORIENTED_EDGE('',*,*,#386,.T.);
#282=ORIENTED_EDGE('',*,*,#377,.T.);
#283=CARTESIAN_POINT('',(6.5,8.95582118989353E-015,-3.40000000000001));
#284=DIRECTION('',(1.0,0.0,0.0));
#285=DIRECTION('',(0.0,1.0,-6.12303176911189E-017));
#286=SURFACE_STYLE_FILL_AREA(#395);
#287=ORIENTED_EDGE('',*,*,#396,.T.);
#288=ORIENTED_EDGE('',*,*,#397,.T.);
#289=ORIENTED_EDGE('',*,*,#393,.T.);
#290=ORIENTED_EDGE('',*,*,#398,.T.);
#291=ORIENTED_EDGE('',*,*,#399,.F.);
#292=CARTESIAN_POINT('',(0.0,0.0,5.00000000000003));
#293=DIRECTION('',(0.0,0.0,-1.0));
#294=DIRECTION('',(1.0,0.0,0.0));
#295=SURFACE_STYLE_FILL_AREA(#400);
#296=ORIENTED_EDGE('',*,*,#401,.T.);
#297=ORIENTED_EDGE('',*,*,#390,.T.);
#298=ORIENTED_EDGE('',*,*,#402,.T.);
#299=ORIENTED_EDGE('',*,*,#381,.F.);
#300=ORIENTED_EDGE('',*,*,#356,.T.);
#301=ORIENTED_EDGE('',*,*,#364,.T.);
#302=ORIENTED_EDGE('',*,*,#387,.T.);
#303=CARTESIAN_POINT('',(-3.80000000000001,9.47015585849893E-015,5.0));
#304=DIRECTION('',(0.0,6.12303176911189E-017,1.0));
#305=DIRECTION('',(0.0,-1.0,6.12303176911189E-017));
#306=SURFACE_STYLE_FILL_AREA(#403);
#307=ORIENTED_EDGE('',*,*,#376,.T.);
#308=ORIENTED_EDGE('',*,*,#385,.T.);
#309=ORIENTED_EDGE('',*,*,#367,.F.);
#310=ORIENTED_EDGE('',*,*,#361,.T.);
#311=ORIENTED_EDGE('',*,*,#399,.T.);
#312=ORIENTED_EDGE('',*,*,#404,.T.);
#313=CARTESIAN_POINT('',(4.90000000000001,8.85785268158774E-015,-5.0));
#314=DIRECTION('',(0.0,-6.12303176911189E-017,-1.0));
#315=DIRECTION('',(0.0,1.0,-6.12303176911189E-017));
#316=SURFACE_STYLE_FILL_AREA(#405);
#317=ORIENTED_EDGE('',*,*,#396,.F.);
#318=ORIENTED_EDGE('',*,*,#404,.F.);
#319=ORIENTED_EDGE('',*,*,#398,.F.);
#320=ORIENTED_EDGE('',*,*,#392,.T.);
#321=ORIENTED_EDGE('',*,*,#406,.T.);
#322=CARTESIAN_POINT('',(0.0,0.0,5.00000000000003));
#323=DIRECTION('',(0.0,0.0,-1.0));
#324=DIRECTION('',(1.0,0.0,0.0));
#325=SURFACE_STYLE_FILL_AREA(#407);
#326=ORIENTED_EDGE('',*,*,#354,.T.);
#327=ORIENTED_EDGE('',*,*,#408,.T.);
#328=ORIENTED_EDGE('',*,*,#383,.T.);
#329=ORIENTED_EDGE('',*,*,#365,.F.);
#330=CARTESIAN_POINT('',(-6.5,9.22523458773445E-015,1.0));
#331=DIRECTION('',(0.0,6.12303176911189E-017,1.0));
#332=DIRECTION('',(0.0,-1.0,6.12303176911189E-017));
#333=SURFACE_STYLE_FILL_AREA(#409);
#334=ORIENTED_EDGE('',*,*,#353,.T.);
#335=ORIENTED_EDGE('',*,*,#369,.T.);
#336=ORIENTED_EDGE('',*,*,#384,.T.);
#337=ORIENTED_EDGE('',*,*,#408,.F.);
#338=CARTESIAN_POINT('',(-6.5,8.95582118989353E-015,-3.40000000000001));
#339=DIRECTION('',(-1.0,0.0,0.0));
#340=DIRECTION('',(0.0,-1.0,6.12303176911189E-017));
#341=SURFACE_STYLE_FILL_AREA(#410);
#342=ORIENTED_EDGE('',*,*,#389,.F.);
#343=ORIENTED_EDGE('',*,*,#397,.F.);
#344=ORIENTED_EDGE('',*,*,#406,.F.);
#345=ORIENTED_EDGE('',*,*,#391,.F.);
#346=ORIENTED_EDGE('',*,*,#401,.F.);
#347=ORIENTED_EDGE('',*,*,#402,.F.);
#348=CARTESIAN_POINT('',(0.0,9.47015585849893E-015,4.84372113248654));
#349=DIRECTION('',(-0.0,-0.0,1.0));
#350=DIRECTION('',(-5.34579964451412E-017,1.0,0.0));
#351=FILL_AREA_STYLE('',(#411));
#352=EDGE_CURVE('',#412,#413,#414,.T.);
#353=EDGE_CURVE('',#415,#412,#416,.T.);
#354=EDGE_CURVE('',#417,#415,#418,.T.);
#355=EDGE_CURVE('',#419,#417,#420,.T.);
#356=EDGE_CURVE('',#421,#419,#422,.T.);
#357=EDGE_CURVE('',#423,#421,#424,.T.);
#358=EDGE_CURVE('',#425,#423,#426,.T.);
#359=EDGE_CURVE('',#427,#425,#428,.T.);
#360=EDGE_CURVE('',#429,#427,#430,.T.);
#361=EDGE_CURVE('',#413,#429,#431,.T.);
#362=FILL_AREA_STYLE('',(#432));
#363=EDGE_CURVE('',#433,#434,#435,.T.);
#364=EDGE_CURVE('',#419,#434,#436,.T.);
#365=EDGE_CURVE('',#417,#433,#437,.T.);
#366=FILL_AREA_STYLE('',(#438));
#367=EDGE_CURVE('',#413,#439,#440,.T.);
#368=EDGE_CURVE('',#439,#441,#442,.T.);
#369=EDGE_CURVE('',#412,#441,#443,.T.);
#370=FILL_AREA_STYLE('',(#444));
#371=EDGE_CURVE('',#445,#446,#447,.T.);
#372=EDGE_CURVE('',#446,#425,#448,.T.);
#373=EDGE_CURVE('',#423,#445,#449,.T.);
#374=FILL_AREA_STYLE('',(#450));
#375=EDGE_CURVE('',#451,#452,#453,.T.);
#376=EDGE_CURVE('',#429,#452,#454,.T.);
#377=EDGE_CURVE('',#451,#427,#455,.T.);
#378=FILL_AREA_STYLE('',(#456));
#379=FILL_AREA_STYLE('',(#457));
#380=EDGE_CURVE('',#458,#445,#459,.T.);
#381=EDGE_CURVE('',#421,#458,#460,.T.);
#382=FILL_AREA_STYLE('',(#461));
#383=EDGE_CURVE('',#462,#433,#463,.T.);
#384=EDGE_CURVE('',#441,#462,#464,.T.);
#385=EDGE_CURVE('',#452,#439,#465,.T.);
#386=EDGE_CURVE('',#446,#451,#466,.T.);
#387=EDGE_CURVE('',#434,#458,#467,.T.);
#388=FILL_AREA_STYLE('',(#468));
#389=EDGE_CURVE('',#469,#470,#471,.T.);
#390=EDGE_CURVE('',#472,#470,#473,.T.);
#391=EDGE_CURVE('',#472,#474,#475,.T.);
#392=EDGE_CURVE('',#476,#474,#477,.T.);
#393=EDGE_CURVE('',#469,#476,#478,.T.);
#394=FILL_AREA_STYLE('',(#479));
#395=FILL_AREA_STYLE('',(#480));
#396=EDGE_CURVE('',#481,#482,#483,.T.);
#397=EDGE_CURVE('',#482,#469,#484,.T.);
#398=EDGE_CURVE('',#476,#485,#486,.T.);
#399=EDGE_CURVE('',#481,#485,#487,.T.);
#400=FILL_AREA_STYLE('',(#488));
#401=EDGE_CURVE('',#489,#472,#490,.T.);
#402=EDGE_CURVE('',#470,#489,#491,.T.);
#403=FILL_AREA_STYLE('',(#492));
#404=EDGE_CURVE('',#485,#481,#493,.T.);
#405=FILL_AREA_STYLE('',(#494));
#406=EDGE_CURVE('',#474,#482,#495,.T.);
#407=FILL_AREA_STYLE('',(#496));
#408=EDGE_CURVE('',#415,#462,#497,.T.);
#409=FILL_AREA_STYLE('',(#498));
#410=FILL_AREA_STYLE('',(#499));
#411=FILL_AREA_STYLE_COLOUR('',#500);
#412=VERTEX_POINT('',#501);
#413=VERTEX_POINT('',#502);
#414=LINE('',#503,#504);
#415=VERTEX_POINT('',#505);
#416=LINE('',#506,#507);
#417=VERTEX_POINT('',#508);
#418=LINE('',#509,#510);
#419=VERTEX_POINT('',#511);
#420=LINE('',#512,#513);
#421=VERTEX_POINT('',#514);
#422=LINE('',#515,#516);
#423=VERTEX_POINT('',#517);
#424=LINE('',#518,#519);
#425=VERTEX_POINT('',#520);
#426=LINE('',#521,#522);
#427=VERTEX_POINT('',#523);
#428=LINE('',#524,#525);
#429=VERTEX_POINT('',#526);
#430=LINE('',#527,#528);
#431=LINE('',#529,#530);
#432=FILL_AREA_STYLE_COLOUR('',#531);
#433=VERTEX_POINT('',#532);
#434=VERTEX_POINT('',#533);
#435=LINE('',#534,#535);
#436=LINE('',#536,#537);
#437=LINE('',#538,#539);
#438=FILL_AREA_STYLE_COLOUR('',#540);
#439=VERTEX_POINT('',#541);
#440=LINE('',#542,#543);
#441=VERTEX_POINT('',#544);
#442=LINE('',#545,#546);
#443=LINE('',#547,#548);
#444=FILL_AREA_STYLE_COLOUR('',#549);
#445=VERTEX_POINT('',#550);
#446=VERTEX_POINT('',#551);
#447=LINE('',#552,#553);
#448=LINE('',#554,#555);
#449=LINE('',#556,#557);
#450=FILL_AREA_STYLE_COLOUR('',#558);
#451=VERTEX_POINT('',#559);
#452=VERTEX_POINT('',#560);
#453=LINE('',#561,#562);
#454=LINE('',#563,#564);
#455=LINE('',#565,#566);
#456=FILL_AREA_STYLE_COLOUR('',#567);
#457=FILL_AREA_STYLE_COLOUR('',#568);
#458=VERTEX_POINT('',#569);
#459=LINE('',#570,#571);
#460=LINE('',#572,#573);
#461=FILL_AREA_STYLE_COLOUR('',#574);
#462=VERTEX_POINT('',#575);
#463=LINE('',#576,#577);
#464=LINE('',#578,#579);
#465=LINE('',#580,#581);
#466=LINE('',#582,#583);
#467=LINE('',#584,#585);
#468=FILL_AREA_STYLE_COLOUR('',#586);
#469=VERTEX_POINT('',#587);
#470=VERTEX_POINT('',#588);
#471=LINE('',#589,#590);
#472=VERTEX_POINT('',#591);
#473=CIRCLE('',#592,3.0);
#474=VERTEX_POINT('',#593);
#475=LINE('',#594,#595);
#476=VERTEX_POINT('',#596);
#477=CIRCLE('',#597,2.5);
#478=CIRCLE('',#598,2.5);
#479=FILL_AREA_STYLE_COLOUR('',#599);
#480=FILL_AREA_STYLE_COLOUR('',#600);
#481=VERTEX_POINT('',#601);
#482=VERTEX_POINT('',#602);
#483=LINE('',#603,#604);
#484=CIRCLE('',#605,2.5);
#485=VERTEX_POINT('',#606);
#486=LINE('',#607,#608);
#487=CIRCLE('',#609,2.5);
#488=FILL_AREA_STYLE_COLOUR('',#610);
#489=VERTEX_POINT('',#611);
#490=CIRCLE('',#612,3.0);
#491=CIRCLE('',#613,3.0);
#492=FILL_AREA_STYLE_COLOUR('',#614);
#493=CIRCLE('',#615,2.5);
#494=FILL_AREA_STYLE_COLOUR('',#616);
#495=CIRCLE('',#617,2.5);
#496=FILL_AREA_STYLE_COLOUR('',#618);
#497=LINE('',#619,#620);
#498=FILL_AREA_STYLE_COLOUR('',#621);
#499=FILL_AREA_STYLE_COLOUR('',#622);
#500=COLOUR_RGB('',0.509803950786591,0.509803950786591,0.588235318660736);
#501=CARTESIAN_POINT('',(-6.5,-1.12598846298224,-3.40000000000001));
#502=CARTESIAN_POINT('',(-4.90000000000001,0.474011537017759,-4.99999999999997));
#503=CARTESIAN_POINT('',(-1.71233525616958,3.66167628084818,-8.18766474383034));
#504=VECTOR('',#623,1.0);
#505=CARTESIAN_POINT('',(-6.5,-1.12598846298224,1.0));
#506=CARTESIAN_POINT('',(-6.5,-1.12598846298224,-4.19999999999999));
#507=VECTOR('',#624,1.0);
#508=CARTESIAN_POINT('',(-3.80000000000001,1.57401153701775,1.0));
#509=CARTESIAN_POINT('',(0.281497115745561,5.65550865276333,0.999999999999999));
#510=VECTOR('',#625,1.0);
#511=CARTESIAN_POINT('',(-3.80000000000001,1.57401153701775,5.0));
#512=CARTESIAN_POINT('',(-3.80000000000001,1.57401153701775,1.4210854715202E-014));
#513=VECTOR('',#626,1.0);
#514=CARTESIAN_POINT('',(3.80000000000001,9.17401153701778,5.0));
#515=CARTESIAN_POINT('',(2.85649711574556,8.23050865276333,5.0));
#516=VECTOR('',#627,1.0);
#517=CARTESIAN_POINT('',(3.80000000000001,9.17401153701778,0.999999999999999));
#518=CARTESIAN_POINT('',(3.80000000000001,9.17401153701778,-1.99999999999999));
#519=VECTOR('',#628,1.0);
#520=CARTESIAN_POINT('',(6.5,11.8740115370178,0.999999999999999));
#521=CARTESIAN_POINT('',(3.53149711574556,8.90550865276333,0.999999999999999));
#522=VECTOR('',#629,1.0);
#523=CARTESIAN_POINT('',(6.5,11.8740115370178,-3.40000000000001));
#524=CARTESIAN_POINT('',(6.5,11.8740115370178,-4.19999999999999));
#525=VECTOR('',#630,1.0);
#526=CARTESIAN_POINT('',(4.90000000000001,10.2740115370178,-5.0));
#527=CARTESIAN_POINT('',(3.72099807716371,9.09500961418148,-6.17900192283629));
#528=VECTOR('',#631,1.0);
#529=CARTESIAN_POINT('',(0.681497115745566,6.05550865276333,-5.0));
#530=VECTOR('',#632,1.0);
#531=COLOUR_RGB('',0.509803950786591,0.509803950786591,0.588235318660736);
#532=CARTESIAN_POINT('',(-3.80000000000001,-9.17401153701777,1.0));
#533=CARTESIAN_POINT('',(-3.80000000000001,-9.17401153701777,5.0));
#534=CARTESIAN_POINT('',(-3.80000000000001,-9.17401153701777,-1.99999999999999));
#535=VECTOR('',#633,1.0);
#536=CARTESIAN_POINT('',(-3.80000000000001,9.47015585849893E-015,5.0));
#537=VECTOR('',#634,1.0);
#538=CARTESIAN_POINT('',(-3.80000000000001,9.22523458773445E-015,1.0));
#539=VECTOR('',#635,1.0);
#540=COLOUR_RGB('',0.509803950786591,0.509803950786591,0.588235318660736);
#541=CARTESIAN_POINT('',(-4.89999999999998,-10.2740115370177,-5.0));
#542=CARTESIAN_POINT('',(-4.89999999999998,8.85785268158774E-015,-5.0));
#543=VECTOR('',#636,1.0);
#544=CARTESIAN_POINT('',(-6.5,-11.8740115370178,-3.4));
#545=CARTESIAN_POINT('',(-3.72099807716368,-9.09500961418144,-6.17900192283627));
#546=VECTOR('',#637,1.0);
#547=CARTESIAN_POINT('',(-6.5,8.95582118989353E-015,-3.40000000000001));
#548=VECTOR('',#638,1.0);
#549=COLOUR_RGB('',0.509803950786591,0.509803950786591,0.588235318660736);
#550=CARTESIAN_POINT('',(3.80000000000001,-1.57401153701773,1.0));
#551=CARTESIAN_POINT('',(6.49999999999997,1.12598846298226,1.0));
#552=CARTESIAN_POINT('',(-0.281497115745563,-5.65550865276331,1.0));
#553=VECTOR('',#639,1.0);
#554=CARTESIAN_POINT('',(6.5,9.22523458773445E-015,1.0));
#555=VECTOR('',#640,1.0);
#556=CARTESIAN_POINT('',(3.80000000000001,9.22523458773445E-015,1.0));
#557=VECTOR('',#641,1.0);
#558=COLOUR_RGB('',0.509803950786591,0.509803950786591,0.588235318660736);
#559=CARTESIAN_POINT('',(6.49999999999997,1.12598846298226,-3.40000000000003));
#560=CARTESIAN_POINT('',(4.90000000000001,-0.474011537017733,-5.0));
#561=CARTESIAN_POINT('',(1.1790019228363,-4.19500961418145,-8.72099807716371));
#562=VECTOR('',#642,1.0);
#563=CARTESIAN_POINT('',(4.90000000000001,8.85785268158774E-015,-5.0));
#564=VECTOR('',#643,1.0);
#565=CARTESIAN_POINT('',(6.5,8.95582118989353E-015,-3.40000000000001));
#566=VECTOR('',#644,1.0);
#567=COLOUR_RGB('',0.509803950786591,0.509803950786591,0.588235318660736);
#568=COLOUR_RGB('',0.509803950786591,0.509803950786591,0.588235318660736);
#569=CARTESIAN_POINT('',(3.80000000000001,-1.57401153701773,5.0));
#570=CARTESIAN_POINT('',(3.80000000000001,-1.57401153701773,1.4210854715202E-014));
#571=VECTOR('',#645,1.0);
#572=CARTESIAN_POINT('',(3.80000000000001,9.47015585849893E-015,5.0));
#573=VECTOR('',#646,1.0);
#574=COLOUR_RGB('',0.509803950786591,0.509803950786591,0.588235318660736);
#575=CARTESIAN_POINT('',(-6.5,-11.8740115370178,1.0));
#576=CARTESIAN_POINT('',(-3.53149711574556,-8.90550865276331,1.0));
#577=VECTOR('',#647,1.0);
#578=CARTESIAN_POINT('',(-6.5,-11.8740115370178,-4.19999999999999));
#579=VECTOR('',#648,1.0);
#580=CARTESIAN_POINT('',(-0.681497115745562,-6.05550865276331,-5.0));
#581=VECTOR('',#649,1.0);
#582=CARTESIAN_POINT('',(6.5,1.12598846298226,-4.19999999999999));
#583=VECTOR('',#650,1.0);
#584=CARTESIAN_POINT('',(-2.85649711574556,-8.23050865276332,5.0));
#585=VECTOR('',#651,1.0);
#586=COLOUR_RGB('',0.509803950786591,0.509803950786591,0.588235318660736);
#587=CARTESIAN_POINT('',(-4.39796579568446E-016,2.5,4.71132486540519));
#588=CARTESIAN_POINT('',(-5.27755895482137E-016,3.00000000000001,5.0));
#589=CARTESIAN_POINT('',(-4.80137723250073E-016,2.72931706131737,4.84372113248654));
#590=VECTOR('',#652,1.0);
#591=CARTESIAN_POINT('',(5.27755895482137E-016,-2.99999999999999,5.0));
#592=AXIS2_PLACEMENT_3D('',#653,#654,#655);
#593=CARTESIAN_POINT('',(4.39796579568449E-016,-2.5,4.71132486540519));
#594=CARTESIAN_POINT('',(4.80137723250073E-016,-2.72931706131735,4.84372113248654));
#595=VECTOR('',#656,1.0);
#596=CARTESIAN_POINT('',(-2.5,-3.06151588455594E-016,4.71132486540519));
#597=AXIS2_PLACEMENT_3D('',#657,#658,#659);
#598=AXIS2_PLACEMENT_3D('',#660,#661,#662);
#599=COLOUR_RGB('',0.509803950786591,0.509803950786591,0.588235318660736);
#600=COLOUR_RGB('',0.509803950786591,0.509803950786591,0.588235318660736);
#601=CARTESIAN_POINT('',(2.5,0.0,-4.99999999999997));
#602=CARTESIAN_POINT('',(2.5,9.47015585849893E-015,4.71132486540519));
#603=CARTESIAN_POINT('',(2.5,3.06151588455594E-016,-0.144337567297407));
#604=VECTOR('',#663,1.0);
#605=AXIS2_PLACEMENT_3D('',#664,#665,#666);
#606=CARTESIAN_POINT('',(-2.5,-3.06151588455594E-016,-5.0));
#607=CARTESIAN_POINT('',(-2.5,-3.06151588455594E-016,-0.144337567297407));
#608=VECTOR('',#667,1.0);
#609=AXIS2_PLACEMENT_3D('',#668,#669,#670);
#610=COLOUR_RGB('',0.509803950786591,0.509803950786591,0.588235318660736);
#611=CARTESIAN_POINT('',(3.0,9.47015585849893E-015,5.0));
#612=AXIS2_PLACEMENT_3D('',#671,#672,#673);
#613=AXIS2_PLACEMENT_3D('',#674,#675,#676);
#614=COLOUR_RGB('',0.509803950786591,0.509803950786591,0.588235318660736);
#615=AXIS2_PLACEMENT_3D('',#677,#678,#679);
#616=COLOUR_RGB('',0.509803950786591,0.509803950786591,0.588235318660736);
#617=AXIS2_PLACEMENT_3D('',#680,#681,#682);
#618=COLOUR_RGB('',0.509803950786591,0.509803950786591,0.588235318660736);
#619=CARTESIAN_POINT('',(-6.5,9.22523458773445E-015,1.0));
#620=VECTOR('',#683,1.0);
#621=COLOUR_RGB('',0.509803950786591,0.509803950786591,0.588235318660736);
#622=COLOUR_RGB('',0.509803950786591,0.509803950786591,0.588235318660736);
#623=DIRECTION('',(0.577350269189629,0.577350269189629,-0.577350269189619));
#624=DIRECTION('',(0.0,0.0,-1.0));
#625=DIRECTION('',(-0.707106781186548,-0.707106781186548,4.32963728535968E-017));
#626=DIRECTION('',(0.0,0.0,-1.0));
#627=DIRECTION('',(-0.707106781186548,-0.707106781186548,4.32963728535968E-017));
#628=DIRECTION('',(0.0,0.0,1.0));
#629=DIRECTION('',(-0.707106781186548,-0.707106781186548,4.32963728535968E-017));
#630=DIRECTION('',(0.0,0.0,1.0));
#631=DIRECTION('',(0.577350269189626,0.577350269189626,0.577350269189626));
#632=DIRECTION('',(0.707106781186548,0.707106781186548,-4.32963728535968E-017));
#633=DIRECTION('',(0.0,0.0,1.0));
#634=DIRECTION('',(0.0,-1.0,6.12303176911189E-017));
#635=DIRECTION('',(0.0,-1.0,6.12303176911189E-017));
#636=DIRECTION('',(0.0,-1.0,6.12303176911189E-017));
#637=DIRECTION('',(-0.577350269189629,-0.57735026918963,0.577350269189619));
#638=DIRECTION('',(0.0,-1.0,6.12303176911189E-017));
#639=DIRECTION('',(0.707106781186547,0.707106781186548,-4.32963728535968E-017));
#640=DIRECTION('',(0.0,1.0,-6.12303176911189E-017));
#641=DIRECTION('',(0.0,-1.0,6.12303176911189E-017));
#642=DIRECTION('',(-0.577350269189625,-0.577350269189627,-0.577350269189625));
#643=DIRECTION('',(0.0,-1.0,6.12303176911189E-017));
#644=DIRECTION('',(0.0,1.0,-6.12303176911189E-017));
#645=DIRECTION('',(0.0,0.0,-1.0));
#646=DIRECTION('',(0.0,-1.0,6.12303176911189E-017));
#647=DIRECTION('',(0.707106781186547,0.707106781186548,-4.32963728535968E-017));
#648=DIRECTION('',(0.0,0.0,1.0));
#649=DIRECTION('',(-0.707106781186547,-0.707106781186548,4.32963728535968E-017));
#650=DIRECTION('',(0.0,0.0,-1.0));
#651=DIRECTION('',(0.707106781186547,0.707106781186548,-4.32963728535968E-017));
#652=DIRECTION('',(-1.52350004161512E-016,0.866025403784439,0.5));
#653=CARTESIAN_POINT('',(0.0,9.47015585849893E-015,5.0));
#654=DIRECTION('',(1.18789542670764E-049,-6.12303176911189E-017,-1.0));
#655=DIRECTION('',(-5.34579964451412E-017,1.0,-6.12303176911189E-017));
#656=DIRECTION('',(-1.52350004161512E-016,0.866025403784439,-0.5));
#657=CARTESIAN_POINT('',(0.0,0.0,4.71132486540519));
#658=DIRECTION('',(0.0,0.0,1.0));
#659=DIRECTION('',(1.0,0.0,0.0));
#660=CARTESIAN_POINT('',(0.0,0.0,4.71132486540519));
#661=DIRECTION('',(0.0,0.0,1.0));
#662=DIRECTION('',(1.0,0.0,0.0));
#663=DIRECTION('',(-0.0,-0.0,1.0));
#664=CARTESIAN_POINT('',(0.0,0.0,4.71132486540519));
#665=DIRECTION('',(0.0,0.0,1.0));
#666=DIRECTION('',(1.0,0.0,0.0));
#667=DIRECTION('',(-0.0,-0.0,-1.0));
#668=CARTESIAN_POINT('',(0.0,0.0,-5.0));
#669=DIRECTION('',(-0.0,6.12303176911189E-017,1.0));
#670=DIRECTION('',(1.0,0.0,0.0));
#671=CARTESIAN_POINT('',(0.0,9.47015585849893E-015,5.0));
#672=DIRECTION('',(1.18789542670764E-049,-6.12303176911189E-017,-1.0));
#673=DIRECTION('',(-5.34579964451412E-017,1.0,-6.12303176911189E-017));
#674=CARTESIAN_POINT('',(0.0,9.47015585849893E-015,5.0));
#675=DIRECTION('',(1.18789542670764E-049,-6.12303176911189E-017,-1.0));
#676=DIRECTION('',(-5.34579964451412E-017,1.0,-6.12303176911189E-017));
#677=CARTESIAN_POINT('',(0.0,0.0,-5.0));
#678=DIRECTION('',(-0.0,6.12303176911189E-017,1.0));
#679=DIRECTION('',(1.0,0.0,0.0));
#680=CARTESIAN_POINT('',(0.0,0.0,4.71132486540519));
#681=DIRECTION('',(0.0,0.0,1.0));
#682=DIRECTION('',(1.0,0.0,0.0));
#683=DIRECTION('',(0.0,-1.0,6.12303176911189E-017));
ENDSEC;
END-ISO-10303-21;
