ISO-10303-21;
HEADER;
FILE_DESCRIPTION(('STEP AP214'),'1');
FILE_NAME(' ','  ',('TraceParts'),('TraceParts S.A.'),'XStep 1.0',' ',' ');
FILE_SCHEMA(('automotive_design'));
ENDSEC;
DATA;
#1=PRODUCT_DEFINITION_CONTEXT('',#9,'design');
#2=APPLICATION_PROTOCOL_DEFINITION('INTERNATIONAL STANDARD','automotive_design',1994,#9);
#3=PRODUCT_CATEGORY_RELATIONSHIP('NONE','NONE',#10,#11);
#4=SHAPE_DEFINITION_REPRESENTATION(#12,#13);
#5= (GEOMETRIC_REPRESENTATION_CONTEXT(3)GLOBAL_UNCERTAINTY_ASSIGNED_CONTEXT((#16))GLOBAL_UNIT_ASSIGNED_CONTEXT((#18,#19,#20))REPRESENTATION_CONTEXT('NONE','WORKSPACE'));
#9=APPLICATION_CONTEXT(' ');
#10=PRODUCT_CATEGORY('part','NONE');
#11=PRODUCT_RELATED_PRODUCT_CATEGORY('detail',' ',(#22));
#12=PRODUCT_DEFINITION_SHAPE('NONE','NONE',#23);
#13=ADVANCED_BREP_SHAPE_REPRESENTATION('1',(#24,#25),#5);
#16=UNCERTAINTY_MEASURE_WITH_UNIT(LENGTH_MEASURE(1.0E-006),#18,'','');
#18= (CONVERSION_BASED_UNIT('MILLIMETRE',#28)LENGTH_UNIT()NAMED_UNIT(#31));
#19= (NAMED_UNIT(#33)PLANE_ANGLE_UNIT()SI_UNIT($,.RADIAN.));
#20= (NAMED_UNIT(#33)SOLID_ANGLE_UNIT()SI_UNIT($,.STERADIAN.));
#22=PRODUCT('1','1','PART-1-DESC',(#39));
#23=PRODUCT_DEFINITION('NONE','NONE',#40,#1);
#24=MANIFOLD_SOLID_BREP('1',#41);
#25=AXIS2_PLACEMENT_3D('',#42,#43,#44);
#28=LENGTH_MEASURE_WITH_UNIT(LENGTH_MEASURE(1.0),#45);
#31=DIMENSIONAL_EXPONENTS(1.0,0.0,0.0,0.0,0.0,0.0,0.0);
#33=DIMENSIONAL_EXPONENTS(0.0,0.0,0.0,0.0,0.0,0.0,0.0);
#39=PRODUCT_CONTEXT('',#9,'mechanical');
#40=PRODUCT_DEFINITION_FORMATION_WITH_SPECIFIED_SOURCE(' ','NONE',#22,.NOT_KNOWN.);
#41=CLOSED_SHELL('',(#46,#47,#48,#49,#50,#51,#52,#53,#54,#55,#56,#57));
#42=CARTESIAN_POINT('',(0.0,0.0,0.0));
#43=DIRECTION('',(0.0,0.0,1.0));
#44=DIRECTION('',(1.0,0.0,0.0));
#45= (NAMED_UNIT(#31)LENGTH_UNIT()SI_UNIT(.MILLI.,.METRE.));
#46=ADVANCED_FACE('',(#59),#60,.T.);
#47=ADVANCED_FACE('',(#61),#62,.T.);
#48=ADVANCED_FACE('',(#63),#64,.T.);
#49=ADVANCED_FACE('',(#65),#66,.T.);
#50=ADVANCED_FACE('',(#67),#68,.T.);
#51=ADVANCED_FACE('',(#69),#70,.T.);
#52=ADVANCED_FACE('',(#71),#72,.T.);
#53=ADVANCED_FACE('',(#73),#74,.F.);
#54=ADVANCED_FACE('',(#75),#76,.T.);
#55=ADVANCED_FACE('',(#77),#78,.T.);
#56=ADVANCED_FACE('',(#79),#80,.T.);
#57=ADVANCED_FACE('',(#81),#82,.T.);
#59=FACE_OUTER_BOUND('',#83,.T.);
#60=PLANE('',#84);
#61=FACE_OUTER_BOUND('',#85,.T.);
#62=PLANE('',#86);
#63=FACE_OUTER_BOUND('',#87,.T.);
#64=PLANE('',#88);
#65=FACE_OUTER_BOUND('',#89,.T.);
#66=PLANE('',#90);
#67=FACE_OUTER_BOUND('',#91,.T.);
#68=PLANE('',#92);
#69=FACE_OUTER_BOUND('',#93,.T.);
#70=PLANE('',#94);
#71=FACE_OUTER_BOUND('',#95,.T.);
#72=PLANE('',#96);
#73=FACE_OUTER_BOUND('',#97,.T.);
#74=PLANE('',#98);
#75=FACE_OUTER_BOUND('',#99,.T.);
#76=PLANE('',#100);
#77=FACE_OUTER_BOUND('',#101,.T.);
#78=PLANE('',#102);
#79=FACE_OUTER_BOUND('',#103,.T.);
#80=PLANE('',#104);
#81=FACE_OUTER_BOUND('',#105,.T.);
#82=PLANE('',#106);
#83=EDGE_LOOP('',(#107,#108,#109,#110));
#84=AXIS2_PLACEMENT_3D('',#111,#112,#113);
#85=EDGE_LOOP('',(#114,#115,#116,#117));
#86=AXIS2_PLACEMENT_3D('',#118,#119,#120);
#87=EDGE_LOOP('',(#121,#122,#123,#124));
#88=AXIS2_PLACEMENT_3D('',#125,#126,#127);
#89=EDGE_LOOP('',(#128,#129,#130,#131));
#90=AXIS2_PLACEMENT_3D('',#132,#133,#134);
#91=EDGE_LOOP('',(#135,#136,#137,#138));
#92=AXIS2_PLACEMENT_3D('',#139,#140,#141);
#93=EDGE_LOOP('',(#142,#143,#144,#145));
#94=AXIS2_PLACEMENT_3D('',#146,#147,#148);
#95=EDGE_LOOP('',(#149,#150,#151,#152));
#96=AXIS2_PLACEMENT_3D('',#153,#154,#155);
#97=EDGE_LOOP('',(#156,#157,#158,#159,#160,#161,#162,#163,#164,#165));
#98=AXIS2_PLACEMENT_3D('',#166,#167,#168);
#99=EDGE_LOOP('',(#169,#170,#171,#172));
#100=AXIS2_PLACEMENT_3D('',#173,#174,#175);
#101=EDGE_LOOP('',(#176,#177,#178,#179));
#102=AXIS2_PLACEMENT_3D('',#180,#181,#182);
#103=EDGE_LOOP('',(#183,#184,#185,#186));
#104=AXIS2_PLACEMENT_3D('',#187,#188,#189);
#105=EDGE_LOOP('',(#190,#191,#192,#193,#194,#195,#196,#197,#198,#199));
#106=AXIS2_PLACEMENT_3D('',#200,#201,#202);
#107=ORIENTED_EDGE('',*,*,#203,.F.);
#108=ORIENTED_EDGE('',*,*,#204,.T.);
#109=ORIENTED_EDGE('',*,*,#205,.T.);
#110=ORIENTED_EDGE('',*,*,#206,.T.);
#111=CARTESIAN_POINT('',(-23.75,0.0,0.0));
#112=DIRECTION('',(0.0,0.0,1.0));
#113=DIRECTION('',(1.0,0.0,0.0));
#114=ORIENTED_EDGE('',*,*,#207,.F.);
#115=ORIENTED_EDGE('',*,*,#208,.T.);
#116=ORIENTED_EDGE('',*,*,#209,.F.);
#117=ORIENTED_EDGE('',*,*,#210,.T.);
#118=CARTESIAN_POINT('',(-23.75,0.0,0.0));
#119=DIRECTION('',(0.0,0.0,1.0));
#120=DIRECTION('',(1.0,0.0,0.0));
#121=ORIENTED_EDGE('',*,*,#211,.T.);
#122=ORIENTED_EDGE('',*,*,#212,.F.);
#123=ORIENTED_EDGE('',*,*,#213,.T.);
#124=ORIENTED_EDGE('',*,*,#209,.T.);
#125=CARTESIAN_POINT('',(-37.5,0.0,0.0));
#126=DIRECTION('',(-1.0,0.0,2.22044604925031E-016));
#127=DIRECTION('',(2.22044604925031E-016,0.0,1.0));
#128=ORIENTED_EDGE('',*,*,#214,.T.);
#129=ORIENTED_EDGE('',*,*,#215,.F.);
#130=ORIENTED_EDGE('',*,*,#216,.T.);
#131=ORIENTED_EDGE('',*,*,#212,.T.);
#132=CARTESIAN_POINT('',(-37.5,0.0,-20.0));
#133=DIRECTION('',(-0.707106781186548,0.0,-0.707106781186548));
#134=DIRECTION('',(-0.707106781186548,0.0,0.707106781186548));
#135=ORIENTED_EDGE('',*,*,#217,.T.);
#136=ORIENTED_EDGE('',*,*,#218,.F.);
#137=ORIENTED_EDGE('',*,*,#219,.T.);
#138=ORIENTED_EDGE('',*,*,#215,.T.);
#139=CARTESIAN_POINT('',(-27.5,0.0,-30.0));
#140=DIRECTION('',(-2.42230478100034E-016,0.0,-1.0));
#141=DIRECTION('',(-1.0,0.0,2.42230478100034E-016));
#142=ORIENTED_EDGE('',*,*,#220,.T.);
#143=ORIENTED_EDGE('',*,*,#221,.F.);
#144=ORIENTED_EDGE('',*,*,#222,.T.);
#145=ORIENTED_EDGE('',*,*,#218,.T.);
#146=CARTESIAN_POINT('',(27.5,0.0,-30.0));
#147=DIRECTION('',(0.707106781186548,0.0,-0.707106781186548));
#148=DIRECTION('',(-0.707106781186548,0.0,-0.707106781186548));
#149=ORIENTED_EDGE('',*,*,#223,.T.);
#150=ORIENTED_EDGE('',*,*,#205,.F.);
#151=ORIENTED_EDGE('',*,*,#224,.T.);
#152=ORIENTED_EDGE('',*,*,#221,.T.);
#153=CARTESIAN_POINT('',(37.5,0.0,-20.0));
#154=DIRECTION('',(1.0,0.0,0.0));
#155=DIRECTION('',(0.0,0.0,-1.0));
#156=ORIENTED_EDGE('',*,*,#225,.F.);
#157=ORIENTED_EDGE('',*,*,#226,.F.);
#158=ORIENTED_EDGE('',*,*,#210,.F.);
#159=ORIENTED_EDGE('',*,*,#213,.F.);
#160=ORIENTED_EDGE('',*,*,#216,.F.);
#161=ORIENTED_EDGE('',*,*,#219,.F.);
#162=ORIENTED_EDGE('',*,*,#222,.F.);
#163=ORIENTED_EDGE('',*,*,#224,.F.);
#164=ORIENTED_EDGE('',*,*,#204,.F.);
#165=ORIENTED_EDGE('',*,*,#227,.F.);
#166=CARTESIAN_POINT('',(-1.60510249601232E-015,-37.5,15.0));
#167=DIRECTION('',(0.0,1.0,0.0));
#168=DIRECTION('',(0.0,0.0,1.0));
#169=ORIENTED_EDGE('',*,*,#228,.T.);
#170=ORIENTED_EDGE('',*,*,#229,.F.);
#171=ORIENTED_EDGE('',*,*,#227,.T.);
#172=ORIENTED_EDGE('',*,*,#203,.T.);
#173=CARTESIAN_POINT('',(23.75,0.0,0.0));
#174=DIRECTION('',(1.0,0.0,0.0));
#175=DIRECTION('',(0.0,0.0,-1.0));
#176=ORIENTED_EDGE('',*,*,#230,.T.);
#177=ORIENTED_EDGE('',*,*,#231,.F.);
#178=ORIENTED_EDGE('',*,*,#225,.T.);
#179=ORIENTED_EDGE('',*,*,#229,.T.);
#180=CARTESIAN_POINT('',(23.75,0.0,30.0));
#181=DIRECTION('',(2.80477395694776E-016,0.0,1.0));
#182=DIRECTION('',(1.0,0.0,-2.80477395694776E-016));
#183=ORIENTED_EDGE('',*,*,#232,.T.);
#184=ORIENTED_EDGE('',*,*,#207,.T.);
#185=ORIENTED_EDGE('',*,*,#226,.T.);
#186=ORIENTED_EDGE('',*,*,#231,.T.);
#187=CARTESIAN_POINT('',(-23.75,0.0,30.0));
#188=DIRECTION('',(-1.0,0.0,0.0));
#189=DIRECTION('',(0.0,0.0,1.0));
#190=ORIENTED_EDGE('',*,*,#232,.F.);
#191=ORIENTED_EDGE('',*,*,#230,.F.);
#192=ORIENTED_EDGE('',*,*,#228,.F.);
#193=ORIENTED_EDGE('',*,*,#206,.F.);
#194=ORIENTED_EDGE('',*,*,#223,.F.);
#195=ORIENTED_EDGE('',*,*,#220,.F.);
#196=ORIENTED_EDGE('',*,*,#217,.F.);
#197=ORIENTED_EDGE('',*,*,#214,.F.);
#198=ORIENTED_EDGE('',*,*,#211,.F.);
#199=ORIENTED_EDGE('',*,*,#208,.F.);
#200=CARTESIAN_POINT('',(-1.72556657786315E-015,37.5,15.0));
#201=DIRECTION('',(0.0,1.0,0.0));
#202=DIRECTION('',(0.0,0.0,1.0));
#203=EDGE_CURVE('',#233,#234,#235,.T.);
#204=EDGE_CURVE('',#233,#236,#237,.T.);
#205=EDGE_CURVE('',#236,#238,#239,.T.);
#206=EDGE_CURVE('',#238,#234,#240,.T.);
#207=EDGE_CURVE('',#241,#242,#243,.T.);
#208=EDGE_CURVE('',#241,#244,#245,.T.);
#209=EDGE_CURVE('',#246,#244,#247,.T.);
#210=EDGE_CURVE('',#246,#242,#248,.T.);
#211=EDGE_CURVE('',#244,#249,#250,.T.);
#212=EDGE_CURVE('',#251,#249,#252,.T.);
#213=EDGE_CURVE('',#251,#246,#253,.T.);
#214=EDGE_CURVE('',#249,#254,#255,.T.);
#215=EDGE_CURVE('',#256,#254,#257,.T.);
#216=EDGE_CURVE('',#256,#251,#258,.T.);
#217=EDGE_CURVE('',#254,#259,#260,.T.);
#218=EDGE_CURVE('',#261,#259,#262,.T.);
#219=EDGE_CURVE('',#261,#256,#263,.T.);
#220=EDGE_CURVE('',#259,#264,#265,.T.);
#221=EDGE_CURVE('',#266,#264,#267,.T.);
#222=EDGE_CURVE('',#266,#261,#268,.T.);
#223=EDGE_CURVE('',#264,#238,#269,.T.);
#224=EDGE_CURVE('',#236,#266,#270,.T.);
#225=EDGE_CURVE('',#271,#272,#273,.T.);
#226=EDGE_CURVE('',#242,#271,#274,.T.);
#227=EDGE_CURVE('',#272,#233,#275,.T.);
#228=EDGE_CURVE('',#234,#276,#277,.T.);
#229=EDGE_CURVE('',#272,#276,#278,.T.);
#230=EDGE_CURVE('',#276,#279,#280,.T.);
#231=EDGE_CURVE('',#271,#279,#281,.T.);
#232=EDGE_CURVE('',#279,#241,#282,.T.);
#233=VERTEX_POINT('',#283);
#234=VERTEX_POINT('',#284);
#235=LINE('',#285,#286);
#236=VERTEX_POINT('',#287);
#237=LINE('',#288,#289);
#238=VERTEX_POINT('',#290);
#239=LINE('',#291,#292);
#240=LINE('',#293,#294);
#241=VERTEX_POINT('',#295);
#242=VERTEX_POINT('',#296);
#243=LINE('',#297,#298);
#244=VERTEX_POINT('',#299);
#245=LINE('',#300,#301);
#246=VERTEX_POINT('',#302);
#247=LINE('',#303,#304);
#248=LINE('',#305,#306);
#249=VERTEX_POINT('',#307);
#250=LINE('',#308,#309);
#251=VERTEX_POINT('',#310);
#252=LINE('',#311,#312);
#253=LINE('',#313,#314);
#254=VERTEX_POINT('',#315);
#255=LINE('',#316,#317);
#256=VERTEX_POINT('',#318);
#257=LINE('',#319,#320);
#258=LINE('',#321,#322);
#259=VERTEX_POINT('',#323);
#260=LINE('',#324,#325);
#261=VERTEX_POINT('',#326);
#262=LINE('',#327,#328);
#263=LINE('',#329,#330);
#264=VERTEX_POINT('',#331);
#265=LINE('',#332,#333);
#266=VERTEX_POINT('',#334);
#267=LINE('',#335,#336);
#268=LINE('',#337,#338);
#269=LINE('',#339,#340);
#270=LINE('',#341,#342);
#271=VERTEX_POINT('',#343);
#272=VERTEX_POINT('',#344);
#273=LINE('',#345,#346);
#274=LINE('',#347,#348);
#275=LINE('',#349,#350);
#276=VERTEX_POINT('',#351);
#277=LINE('',#352,#353);
#278=LINE('',#354,#355);
#279=VERTEX_POINT('',#356);
#280=LINE('',#357,#358);
#281=LINE('',#359,#360);
#282=LINE('',#361,#362);
#283=CARTESIAN_POINT('',(23.75,-37.5,0.0));
#284=CARTESIAN_POINT('',(23.75,37.5,0.0));
#285=CARTESIAN_POINT('',(23.75,0.0,0.0));
#286=VECTOR('',#363,10.0);
#287=CARTESIAN_POINT('',(37.5,-37.5,0.0));
#288=CARTESIAN_POINT('',(23.75,-37.5,0.0));
#289=VECTOR('',#364,10.0);
#290=CARTESIAN_POINT('',(37.5,37.5,0.0));
#291=CARTESIAN_POINT('',(37.5,0.0,0.0));
#292=VECTOR('',#365,10.0);
#293=CARTESIAN_POINT('',(-37.5,37.5,0.0));
#294=VECTOR('',#366,10.0);
#295=CARTESIAN_POINT('',(-23.75,37.5,0.0));
#296=CARTESIAN_POINT('',(-23.75,-37.5,0.0));
#297=CARTESIAN_POINT('',(-23.75,0.0,0.0));
#298=VECTOR('',#367,10.0);
#299=CARTESIAN_POINT('',(-37.5,37.5,0.0));
#300=CARTESIAN_POINT('',(-37.5,37.5,0.0));
#301=VECTOR('',#368,10.0);
#302=CARTESIAN_POINT('',(-37.5,-37.5,0.0));
#303=CARTESIAN_POINT('',(-37.5,0.0,0.0));
#304=VECTOR('',#369,10.0);
#305=CARTESIAN_POINT('',(23.75,-37.5,0.0));
#306=VECTOR('',#370,10.0);
#307=CARTESIAN_POINT('',(-37.5,37.5,-20.0));
#308=CARTESIAN_POINT('',(-37.5,37.5,-20.0));
#309=VECTOR('',#371,10.0);
#310=CARTESIAN_POINT('',(-37.5,-37.5,-20.0));
#311=CARTESIAN_POINT('',(-37.5,0.0,-20.0));
#312=VECTOR('',#372,10.0);
#313=CARTESIAN_POINT('',(-37.5,-37.5,-20.0));
#314=VECTOR('',#373,10.0);
#315=CARTESIAN_POINT('',(-27.5,37.5,-30.0));
#316=CARTESIAN_POINT('',(-27.5,37.5,-30.0));
#317=VECTOR('',#374,10.0);
#318=CARTESIAN_POINT('',(-27.5,-37.5,-30.0));
#319=CARTESIAN_POINT('',(-27.5,0.0,-30.0));
#320=VECTOR('',#375,10.0);
#321=CARTESIAN_POINT('',(-27.5,-37.5,-30.0));
#322=VECTOR('',#376,10.0);
#323=CARTESIAN_POINT('',(27.5,37.5,-30.0));
#324=CARTESIAN_POINT('',(27.5,37.5,-30.0));
#325=VECTOR('',#377,10.0);
#326=CARTESIAN_POINT('',(27.5,-37.5,-30.0));
#327=CARTESIAN_POINT('',(27.5,0.0,-30.0));
#328=VECTOR('',#378,10.0);
#329=CARTESIAN_POINT('',(27.5,-37.5,-30.0));
#330=VECTOR('',#379,10.0);
#331=CARTESIAN_POINT('',(37.5,37.5,-20.0));
#332=CARTESIAN_POINT('',(37.5,37.5,-20.0));
#333=VECTOR('',#380,10.0);
#334=CARTESIAN_POINT('',(37.5,-37.5,-20.0));
#335=CARTESIAN_POINT('',(37.5,0.0,-20.0));
#336=VECTOR('',#381,10.0);
#337=CARTESIAN_POINT('',(37.5,-37.5,-20.0));
#338=VECTOR('',#382,10.0);
#339=CARTESIAN_POINT('',(37.5,37.5,0.0));
#340=VECTOR('',#383,10.0);
#341=CARTESIAN_POINT('',(37.5,-37.5,0.0));
#342=VECTOR('',#384,10.0);
#343=CARTESIAN_POINT('',(-23.75,-37.5,30.0));
#344=CARTESIAN_POINT('',(23.75,-37.5,30.0));
#345=CARTESIAN_POINT('',(-23.75,-37.5,30.0));
#346=VECTOR('',#385,10.0);
#347=CARTESIAN_POINT('',(-23.75,-37.5,0.0));
#348=VECTOR('',#386,10.0);
#349=CARTESIAN_POINT('',(23.75,-37.5,30.0));
#350=VECTOR('',#387,10.0);
#351=CARTESIAN_POINT('',(23.75,37.5,30.0));
#352=CARTESIAN_POINT('',(23.75,37.5,30.0));
#353=VECTOR('',#388,10.0);
#354=CARTESIAN_POINT('',(23.75,0.0,30.0));
#355=VECTOR('',#389,10.0);
#356=CARTESIAN_POINT('',(-23.75,37.5,30.0));
#357=CARTESIAN_POINT('',(-23.75,37.5,30.0));
#358=VECTOR('',#390,10.0);
#359=CARTESIAN_POINT('',(-23.75,0.0,30.0));
#360=VECTOR('',#391,10.0);
#361=CARTESIAN_POINT('',(-23.75,37.5,0.0));
#362=VECTOR('',#392,10.0);
#363=DIRECTION('',(0.0,1.0,0.0));
#364=DIRECTION('',(1.0,0.0,0.0));
#365=DIRECTION('',(0.0,1.0,0.0));
#366=DIRECTION('',(-1.0,-0.0,-0.0));
#367=DIRECTION('',(0.0,-1.0,0.0));
#368=DIRECTION('',(-1.0,-0.0,-0.0));
#369=DIRECTION('',(0.0,1.0,0.0));
#370=DIRECTION('',(1.0,0.0,0.0));
#371=DIRECTION('',(-2.22044604925031E-016,-0.0,-1.0));
#372=DIRECTION('',(0.0,1.0,0.0));
#373=DIRECTION('',(2.22044604925031E-016,0.0,1.0));
#374=DIRECTION('',(0.707106781186548,0.0,-0.707106781186548));
#375=DIRECTION('',(0.0,1.0,0.0));
#376=DIRECTION('',(-0.707106781186548,0.0,0.707106781186548));
#377=DIRECTION('',(1.0,0.0,-2.42230478100034E-016));
#378=DIRECTION('',(0.0,1.0,0.0));
#379=DIRECTION('',(-1.0,0.0,2.42230478100034E-016));
#380=DIRECTION('',(0.707106781186548,0.0,0.707106781186548));
#381=DIRECTION('',(0.0,1.0,0.0));
#382=DIRECTION('',(-0.707106781186548,0.0,-0.707106781186548));
#383=DIRECTION('',(0.0,0.0,1.0));
#384=DIRECTION('',(-0.0,-0.0,-1.0));
#385=DIRECTION('',(1.0,0.0,-2.80477395694776E-016));
#386=DIRECTION('',(0.0,0.0,1.0));
#387=DIRECTION('',(0.0,0.0,-1.0));
#388=DIRECTION('',(0.0,0.0,1.0));
#389=DIRECTION('',(0.0,1.0,0.0));
#390=DIRECTION('',(-1.0,0.0,2.80477395694776E-016));
#391=DIRECTION('',(0.0,1.0,0.0));
#392=DIRECTION('',(-0.0,-0.0,-1.0));
ENDSEC;
END-ISO-10303-21;
