ISO-10303-21;
HEADER;
FILE_DESCRIPTION(('STEP AP214'),'1');
FILE_NAME('HALDERN_EH_22690_0164.stp','2017-07-04T09:13:51',('TraceParts'),('TraceParts S.A.'),'Spatial InterOp 3D',' ',' ');
FILE_SCHEMA(('automotive_design'));
ENDSEC;
DATA;
#1=PRODUCT_DEFINITION_CONTEXT('',#9,'design');
#2=APPLICATION_PROTOCOL_DEFINITION('INTERNATIONAL STANDARD','automotive_design',1994,#9);
#3=PRODUCT_CATEGORY_RELATIONSHIP('NONE','NONE',#10,#11);
#4=SHAPE_DEFINITION_REPRESENTATION(#12,#13);
#5= (GEOMETRIC_REPRESENTATION_CONTEXT(3)GLOBAL_UNCERTAINTY_ASSIGNED_CONTEXT((#16))GLOBAL_UNIT_ASSIGNED_CONTEXT((#18,#19,#20))REPRESENTATION_CONTEXT('NONE','WORKSPACE'));
#9=APPLICATION_CONTEXT(' ');
#10=PRODUCT_CATEGORY('part','NONE');
#11=PRODUCT_RELATED_PRODUCT_CATEGORY('detail',' ',(#22));
#12=PRODUCT_DEFINITION_SHAPE('NONE','NONE',#23);
#13=ADVANCED_BREP_SHAPE_REPRESENTATION('HALDERN_EH_22690_0164',(#24,#25),#5);
#16=UNCERTAINTY_MEASURE_WITH_UNIT(LENGTH_MEASURE(1.0E-006),#18,'','');
#18= (CONVERSION_BASED_UNIT('MILLIMETRE',#28)LENGTH_UNIT()NAMED_UNIT(#31));
#19= (NAMED_UNIT(#33)PLANE_ANGLE_UNIT()SI_UNIT($,.RADIAN.));
#20= (NAMED_UNIT(#33)SOLID_ANGLE_UNIT()SI_UNIT($,.STERADIAN.));
#22=PRODUCT('HALDERN_EH_22690_0164','HALDERN_EH_22690_0164','PART-HALDERN_EH_22690_0164-DESC',(#39));
#23=PRODUCT_DEFINITION('NONE','NONE',#40,#1);
#24=MANIFOLD_SOLID_BREP('HALDERN_EH_22690_0164',#41);
#25=AXIS2_PLACEMENT_3D('',#42,#43,#44);
#28=LENGTH_MEASURE_WITH_UNIT(LENGTH_MEASURE(1.0),#45);
#31=DIMENSIONAL_EXPONENTS(1.0,0.0,0.0,0.0,0.0,0.0,0.0);
#33=DIMENSIONAL_EXPONENTS(0.0,0.0,0.0,0.0,0.0,0.0,0.0);
#39=PRODUCT_CONTEXT('',#9,'mechanical');
#40=PRODUCT_DEFINITION_FORMATION_WITH_SPECIFIED_SOURCE(' ','NONE',#22,.NOT_KNOWN.);
#41=CLOSED_SHELL('',(#46,#47,#48,#49,#50,#51,#52,#53,#54,#55,#56,#57,#58,#59,#60,#61,#62,#63,#64,#65));
#42=CARTESIAN_POINT('',(0.0,0.0,0.0));
#43=DIRECTION('',(0.0,0.0,1.0));
#44=DIRECTION('',(1.0,0.0,0.0));
#45= (NAMED_UNIT(#31)LENGTH_UNIT()SI_UNIT(.MILLI.,.METRE.));
#46=ADVANCED_FACE('',(#67),#68,.T.);
#47=ADVANCED_FACE('',(#69),#70,.T.);
#48=ADVANCED_FACE('',(#71),#72,.T.);
#49=ADVANCED_FACE('',(#73),#74,.T.);
#50=ADVANCED_FACE('',(#75),#76,.T.);
#51=ADVANCED_FACE('',(#77),#78,.T.);
#52=ADVANCED_FACE('',(#79),#80,.T.);
#53=ADVANCED_FACE('',(#81),#82,.T.);
#54=ADVANCED_FACE('',(#83),#84,.T.);
#55=ADVANCED_FACE('',(#85),#86,.T.);
#56=ADVANCED_FACE('',(#87),#88,.T.);
#57=ADVANCED_FACE('',(#89),#90,.T.);
#58=ADVANCED_FACE('',(#91),#92,.T.);
#59=ADVANCED_FACE('',(#93),#94,.T.);
#60=ADVANCED_FACE('',(#95),#96,.T.);
#61=ADVANCED_FACE('',(#97,#98),#99,.T.);
#62=ADVANCED_FACE('',(#100),#101,.T.);
#63=ADVANCED_FACE('',(#102),#103,.T.);
#64=ADVANCED_FACE('',(#104),#105,.T.);
#65=ADVANCED_FACE('',(#106),#107,.T.);
#67=FACE_OUTER_BOUND('',#108,.T.);
#68=CYLINDRICAL_SURFACE('',#109,12.0);
#69=FACE_OUTER_BOUND('',#110,.T.);
#70=CONICAL_SURFACE('',#111,11.1875,0.785398163397449);
#71=FACE_OUTER_BOUND('',#112,.T.);
#72=SPHERICAL_SURFACE('',#113,74.9999999999998);
#73=FACE_OUTER_BOUND('',#114,.T.);
#74=CYLINDRICAL_SURFACE('',#115,23.0);
#75=FACE_OUTER_BOUND('',#116,.T.);
#76=CYLINDRICAL_SURFACE('',#117,23.0);
#77=FACE_OUTER_BOUND('',#118,.T.);
#78=CYLINDRICAL_SURFACE('',#119,23.0);
#79=FACE_OUTER_BOUND('',#120,.T.);
#80=CYLINDRICAL_SURFACE('',#121,23.0);
#81=FACE_OUTER_BOUND('',#122,.T.);
#82=CYLINDRICAL_SURFACE('',#123,23.0);
#83=FACE_OUTER_BOUND('',#124,.T.);
#84=CYLINDRICAL_SURFACE('',#125,23.0);
#85=FACE_OUTER_BOUND('',#126,.T.);
#86=PLANE('',#127);
#87=FACE_OUTER_BOUND('',#128,.T.);
#88=PLANE('',#129);
#89=FACE_OUTER_BOUND('',#130,.T.);
#90=PLANE('',#131);
#91=FACE_OUTER_BOUND('',#132,.T.);
#92=PLANE('',#133);
#93=FACE_OUTER_BOUND('',#134,.T.);
#94=PLANE('',#135);
#95=FACE_OUTER_BOUND('',#136,.T.);
#96=SPHERICAL_SURFACE('',#137,74.9999999999998);
#97=FACE_OUTER_BOUND('',#138,.T.);
#98=FACE_BOUND('',#139,.T.);
#99=PLANE('',#140);
#100=FACE_OUTER_BOUND('',#141,.T.);
#101=PLANE('',#142);
#102=FACE_OUTER_BOUND('',#143,.T.);
#103=PLANE('',#144);
#104=FACE_OUTER_BOUND('',#145,.T.);
#105=CONICAL_SURFACE('',#146,11.1875,0.785398163397449);
#106=FACE_OUTER_BOUND('',#147,.T.);
#107=CYLINDRICAL_SURFACE('',#148,12.0);
#108=EDGE_LOOP('',(#149,#150,#151,#152));
#109=AXIS2_PLACEMENT_3D('',#153,#154,#155);
#110=EDGE_LOOP('',(#156,#157,#158,#159));
#111=AXIS2_PLACEMENT_3D('',#160,#161,#162);
#112=EDGE_LOOP('',(#163,#164,#165,#166,#167,#168,#169,#170,#171));
#113=AXIS2_PLACEMENT_3D('',#172,#173,#174);
#114=EDGE_LOOP('',(#175,#176,#177,#178));
#115=AXIS2_PLACEMENT_3D('',#179,#180,#181);
#116=EDGE_LOOP('',(#182,#183,#184,#185));
#117=AXIS2_PLACEMENT_3D('',#186,#187,#188);
#118=EDGE_LOOP('',(#189,#190,#191,#192));
#119=AXIS2_PLACEMENT_3D('',#193,#194,#195);
#120=EDGE_LOOP('',(#196,#197,#198,#199));
#121=AXIS2_PLACEMENT_3D('',#200,#201,#202);
#122=EDGE_LOOP('',(#203,#204,#205,#206));
#123=AXIS2_PLACEMENT_3D('',#207,#208,#209);
#124=EDGE_LOOP('',(#210,#211,#212,#213));
#125=AXIS2_PLACEMENT_3D('',#214,#215,#216);
#126=EDGE_LOOP('',(#217,#218,#219,#220,#221));
#127=AXIS2_PLACEMENT_3D('',#222,#223,#224);
#128=EDGE_LOOP('',(#225,#226,#227,#228));
#129=AXIS2_PLACEMENT_3D('',#229,#230,#231);
#130=EDGE_LOOP('',(#232,#233,#234,#235));
#131=AXIS2_PLACEMENT_3D('',#236,#237,#238);
#132=EDGE_LOOP('',(#239,#240,#241,#242,#243));
#133=AXIS2_PLACEMENT_3D('',#244,#245,#246);
#134=EDGE_LOOP('',(#247,#248,#249,#250));
#135=AXIS2_PLACEMENT_3D('',#251,#252,#253);
#136=EDGE_LOOP('',(#254,#255,#256,#257,#258,#259,#260,#261,#262));
#137=AXIS2_PLACEMENT_3D('',#263,#264,#265);
#138=EDGE_LOOP('',(#266,#267,#268,#269,#270,#271,#272,#273,#274,#275,#276,#277));
#139=EDGE_LOOP('',(#278,#279));
#140=AXIS2_PLACEMENT_3D('',#280,#281,#282);
#141=EDGE_LOOP('',(#283,#284,#285,#286));
#142=AXIS2_PLACEMENT_3D('',#287,#288,#289);
#143=EDGE_LOOP('',(#290,#291));
#144=AXIS2_PLACEMENT_3D('',#292,#293,#294);
#145=EDGE_LOOP('',(#295,#296,#297,#298));
#146=AXIS2_PLACEMENT_3D('',#299,#300,#301);
#147=EDGE_LOOP('',(#302,#303,#304,#305));
#148=AXIS2_PLACEMENT_3D('',#306,#307,#308);
#149=ORIENTED_EDGE('',*,*,#309,.F.);
#150=ORIENTED_EDGE('',*,*,#310,.T.);
#151=ORIENTED_EDGE('',*,*,#311,.F.);
#152=ORIENTED_EDGE('',*,*,#312,.F.);
#153=CARTESIAN_POINT('',(-3.21901637369066E-015,0.0,-13.6875));
#154=DIRECTION('',(2.35179278443153E-016,0.0,1.0));
#155=DIRECTION('',(1.0,0.0,-2.35179278443153E-016));
#156=ORIENTED_EDGE('',*,*,#313,.F.);
#157=ORIENTED_EDGE('',*,*,#314,.T.);
#158=ORIENTED_EDGE('',*,*,#315,.F.);
#159=ORIENTED_EDGE('',*,*,#310,.F.);
#160=CARTESIAN_POINT('',(-6.62911591111638E-015,0.0,-28.1875));
#161=DIRECTION('',(2.35179278443153E-016,-0.0,1.0));
#162=DIRECTION('',(1.0,0.0,-2.35179278443153E-016));
#163=ORIENTED_EDGE('',*,*,#316,.F.);
#164=ORIENTED_EDGE('',*,*,#317,.F.);
#165=ORIENTED_EDGE('',*,*,#318,.F.);
#166=ORIENTED_EDGE('',*,*,#319,.F.);
#167=ORIENTED_EDGE('',*,*,#320,.F.);
#168=ORIENTED_EDGE('',*,*,#321,.F.);
#169=ORIENTED_EDGE('',*,*,#322,.F.);
#170=ORIENTED_EDGE('',*,*,#323,.F.);
#171=ORIENTED_EDGE('',*,*,#324,.F.);
#172=CARTESIAN_POINT('',(7.99360577730113E-014,0.0,-44.9999999999998));
#173=DIRECTION('',(0.0,0.0,1.0));
#174=DIRECTION('',(1.0,0.0,0.0));
#175=ORIENTED_EDGE('',*,*,#325,.T.);
#176=ORIENTED_EDGE('',*,*,#326,.T.);
#177=ORIENTED_EDGE('',*,*,#327,.T.);
#178=ORIENTED_EDGE('',*,*,#328,.T.);
#179=CARTESIAN_POINT('',(0.0,0.0,0.5));
#180=DIRECTION('',(0.0,0.0,1.0));
#181=DIRECTION('',(1.0,0.0,0.0));
#182=ORIENTED_EDGE('',*,*,#329,.T.);
#183=ORIENTED_EDGE('',*,*,#330,.T.);
#184=ORIENTED_EDGE('',*,*,#331,.T.);
#185=ORIENTED_EDGE('',*,*,#332,.T.);
#186=CARTESIAN_POINT('',(0.0,0.0,0.5));
#187=DIRECTION('',(0.0,0.0,1.0));
#188=DIRECTION('',(1.0,0.0,0.0));
#189=ORIENTED_EDGE('',*,*,#318,.T.);
#190=ORIENTED_EDGE('',*,*,#333,.T.);
#191=ORIENTED_EDGE('',*,*,#334,.T.);
#192=ORIENTED_EDGE('',*,*,#335,.T.);
#193=CARTESIAN_POINT('',(0.0,0.0,0.5));
#194=DIRECTION('',(0.0,0.0,1.0));
#195=DIRECTION('',(1.0,0.0,0.0));
#196=ORIENTED_EDGE('',*,*,#320,.T.);
#197=ORIENTED_EDGE('',*,*,#336,.T.);
#198=ORIENTED_EDGE('',*,*,#337,.T.);
#199=ORIENTED_EDGE('',*,*,#338,.T.);
#200=CARTESIAN_POINT('',(0.0,0.0,0.5));
#201=DIRECTION('',(0.0,0.0,1.0));
#202=DIRECTION('',(1.0,0.0,0.0));
#203=ORIENTED_EDGE('',*,*,#322,.T.);
#204=ORIENTED_EDGE('',*,*,#339,.T.);
#205=ORIENTED_EDGE('',*,*,#340,.T.);
#206=ORIENTED_EDGE('',*,*,#341,.T.);
#207=CARTESIAN_POINT('',(0.0,0.0,0.5));
#208=DIRECTION('',(0.0,0.0,1.0));
#209=DIRECTION('',(1.0,0.0,0.0));
#210=ORIENTED_EDGE('',*,*,#342,.T.);
#211=ORIENTED_EDGE('',*,*,#343,.T.);
#212=ORIENTED_EDGE('',*,*,#344,.T.);
#213=ORIENTED_EDGE('',*,*,#345,.T.);
#214=CARTESIAN_POINT('',(0.0,0.0,0.5));
#215=DIRECTION('',(0.0,0.0,1.0));
#216=DIRECTION('',(1.0,0.0,0.0));
#217=ORIENTED_EDGE('',*,*,#343,.F.);
#218=ORIENTED_EDGE('',*,*,#346,.T.);
#219=ORIENTED_EDGE('',*,*,#323,.T.);
#220=ORIENTED_EDGE('',*,*,#341,.F.);
#221=ORIENTED_EDGE('',*,*,#347,.F.);
#222=CARTESIAN_POINT('',(20.5,-11.8356805183873,-5.24706973614676E-015));
#223=DIRECTION('',(1.0,1.12563669446843E-015,-2.35179278443153E-016));
#224=DIRECTION('',(-1.12563669446843E-015,1.0,2.64726425594221E-031));
#225=ORIENTED_EDGE('',*,*,#339,.F.);
#226=ORIENTED_EDGE('',*,*,#321,.T.);
#227=ORIENTED_EDGE('',*,*,#338,.F.);
#228=ORIENTED_EDGE('',*,*,#348,.F.);
#229=CARTESIAN_POINT('',(3.10862446895044E-014,-23.6713610367747,-4.25894528062118E-016));
#230=DIRECTION('',(0.500000000000001,-0.866025403784438,-1.17589639221577E-016));
#231=DIRECTION('',(0.866025403784438,0.500000000000001,-2.03671229575465E-016));
#232=ORIENTED_EDGE('',*,*,#336,.F.);
#233=ORIENTED_EDGE('',*,*,#319,.T.);
#234=ORIENTED_EDGE('',*,*,#335,.F.);
#235=ORIENTED_EDGE('',*,*,#349,.F.);
#236=CARTESIAN_POINT('',(-20.5,-11.8356805183874,4.39528068002253E-015));
#237=DIRECTION('',(-0.499999999999999,-0.866025403784439,1.17589639221576E-016));
#238=DIRECTION('',(0.866025403784439,-0.499999999999999,-2.03671229575465E-016));
#239=ORIENTED_EDGE('',*,*,#333,.F.);
#240=ORIENTED_EDGE('',*,*,#317,.T.);
#241=ORIENTED_EDGE('',*,*,#350,.T.);
#242=ORIENTED_EDGE('',*,*,#326,.F.);
#243=ORIENTED_EDGE('',*,*,#351,.F.);
#244=CARTESIAN_POINT('',(-20.5,11.8356805183873,4.39528068002254E-015));
#245=DIRECTION('',(-1.0,-1.5008489259579E-015,2.35179278443153E-016));
#246=DIRECTION('',(1.5008489259579E-015,-1.0,-3.52968567458961E-031));
#247=ORIENTED_EDGE('',*,*,#330,.F.);
#248=ORIENTED_EDGE('',*,*,#352,.F.);
#249=ORIENTED_EDGE('',*,*,#328,.F.);
#250=ORIENTED_EDGE('',*,*,#353,.T.);
#251=CARTESIAN_POINT('',(-3.99680288865056E-014,23.6713610367747,-4.258945280621E-016));
#252=DIRECTION('',(-0.500000000000001,0.866025403784438,1.17589639221577E-016));
#253=DIRECTION('',(-0.866025403784438,-0.500000000000001,2.03671229575465E-016));
#254=ORIENTED_EDGE('',*,*,#316,.T.);
#255=ORIENTED_EDGE('',*,*,#324,.T.);
#256=ORIENTED_EDGE('',*,*,#346,.F.);
#257=ORIENTED_EDGE('',*,*,#342,.F.);
#258=ORIENTED_EDGE('',*,*,#354,.F.);
#259=ORIENTED_EDGE('',*,*,#331,.F.);
#260=ORIENTED_EDGE('',*,*,#353,.F.);
#261=ORIENTED_EDGE('',*,*,#327,.F.);
#262=ORIENTED_EDGE('',*,*,#350,.F.);
#263=CARTESIAN_POINT('',(7.99360577730113E-014,0.0,-44.9999999999998));
#264=DIRECTION('',(0.0,0.0,1.0));
#265=DIRECTION('',(1.0,0.0,0.0));
#266=ORIENTED_EDGE('',*,*,#344,.F.);
#267=ORIENTED_EDGE('',*,*,#347,.T.);
#268=ORIENTED_EDGE('',*,*,#340,.F.);
#269=ORIENTED_EDGE('',*,*,#348,.T.);
#270=ORIENTED_EDGE('',*,*,#337,.F.);
#271=ORIENTED_EDGE('',*,*,#349,.T.);
#272=ORIENTED_EDGE('',*,*,#334,.F.);
#273=ORIENTED_EDGE('',*,*,#351,.T.);
#274=ORIENTED_EDGE('',*,*,#325,.F.);
#275=ORIENTED_EDGE('',*,*,#352,.T.);
#276=ORIENTED_EDGE('',*,*,#329,.F.);
#277=ORIENTED_EDGE('',*,*,#355,.T.);
#278=ORIENTED_EDGE('',*,*,#312,.T.);
#279=ORIENTED_EDGE('',*,*,#356,.T.);
#280=CARTESIAN_POINT('',(-7.03522934042767E-016,4.69015289361845E-016,-4.2589452806211E-016));
#281=DIRECTION('',(-2.35179278443153E-016,0.0,-1.0));
#282=DIRECTION('',(-1.0,0.0,2.35179278443153E-016));
#283=ORIENTED_EDGE('',*,*,#345,.F.);
#284=ORIENTED_EDGE('',*,*,#355,.F.);
#285=ORIENTED_EDGE('',*,*,#332,.F.);
#286=ORIENTED_EDGE('',*,*,#354,.T.);
#287=CARTESIAN_POINT('',(20.5,11.8356805183874,-5.24706973614675E-015));
#288=DIRECTION('',(0.499999999999999,0.866025403784439,-1.17589639221576E-016));
#289=DIRECTION('',(-0.866025403784439,0.499999999999999,2.03671229575465E-016));
#290=ORIENTED_EDGE('',*,*,#314,.F.);
#291=ORIENTED_EDGE('',*,*,#357,.F.);
#292=CARTESIAN_POINT('',(5.18749999999999,0.0,-29.0));
#293=DIRECTION('',(-2.35179278443153E-016,0.0,-1.0));
#294=DIRECTION('',(-1.0,0.0,2.35179278443153E-016));
#295=ORIENTED_EDGE('',*,*,#313,.T.);
#296=ORIENTED_EDGE('',*,*,#358,.F.);
#297=ORIENTED_EDGE('',*,*,#315,.T.);
#298=ORIENTED_EDGE('',*,*,#357,.T.);
#299=CARTESIAN_POINT('',(-6.62911591111638E-015,0.0,-28.1875));
#300=DIRECTION('',(2.35179278443153E-016,-0.0,1.0));
#301=DIRECTION('',(1.0,0.0,-2.35179278443153E-016));
#302=ORIENTED_EDGE('',*,*,#309,.T.);
#303=ORIENTED_EDGE('',*,*,#356,.F.);
#304=ORIENTED_EDGE('',*,*,#311,.T.);
#305=ORIENTED_EDGE('',*,*,#358,.T.);
#306=CARTESIAN_POINT('',(-3.21901637369066E-015,0.0,-13.6875));
#307=DIRECTION('',(2.35179278443153E-016,0.0,1.0));
#308=DIRECTION('',(1.0,0.0,-2.35179278443153E-016));
#309=EDGE_CURVE('',#359,#360,#361,.T.);
#310=EDGE_CURVE('',#359,#362,#363,.T.);
#311=EDGE_CURVE('',#364,#362,#365,.T.);
#312=EDGE_CURVE('',#360,#364,#366,.T.);
#313=EDGE_CURVE('',#367,#359,#368,.T.);
#314=EDGE_CURVE('',#367,#369,#370,.T.);
#315=EDGE_CURVE('',#362,#369,#371,.T.);
#316=EDGE_CURVE('',#372,#373,#374,.T.);
#317=EDGE_CURVE('',#375,#372,#376,.T.);
#318=EDGE_CURVE('',#377,#375,#378,.T.);
#319=EDGE_CURVE('',#379,#377,#380,.T.);
#320=EDGE_CURVE('',#381,#379,#382,.T.);
#321=EDGE_CURVE('',#383,#381,#384,.T.);
#322=EDGE_CURVE('',#385,#383,#386,.T.);
#323=EDGE_CURVE('',#387,#385,#388,.T.);
#324=EDGE_CURVE('',#373,#387,#389,.T.);
#325=EDGE_CURVE('',#390,#391,#392,.T.);
#326=EDGE_CURVE('',#391,#393,#394,.T.);
#327=EDGE_CURVE('',#393,#395,#396,.T.);
#328=EDGE_CURVE('',#395,#390,#397,.T.);
#329=EDGE_CURVE('',#398,#399,#400,.T.);
#330=EDGE_CURVE('',#399,#401,#402,.T.);
#331=EDGE_CURVE('',#401,#403,#404,.T.);
#332=EDGE_CURVE('',#403,#398,#405,.T.);
#333=EDGE_CURVE('',#375,#406,#407,.T.);
#334=EDGE_CURVE('',#406,#408,#409,.T.);
#335=EDGE_CURVE('',#408,#377,#410,.T.);
#336=EDGE_CURVE('',#379,#411,#412,.T.);
#337=EDGE_CURVE('',#411,#413,#414,.T.);
#338=EDGE_CURVE('',#413,#381,#415,.T.);
#339=EDGE_CURVE('',#383,#416,#417,.T.);
#340=EDGE_CURVE('',#416,#418,#419,.T.);
#341=EDGE_CURVE('',#418,#385,#420,.T.);
#342=EDGE_CURVE('',#421,#422,#423,.T.);
#343=EDGE_CURVE('',#422,#424,#425,.T.);
#344=EDGE_CURVE('',#424,#426,#427,.T.);
#345=EDGE_CURVE('',#426,#421,#428,.T.);
#346=EDGE_CURVE('',#422,#387,#429,.T.);
#347=EDGE_CURVE('',#424,#418,#430,.T.);
#348=EDGE_CURVE('',#416,#413,#431,.T.);
#349=EDGE_CURVE('',#411,#408,#432,.T.);
#350=EDGE_CURVE('',#372,#393,#433,.T.);
#351=EDGE_CURVE('',#406,#391,#434,.T.);
#352=EDGE_CURVE('',#390,#399,#435,.T.);
#353=EDGE_CURVE('',#395,#401,#436,.T.);
#354=EDGE_CURVE('',#403,#421,#437,.T.);
#355=EDGE_CURVE('',#398,#426,#438,.T.);
#356=EDGE_CURVE('',#364,#360,#439,.T.);
#357=EDGE_CURVE('',#369,#367,#440,.T.);
#358=EDGE_CURVE('',#362,#359,#441,.T.);
#359=VERTEX_POINT('',#442);
#360=VERTEX_POINT('',#443);
#361=LINE('',#444,#445);
#362=VERTEX_POINT('',#446);
#363=CIRCLE('',#447,12.0);
#364=VERTEX_POINT('',#448);
#365=LINE('',#449,#450);
#366=CIRCLE('',#451,12.0);
#367=VERTEX_POINT('',#452);
#368=LINE('',#453,#454);
#369=VERTEX_POINT('',#455);
#370=CIRCLE('',#456,10.375);
#371=LINE('',#457,#458);
#372=VERTEX_POINT('',#459);
#373=VERTEX_POINT('',#460);
#374=CIRCLE('',#461,74.9999999999998);
#375=VERTEX_POINT('',#462);
#376=CIRCLE('',#463,72.1439533155757);
#377=VERTEX_POINT('',#464);
#378=CIRCLE('',#465,23.0);
#379=VERTEX_POINT('',#466);
#380=CIRCLE('',#467,72.1439533155757);
#381=VERTEX_POINT('',#468);
#382=CIRCLE('',#469,23.0);
#383=VERTEX_POINT('',#470);
#384=CIRCLE('',#471,72.1439533155758);
#385=VERTEX_POINT('',#472);
#386=CIRCLE('',#473,23.0);
#387=VERTEX_POINT('',#474);
#388=CIRCLE('',#475,72.1439533155758);
#389=CIRCLE('',#476,74.9999999999998);
#390=VERTEX_POINT('',#477);
#391=VERTEX_POINT('',#478);
#392=CIRCLE('',#479,23.0);
#393=VERTEX_POINT('',#480);
#394=LINE('',#481,#482);
#395=VERTEX_POINT('',#483);
#396=CIRCLE('',#484,23.0);
#397=LINE('',#485,#486);
#398=VERTEX_POINT('',#487);
#399=VERTEX_POINT('',#488);
#400=CIRCLE('',#489,23.0);
#401=VERTEX_POINT('',#490);
#402=LINE('',#491,#492);
#403=VERTEX_POINT('',#493);
#404=CIRCLE('',#494,23.0);
#405=LINE('',#495,#496);
#406=VERTEX_POINT('',#497);
#407=LINE('',#498,#499);
#408=VERTEX_POINT('',#500);
#409=CIRCLE('',#501,23.0);
#410=LINE('',#502,#503);
#411=VERTEX_POINT('',#504);
#412=LINE('',#505,#506);
#413=VERTEX_POINT('',#507);
#414=CIRCLE('',#508,23.0);
#415=LINE('',#509,#510);
#416=VERTEX_POINT('',#511);
#417=LINE('',#512,#513);
#418=VERTEX_POINT('',#514);
#419=CIRCLE('',#515,23.0);
#420=LINE('',#516,#517);
#421=VERTEX_POINT('',#518);
#422=VERTEX_POINT('',#519);
#423=CIRCLE('',#520,23.0);
#424=VERTEX_POINT('',#521);
#425=LINE('',#522,#523);
#426=VERTEX_POINT('',#524);
#427=CIRCLE('',#525,23.0);
#428=LINE('',#526,#527);
#429=CIRCLE('',#528,72.1439533155758);
#430=LINE('',#529,#530);
#431=LINE('',#531,#532);
#432=LINE('',#533,#534);
#433=CIRCLE('',#535,72.1439533155757);
#434=LINE('',#536,#537);
#435=LINE('',#538,#539);
#436=CIRCLE('',#540,72.1439533155757);
#437=CIRCLE('',#541,72.1439533155758);
#438=LINE('',#542,#543);
#439=CIRCLE('',#544,12.0);
#440=CIRCLE('',#545,10.375);
#441=CIRCLE('',#546,12.0);
#442=CARTESIAN_POINT('',(12.0,0.0,-27.375));
#443=CARTESIAN_POINT('',(12.0,0.0,-3.67394039744206E-015));
#444=CARTESIAN_POINT('',(12.0,-1.46952762458685E-015,-13.6875));
#445=VECTOR('',#547,1.0);
#446=CARTESIAN_POINT('',(-12.0,1.46952762458685E-015,-27.375));
#447=AXIS2_PLACEMENT_3D('',#548,#549,#550);
#448=CARTESIAN_POINT('',(-12.0,1.46952762458685E-015,2.82215134131784E-015));
#449=CARTESIAN_POINT('',(-12.0,1.46952762458685E-015,-13.6875));
#450=VECTOR('',#551,1.0);
#451=AXIS2_PLACEMENT_3D('',#552,#553,#554);
#452=CARTESIAN_POINT('',(10.375,0.0,-29.0));
#453=CARTESIAN_POINT('',(11.1875,-1.37002835833878E-015,-28.1875));
#454=VECTOR('',#555,1.0);
#455=CARTESIAN_POINT('',(-10.375,1.27052909209072E-015,-29.0));
#456=AXIS2_PLACEMENT_3D('',#556,#557,#558);
#457=CARTESIAN_POINT('',(-11.1875,1.37002835833878E-015,-28.1875));
#458=VECTOR('',#559,1.0);
#459=CARTESIAN_POINT('',(-20.5,2.51044302533588E-015,27.1439533155759));
#460=CARTESIAN_POINT('',(7.99360577730113E-014,0.0,30.0));
#461=AXIS2_PLACEMENT_3D('',#560,#561,#562);
#462=CARTESIAN_POINT('',(-20.5,-10.4283268073071,26.386273190299));
#463=AXIS2_PLACEMENT_3D('',#563,#564,#565);
#464=CARTESIAN_POINT('',(-19.2811959340942,-12.5393573739275,26.386273190299));
#465=AXIS2_PLACEMENT_3D('',#566,#567,#568);
#466=CARTESIAN_POINT('',(-1.21880406590574,-22.9676841812345,26.386273190299));
#467=AXIS2_PLACEMENT_3D('',#569,#570,#571);
#468=CARTESIAN_POINT('',(1.21880406590583,-22.9676841812345,26.386273190299));
#469=AXIS2_PLACEMENT_3D('',#572,#573,#574);
#470=CARTESIAN_POINT('',(19.2811959340942,-12.5393573739274,26.386273190299));
#471=AXIS2_PLACEMENT_3D('',#575,#576,#577);
#472=CARTESIAN_POINT('',(20.5,-10.4283268073071,26.386273190299));
#473=AXIS2_PLACEMENT_3D('',#578,#579,#580);
#474=CARTESIAN_POINT('',(20.5,-2.51044302533586E-015,27.143953315576));
#475=AXIS2_PLACEMENT_3D('',#581,#582,#583);
#476=AXIS2_PLACEMENT_3D('',#584,#585,#586);
#477=CARTESIAN_POINT('',(-19.2811959340942,12.5393573739274,4.10782519111308E-015));
#478=CARTESIAN_POINT('',(-20.5,10.4283268073071,4.38538094726937E-015));
#479=AXIS2_PLACEMENT_3D('',#587,#588,#589);
#480=CARTESIAN_POINT('',(-20.5,10.4283268073071,26.386273190299));
#481=CARTESIAN_POINT('',(-20.5,10.4283268073071,13.571976657788));
#482=VECTOR('',#590,1.0);
#483=CARTESIAN_POINT('',(-19.2811959340942,12.5393573739274,26.386273190299));
#484=AXIS2_PLACEMENT_3D('',#591,#592,#593);
#485=CARTESIAN_POINT('',(-19.2811959340942,12.5393573739274,13.571976657788));
#486=VECTOR('',#594,1.0);
#487=CARTESIAN_POINT('',(1.21880406590574,22.9676841812345,-7.7715611723761E-016));
#488=CARTESIAN_POINT('',(-1.21880406590583,22.9676841812345,-1.11022302462516E-016));
#489=AXIS2_PLACEMENT_3D('',#595,#596,#597);
#490=CARTESIAN_POINT('',(-1.21880406590581,22.9676841812345,26.386273190299));
#491=CARTESIAN_POINT('',(-1.21880406590583,22.9676841812345,13.571976657788));
#492=VECTOR('',#598,1.0);
#493=CARTESIAN_POINT('',(1.21880406590573,22.9676841812346,26.386273190299));
#494=AXIS2_PLACEMENT_3D('',#599,#600,#601);
#495=CARTESIAN_POINT('',(1.21880406590575,22.9676841812345,13.571976657788));
#496=VECTOR('',#602,1.0);
#497=CARTESIAN_POINT('',(-20.5,-10.4283268073071,4.38538094726937E-015));
#498=CARTESIAN_POINT('',(-20.5,-10.4283268073071,13.571976657788));
#499=VECTOR('',#603,1.0);
#500=CARTESIAN_POINT('',(-19.2811959340942,-12.5393573739275,4.10782519111308E-015));
#501=AXIS2_PLACEMENT_3D('',#604,#605,#606);
#502=CARTESIAN_POINT('',(-19.2811959340942,-12.5393573739275,13.571976657788));
#503=VECTOR('',#607,1.0);
#504=CARTESIAN_POINT('',(-1.21880406590576,-22.9676841812345,-1.11022302462516E-016));
#505=CARTESIAN_POINT('',(-1.21880406590575,-22.9676841812345,13.571976657788));
#506=VECTOR('',#608,1.0);
#507=CARTESIAN_POINT('',(1.2188040659058,-22.9676841812345,-6.66133814775094E-016));
#508=AXIS2_PLACEMENT_3D('',#609,#610,#611);
#509=CARTESIAN_POINT('',(1.21880406590582,-22.9676841812345,13.571976657788));
#510=VECTOR('',#612,1.0);
#511=CARTESIAN_POINT('',(19.2811959340942,-12.5393573739274,-4.88498130835069E-015));
#512=CARTESIAN_POINT('',(19.2811959340942,-12.5393573739274,13.571976657788));
#513=VECTOR('',#613,1.0);
#514=CARTESIAN_POINT('',(20.5,-10.4283268073071,-5.21804821573824E-015));
#515=AXIS2_PLACEMENT_3D('',#614,#615,#616);
#516=CARTESIAN_POINT('',(20.5,-10.4283268073071,13.571976657788));
#517=VECTOR('',#617,1.0);
#518=CARTESIAN_POINT('',(19.2811959340942,12.5393573739275,26.386273190299));
#519=CARTESIAN_POINT('',(20.5,10.4283268073071,26.386273190299));
#520=AXIS2_PLACEMENT_3D('',#618,#619,#620);
#521=CARTESIAN_POINT('',(20.5,10.4283268073071,-5.21804821573824E-015));
#522=CARTESIAN_POINT('',(20.5,10.4283268073071,13.571976657788));
#523=VECTOR('',#621,1.0);
#524=CARTESIAN_POINT('',(19.2811959340942,12.5393573739275,-4.9960036108132E-015));
#525=AXIS2_PLACEMENT_3D('',#622,#623,#624);
#526=CARTESIAN_POINT('',(19.2811959340942,12.5393573739275,13.571976657788));
#527=VECTOR('',#625,1.0);
#528=AXIS2_PLACEMENT_3D('',#626,#627,#628);
#529=CARTESIAN_POINT('',(20.5,11.8356805183874,-5.24706973614675E-015));
#530=VECTOR('',#629,10.0);
#531=CARTESIAN_POINT('',(20.5,-11.8356805183873,-5.24706973614676E-015));
#532=VECTOR('',#630,10.0);
#533=CARTESIAN_POINT('',(3.1083264055088E-014,-23.6713610367747,-4.25894528062117E-016));
#534=VECTOR('',#631,10.0);
#535=AXIS2_PLACEMENT_3D('',#632,#633,#634);
#536=CARTESIAN_POINT('',(-20.5,-11.8356805183874,4.39528068002253E-015));
#537=VECTOR('',#635,10.0);
#538=CARTESIAN_POINT('',(-20.5,11.8356805183873,4.39528068002254E-015));
#539=VECTOR('',#636,10.0);
#540=AXIS2_PLACEMENT_3D('',#637,#638,#639);
#541=AXIS2_PLACEMENT_3D('',#640,#641,#642);
#542=CARTESIAN_POINT('',(-4.03651502829247E-014,23.6713610367747,-4.258945280621E-016));
#543=VECTOR('',#643,10.0);
#544=AXIS2_PLACEMENT_3D('',#644,#645,#646);
#545=AXIS2_PLACEMENT_3D('',#647,#648,#649);
#546=AXIS2_PLACEMENT_3D('',#650,#651,#652);
#547=DIRECTION('',(2.35179278443153E-016,0.0,1.0));
#548=CARTESIAN_POINT('',(-6.43803274738132E-015,0.0,-27.375));
#549=DIRECTION('',(2.35179278443153E-016,0.0,1.0));
#550=DIRECTION('',(1.0,0.0,-2.35179278443153E-016));
#551=DIRECTION('',(-2.35179278443153E-016,-0.0,-1.0));
#552=CARTESIAN_POINT('',(0.0,0.0,0.0));
#553=DIRECTION('',(2.35179278443153E-016,0.0,1.0));
#554=DIRECTION('',(1.0,0.0,-2.35179278443153E-016));
#555=DIRECTION('',(0.707106781186548,-8.65927457071936E-017,0.707106781186547));
#556=CARTESIAN_POINT('',(-6.82019907485144E-015,0.0,-29.0));
#557=DIRECTION('',(2.35179278443153E-016,0.0,1.0));
#558=DIRECTION('',(1.0,0.0,-2.35179278443153E-016));
#559=DIRECTION('',(0.707106781186548,-8.65927457071936E-017,-0.707106781186547));
#560=CARTESIAN_POINT('',(7.99360577730113E-014,0.0,-44.9999999999998));
#561=DIRECTION('',(1.22460635382238E-016,1.0,0.0));
#562=DIRECTION('',(0.0,-0.0,-1.0));
#563=CARTESIAN_POINT('',(-20.5,-3.07674029821372E-014,-44.9999999999998));
#564=DIRECTION('',(-1.0,-1.5008489259579E-015,2.35179278443153E-016));
#565=DIRECTION('',(-2.35179278443153E-016,0.0,-1.0));
#566=CARTESIAN_POINT('',(0.0,0.0,26.386273190299));
#567=DIRECTION('',(0.0,0.0,-1.0));
#568=DIRECTION('',(1.0,0.0,0.0));
#569=CARTESIAN_POINT('',(-10.2499999999999,-17.753520777581,-44.9999999999998));
#570=DIRECTION('',(-0.499999999999999,-0.866025403784439,1.17589639221576E-016));
#571=DIRECTION('',(0.0,1.35780819716976E-016,1.0));
#572=CARTESIAN_POINT('',(0.0,0.0,26.386273190299));
#573=DIRECTION('',(0.0,0.0,-1.0));
#574=DIRECTION('',(1.0,0.0,0.0));
#575=CARTESIAN_POINT('',(10.2500000000001,-17.7535207775809,-44.9999999999998));
#576=DIRECTION('',(0.500000000000001,-0.866025403784438,-1.17589639221577E-016));
#577=DIRECTION('',(0.0,-1.35780819716977E-016,1.0));
#578=CARTESIAN_POINT('',(0.0,0.0,26.386273190299));
#579=DIRECTION('',(0.0,0.0,-1.0));
#580=DIRECTION('',(1.0,0.0,0.0));
#581=CARTESIAN_POINT('',(20.5,2.30755522366027E-014,-44.9999999999998));
#582=DIRECTION('',(1.0,1.12563669446843E-015,-2.35179278443153E-016));
#583=DIRECTION('',(2.35179278443153E-016,0.0,1.0));
#584=CARTESIAN_POINT('',(7.99360577730113E-014,0.0,-44.9999999999998));
#585=DIRECTION('',(1.22460635382238E-016,1.0,0.0));
#586=DIRECTION('',(0.0,-0.0,-1.0));
#587=CARTESIAN_POINT('',(0.0,0.0,-4.44089209850063E-016));
#588=DIRECTION('',(2.35179278443153E-016,0.0,1.0));
#589=DIRECTION('',(1.0,0.0,-2.35179278443153E-016));
#590=DIRECTION('',(0.0,0.0,1.0));
#591=CARTESIAN_POINT('',(0.0,0.0,26.386273190299));
#592=DIRECTION('',(0.0,0.0,-1.0));
#593=DIRECTION('',(1.0,0.0,0.0));
#594=DIRECTION('',(-0.0,-0.0,-1.0));
#595=CARTESIAN_POINT('',(0.0,0.0,-4.44089209850063E-016));
#596=DIRECTION('',(2.35179278443153E-016,0.0,1.0));
#597=DIRECTION('',(1.0,0.0,-2.35179278443153E-016));
#598=DIRECTION('',(0.0,0.0,1.0));
#599=CARTESIAN_POINT('',(0.0,0.0,26.386273190299));
#600=DIRECTION('',(0.0,0.0,-1.0));
#601=DIRECTION('',(1.0,0.0,0.0));
#602=DIRECTION('',(-0.0,-0.0,-1.0));
#603=DIRECTION('',(-0.0,-0.0,-1.0));
#604=CARTESIAN_POINT('',(0.0,0.0,-4.44089209850063E-016));
#605=DIRECTION('',(2.35179278443153E-016,0.0,1.0));
#606=DIRECTION('',(1.0,0.0,-2.35179278443153E-016));
#607=DIRECTION('',(0.0,0.0,1.0));
#608=DIRECTION('',(-0.0,-0.0,-1.0));
#609=CARTESIAN_POINT('',(0.0,0.0,-4.44089209850063E-016));
#610=DIRECTION('',(2.35179278443153E-016,0.0,1.0));
#611=DIRECTION('',(1.0,0.0,-2.35179278443153E-016));
#612=DIRECTION('',(0.0,0.0,1.0));
#613=DIRECTION('',(-0.0,-0.0,-1.0));
#614=CARTESIAN_POINT('',(0.0,0.0,-4.44089209850063E-016));
#615=DIRECTION('',(2.35179278443153E-016,0.0,1.0));
#616=DIRECTION('',(1.0,0.0,-2.35179278443153E-016));
#617=DIRECTION('',(0.0,0.0,1.0));
#618=CARTESIAN_POINT('',(0.0,0.0,26.386273190299));
#619=DIRECTION('',(0.0,0.0,-1.0));
#620=DIRECTION('',(1.0,0.0,0.0));
#621=DIRECTION('',(-0.0,-0.0,-1.0));
#622=CARTESIAN_POINT('',(0.0,0.0,-4.44089209850063E-016));
#623=DIRECTION('',(2.35179278443153E-016,0.0,1.0));
#624=DIRECTION('',(1.0,0.0,-2.35179278443153E-016));
#625=DIRECTION('',(0.0,0.0,1.0));
#626=CARTESIAN_POINT('',(20.5,2.30755522366027E-014,-44.9999999999998));
#627=DIRECTION('',(1.0,1.12563669446843E-015,-2.35179278443153E-016));
#628=DIRECTION('',(2.35179278443153E-016,0.0,1.0));
#629=DIRECTION('',(1.12563669446843E-015,-1.0,-2.64726425594221E-031));
#630=DIRECTION('',(-0.866025403784438,-0.500000000000001,2.03671229575465E-016));
#631=DIRECTION('',(-0.866025403784439,0.499999999999999,2.03671229575465E-016));
#632=CARTESIAN_POINT('',(-20.5,-3.07674029821372E-014,-44.9999999999998));
#633=DIRECTION('',(-1.0,-1.5008489259579E-015,2.35179278443153E-016));
#634=DIRECTION('',(-2.35179278443153E-016,0.0,-1.0));
#635=DIRECTION('',(-1.5008489259579E-015,1.0,3.52968567458961E-031));
#636=DIRECTION('',(0.866025403784438,0.500000000000001,-2.03671229575465E-016));
#637=CARTESIAN_POINT('',(-10.25,17.753520777581,-44.9999999999998));
#638=DIRECTION('',(-0.500000000000001,0.866025403784438,1.17589639221577E-016));
#639=DIRECTION('',(0.0,1.35780819716977E-016,-1.0));
#640=CARTESIAN_POINT('',(10.25,17.753520777581,-44.9999999999998));
#641=DIRECTION('',(0.499999999999999,0.866025403784439,-1.17589639221576E-016));
#642=DIRECTION('',(1.09345394723565E-032,-1.35780819716976E-016,-1.0));
#643=DIRECTION('',(0.866025403784439,-0.499999999999999,-2.03671229575465E-016));
#644=CARTESIAN_POINT('',(0.0,0.0,0.0));
#645=DIRECTION('',(2.35179278443153E-016,0.0,1.0));
#646=DIRECTION('',(1.0,0.0,-2.35179278443153E-016));
#647=CARTESIAN_POINT('',(-6.82019907485144E-015,0.0,-29.0));
#648=DIRECTION('',(2.35179278443153E-016,0.0,1.0));
#649=DIRECTION('',(1.0,0.0,-2.35179278443153E-016));
#650=CARTESIAN_POINT('',(-6.43803274738132E-015,0.0,-27.375));
#651=DIRECTION('',(2.35179278443153E-016,0.0,1.0));
#652=DIRECTION('',(1.0,0.0,-2.35179278443153E-016));
ENDSEC;
END-ISO-10303-21;
