ISO-10303-21;
HEADER;
FILE_DESCRIPTION(('STEP AP214'),'1');
FILE_NAME(' ','  ',('TraceParts'),('TraceParts S.A.'),'XStep 1.0',' ',' ');
FILE_SCHEMA(('automotive_design'));
ENDSEC;
DATA;
#1=MECHANICAL_DESIGN_GEOMETRIC_PRESENTATION_REPRESENTATION(' ',(#10,#11,#12,#13,#14,#15,#16,#17,#18,#19,#20,#21,#22,#23,#24,#25,#26,#27,#28,#29,#30,#31,#32,#33,#34,#35,#36,#37,#38,#39,#40,#41,#42,#43,#44,#45,#46,#47,#48,#49,#50,#51,#52),#6);
#2=PRODUCT_DEFINITION_CONTEXT('',#53,'design');
#3=APPLICATION_PROTOCOL_DEFINITION('INTERNATIONAL STANDARD','automotive_design',1994,#53);
#4=PRODUCT_CATEGORY_RELATIONSHIP('NONE','NONE',#54,#55);
#5=SHAPE_DEFINITION_REPRESENTATION(#56,#57);
#6= (GEOMETRIC_REPRESENTATION_CONTEXT(3)GLOBAL_UNCERTAINTY_ASSIGNED_CONTEXT((#60))GLOBAL_UNIT_ASSIGNED_CONTEXT((#62,#63,#64))REPRESENTATION_CONTEXT('NONE','WORKSPACE'));
#10=STYLED_ITEM('',(#66),#67);
#11=STYLED_ITEM('',(#68),#69);
#12=STYLED_ITEM('',(#70),#71);
#13=STYLED_ITEM('',(#72),#73);
#14=STYLED_ITEM('',(#74),#75);
#15=STYLED_ITEM('',(#76),#77);
#16=STYLED_ITEM('',(#78),#79);
#17=STYLED_ITEM('',(#80),#81);
#18=STYLED_ITEM('',(#82),#83);
#19=STYLED_ITEM('',(#84),#85);
#20=STYLED_ITEM('',(#86),#87);
#21=STYLED_ITEM('',(#88),#89);
#22=STYLED_ITEM('',(#90),#91);
#23=STYLED_ITEM('',(#92),#93);
#24=STYLED_ITEM('',(#94),#95);
#25=STYLED_ITEM('',(#96),#97);
#26=STYLED_ITEM('',(#98),#99);
#27=STYLED_ITEM('',(#100),#101);
#28=STYLED_ITEM('',(#102),#103);
#29=STYLED_ITEM('',(#104),#105);
#30=STYLED_ITEM('',(#106),#107);
#31=STYLED_ITEM('',(#108),#109);
#32=STYLED_ITEM('',(#110),#111);
#33=STYLED_ITEM('',(#112),#113);
#34=STYLED_ITEM('',(#114),#115);
#35=STYLED_ITEM('',(#116),#117);
#36=STYLED_ITEM('',(#118),#119);
#37=STYLED_ITEM('',(#120),#121);
#38=STYLED_ITEM('',(#122),#123);
#39=STYLED_ITEM('',(#124),#125);
#40=STYLED_ITEM('',(#126),#127);
#41=STYLED_ITEM('',(#128),#129);
#42=STYLED_ITEM('',(#130),#131);
#43=STYLED_ITEM('',(#132),#133);
#44=STYLED_ITEM('',(#134),#135);
#45=STYLED_ITEM('',(#136),#137);
#46=STYLED_ITEM('',(#138),#139);
#47=STYLED_ITEM('',(#140),#141);
#48=STYLED_ITEM('',(#142),#143);
#49=STYLED_ITEM('',(#144),#145);
#50=STYLED_ITEM('',(#146),#147);
#51=STYLED_ITEM('',(#148),#149);
#52=STYLED_ITEM('',(#150),#151);
#53=APPLICATION_CONTEXT(' ');
#54=PRODUCT_CATEGORY('part','NONE');
#55=PRODUCT_RELATED_PRODUCT_CATEGORY('detail',' ',(#152));
#56=PRODUCT_DEFINITION_SHAPE('NONE','NONE',#153);
#57=ADVANCED_BREP_SHAPE_REPRESENTATION('1',(#154,#155),#6);
#60=UNCERTAINTY_MEASURE_WITH_UNIT(LENGTH_MEASURE(1.0E-006),#62,'','');
#62= (CONVERSION_BASED_UNIT('MILLIMETRE',#158)LENGTH_UNIT()NAMED_UNIT(#161));
#63= (NAMED_UNIT(#163)PLANE_ANGLE_UNIT()SI_UNIT($,.RADIAN.));
#64= (NAMED_UNIT(#163)SOLID_ANGLE_UNIT()SI_UNIT($,.STERADIAN.));
#66=PRESENTATION_STYLE_ASSIGNMENT((#169));
#67=VERTEX_POINT('',#170);
#68=PRESENTATION_STYLE_ASSIGNMENT((#171));
#69=ADVANCED_FACE('',(#172),#173,.T.);
#70=PRESENTATION_STYLE_ASSIGNMENT((#174));
#71=ADVANCED_FACE('',(#175),#176,.T.);
#72=PRESENTATION_STYLE_ASSIGNMENT((#177));
#73=ADVANCED_FACE('',(#178),#179,.T.);
#74=PRESENTATION_STYLE_ASSIGNMENT((#180));
#75=ADVANCED_FACE('',(#181),#182,.T.);
#76=PRESENTATION_STYLE_ASSIGNMENT((#183));
#77=EDGE_CURVE('',#141,#121,#184,.T.);
#78=PRESENTATION_STYLE_ASSIGNMENT((#185));
#79=VERTEX_POINT('',#186);
#80=PRESENTATION_STYLE_ASSIGNMENT((#187));
#81=EDGE_CURVE('',#121,#141,#188,.T.);
#82=PRESENTATION_STYLE_ASSIGNMENT((#189));
#83=EDGE_CURVE('',#137,#145,#190,.T.);
#84=PRESENTATION_STYLE_ASSIGNMENT((#191));
#85=EDGE_CURVE('',#79,#95,#192,.T.);
#86=PRESENTATION_STYLE_ASSIGNMENT((#193));
#87=ADVANCED_FACE('',(#194),#195,.T.);
#88=PRESENTATION_STYLE_ASSIGNMENT((#196));
#89=EDGE_CURVE('',#135,#133,#197,.T.);
#90=PRESENTATION_STYLE_ASSIGNMENT((#198));
#91=EDGE_CURVE('',#115,#127,#199,.T.);
#92=PRESENTATION_STYLE_ASSIGNMENT((#200));
#93=EDGE_CURVE('',#67,#121,#201,.T.);
#94=PRESENTATION_STYLE_ASSIGNMENT((#202));
#95=VERTEX_POINT('',#203);
#96=PRESENTATION_STYLE_ASSIGNMENT((#204));
#97=EDGE_CURVE('',#141,#111,#205,.T.);
#98=PRESENTATION_STYLE_ASSIGNMENT((#206));
#99=EDGE_CURVE('',#133,#135,#207,.T.);
#100=PRESENTATION_STYLE_ASSIGNMENT((#208));
#101=ADVANCED_FACE('',(#209),#210,.T.);
#102=PRESENTATION_STYLE_ASSIGNMENT((#211));
#103=EDGE_CURVE('',#135,#115,#212,.T.);
#104=PRESENTATION_STYLE_ASSIGNMENT((#213));
#105=ADVANCED_FACE('',(#214),#215,.T.);
#106=PRESENTATION_STYLE_ASSIGNMENT((#216));
#107=EDGE_CURVE('',#111,#67,#217,.T.);
#108=PRESENTATION_STYLE_ASSIGNMENT((#218));
#109=EDGE_CURVE('',#127,#115,#219,.T.);
#110=PRESENTATION_STYLE_ASSIGNMENT((#220));
#111=VERTEX_POINT('',#221);
#112=PRESENTATION_STYLE_ASSIGNMENT((#222));
#113=EDGE_CURVE('',#137,#67,#223,.T.);
#114=PRESENTATION_STYLE_ASSIGNMENT((#224));
#115=VERTEX_POINT('',#225);
#116=PRESENTATION_STYLE_ASSIGNMENT((#226));
#117=ADVANCED_FACE('',(#227),#228,.T.);
#118=PRESENTATION_STYLE_ASSIGNMENT((#229));
#119=ADVANCED_FACE('',(#230),#231,.T.);
#120=PRESENTATION_STYLE_ASSIGNMENT((#232));
#121=VERTEX_POINT('',#233);
#122=PRESENTATION_STYLE_ASSIGNMENT((#234));
#123=EDGE_CURVE('',#127,#133,#235,.T.);
#124=PRESENTATION_STYLE_ASSIGNMENT((#236));
#125=EDGE_CURVE('',#67,#111,#237,.T.);
#126=PRESENTATION_STYLE_ASSIGNMENT((#238));
#127=VERTEX_POINT('',#239);
#128=PRESENTATION_STYLE_ASSIGNMENT((#240));
#129=ADVANCED_FACE('',(#241),#242,.T.);
#130=PRESENTATION_STYLE_ASSIGNMENT((#243));
#131=EDGE_CURVE('',#145,#137,#244,.T.);
#132=PRESENTATION_STYLE_ASSIGNMENT((#245));
#133=VERTEX_POINT('',#246);
#134=PRESENTATION_STYLE_ASSIGNMENT((#247));
#135=VERTEX_POINT('',#248);
#136=PRESENTATION_STYLE_ASSIGNMENT((#249));
#137=VERTEX_POINT('',#250);
#138=PRESENTATION_STYLE_ASSIGNMENT((#251));
#139=EDGE_CURVE('',#95,#79,#252,.T.);
#140=PRESENTATION_STYLE_ASSIGNMENT((#253));
#141=VERTEX_POINT('',#254);
#142=PRESENTATION_STYLE_ASSIGNMENT((#255));
#143=ADVANCED_FACE('',(#256,#257),#258,.T.);
#144=PRESENTATION_STYLE_ASSIGNMENT((#259));
#145=VERTEX_POINT('',#260);
#146=PRESENTATION_STYLE_ASSIGNMENT((#261));
#147=EDGE_CURVE('',#133,#95,#262,.T.);
#148=PRESENTATION_STYLE_ASSIGNMENT((#263));
#149=EDGE_CURVE('',#79,#135,#264,.T.);
#150=PRESENTATION_STYLE_ASSIGNMENT((#265));
#151=EDGE_CURVE('',#111,#145,#266,.T.);
#152=PRODUCT('1','1','PART-1-DESC',(#267));
#153=PRODUCT_DEFINITION('NONE','NONE',#268,#2);
#154=MANIFOLD_SOLID_BREP('1',#269);
#155=AXIS2_PLACEMENT_3D('',#270,#271,#272);
#158=LENGTH_MEASURE_WITH_UNIT(LENGTH_MEASURE(1.0),#273);
#161=DIMENSIONAL_EXPONENTS(1.0,0.0,0.0,0.0,0.0,0.0,0.0);
#163=DIMENSIONAL_EXPONENTS(0.0,0.0,0.0,0.0,0.0,0.0,0.0);
#169=POINT_STYLE(' ',#274,POSITIVE_LENGTH_MEASURE(1.0E-006),#275);
#170=CARTESIAN_POINT('',(-10.0,-2.14306111918916E-015,-15.0));
#171=SURFACE_STYLE_USAGE(.BOTH.,#276);
#172=FACE_OUTER_BOUND('',#277,.T.);
#173=CONICAL_SURFACE('',#278,9.5,0.197395559849881);
#174=SURFACE_STYLE_USAGE(.BOTH.,#279);
#175=FACE_OUTER_BOUND('',#280,.T.);
#176=CONICAL_SURFACE('',#281,10.0,0.785398163397448);
#177=SURFACE_STYLE_USAGE(.BOTH.,#282);
#178=FACE_OUTER_BOUND('',#283,.T.);
#179=CONICAL_SURFACE('',#284,9.5,0.197395559849881);
#180=SURFACE_STYLE_USAGE(.BOTH.,#285);
#181=FACE_OUTER_BOUND('',#286,.T.);
#182=PLANE('',#287);
#183=CURVE_STYLE('',#288,POSITIVE_LENGTH_MEASURE(1.0E-006),#289);
#184=CIRCLE('',#290,10.0);
#185=POINT_STYLE(' ',#291,POSITIVE_LENGTH_MEASURE(1.0E-006),#292);
#186=CARTESIAN_POINT('',(-15.0,-1.83690953073357E-015,1.1247455413666E-031));
#187=CURVE_STYLE('',#293,POSITIVE_LENGTH_MEASURE(1.0E-006),#294);
#188=CIRCLE('',#295,10.0);
#189=CURVE_STYLE('',#296,POSITIVE_LENGTH_MEASURE(1.0E-006),#297);
#190=CIRCLE('',#298,9.0);
#191=CURVE_STYLE('',#299,POSITIVE_LENGTH_MEASURE(1.0E-006),#300);
#192=CIRCLE('',#301,15.0);
#193=SURFACE_STYLE_USAGE(.BOTH.,#302);
#194=FACE_OUTER_BOUND('',#303,.T.);
#195=CYLINDRICAL_SURFACE('',#304,10.0);
#196=CURVE_STYLE('',#305,POSITIVE_LENGTH_MEASURE(1.0E-006),#306);
#197=CIRCLE('',#307,15.0);
#198=CURVE_STYLE('',#308,POSITIVE_LENGTH_MEASURE(1.0E-006),#309);
#199=CIRCLE('',#310,5.0);
#200=CURVE_STYLE('',#311,POSITIVE_LENGTH_MEASURE(1.0E-006),#312);
#201=LINE('',#313,#314);
#202=POINT_STYLE(' ',#315,POSITIVE_LENGTH_MEASURE(1.0E-006),#316);
#203=CARTESIAN_POINT('',(15.0,0.0,0.0));
#204=CURVE_STYLE('',#317,POSITIVE_LENGTH_MEASURE(1.0E-006),#318);
#205=LINE('',#319,#320);
#206=CURVE_STYLE('',#321,POSITIVE_LENGTH_MEASURE(1.0E-006),#322);
#207=CIRCLE('',#323,15.0);
#208=SURFACE_STYLE_USAGE(.BOTH.,#324);
#209=FACE_OUTER_BOUND('',#325,.T.);
#210=CYLINDRICAL_SURFACE('',#326,15.0);
#211=CURVE_STYLE('',#327,POSITIVE_LENGTH_MEASURE(1.0E-006),#328);
#212=LINE('',#329,#330);
#213=SURFACE_STYLE_USAGE(.BOTH.,#331);
#214=FACE_OUTER_BOUND('',#332,.T.);
#215=CYLINDRICAL_SURFACE('',#333,10.0);
#216=CURVE_STYLE('',#334,POSITIVE_LENGTH_MEASURE(1.0E-006),#335);
#217=CIRCLE('',#336,10.0);
#218=CURVE_STYLE('',#337,POSITIVE_LENGTH_MEASURE(1.0E-006),#338);
#219=CIRCLE('',#339,5.0);
#220=POINT_STYLE(' ',#340,POSITIVE_LENGTH_MEASURE(1.0E-006),#341);
#221=CARTESIAN_POINT('',(10.0,-9.18454765366783E-016,-15.0));
#222=CURVE_STYLE('',#342,POSITIVE_LENGTH_MEASURE(1.0E-006),#343);
#223=LINE('',#344,#345);
#224=POINT_STYLE(' ',#346,POSITIVE_LENGTH_MEASURE(1.0E-006),#347);
#225=CARTESIAN_POINT('',(-5.0,5.5107285922007E-015,100.0));
#226=SURFACE_STYLE_USAGE(.BOTH.,#348);
#227=FACE_OUTER_BOUND('',#349,.T.);
#228=CYLINDRICAL_SURFACE('',#350,15.0);
#229=SURFACE_STYLE_USAGE(.BOTH.,#351);
#230=FACE_OUTER_BOUND('',#352,.T.);
#231=PLANE('',#353);
#232=POINT_STYLE(' ',#354,POSITIVE_LENGTH_MEASURE(1.0E-006),#355);
#233=CARTESIAN_POINT('',(-10.0,-1.22460635382238E-015,7.49830360911069E-032));
#234=CURVE_STYLE('',#356,POSITIVE_LENGTH_MEASURE(1.0E-006),#357);
#235=LINE('',#358,#359);
#236=CURVE_STYLE('',#360,POSITIVE_LENGTH_MEASURE(1.0E-006),#361);
#237=CIRCLE('',#362,10.0);
#238=POINT_STYLE(' ',#363,POSITIVE_LENGTH_MEASURE(1.0E-006),#364);
#239=CARTESIAN_POINT('',(5.0,6.12303176911189E-015,100.0));
#240=SURFACE_STYLE_USAGE(.BOTH.,#365);
#241=FACE_OUTER_BOUND('',#366,.T.);
#242=CONICAL_SURFACE('',#367,10.0,0.785398163397448);
#243=CURVE_STYLE('',#368,POSITIVE_LENGTH_MEASURE(1.0E-006),#369);
#244=CIRCLE('',#370,9.0);
#245=POINT_STYLE(' ',#371,POSITIVE_LENGTH_MEASURE(1.0E-006),#372);
#246=CARTESIAN_POINT('',(15.0,5.5107285922007E-015,90.0));
#247=POINT_STYLE(' ',#373,POSITIVE_LENGTH_MEASURE(1.0E-006),#374);
#248=CARTESIAN_POINT('',(-15.0,3.67381906146713E-015,90.0));
#249=POINT_STYLE(' ',#375,POSITIVE_LENGTH_MEASURE(1.0E-006),#376);
#250=CARTESIAN_POINT('',(-9.0,-2.32675207226252E-015,-20.0));
#251=CURVE_STYLE('',#377,POSITIVE_LENGTH_MEASURE(1.0E-006),#378);
#252=CIRCLE('',#379,15.0);
#253=POINT_STYLE(' ',#380,POSITIVE_LENGTH_MEASURE(1.0E-006),#381);
#254=CARTESIAN_POINT('',(10.0,0.0,0.0));
#255=SURFACE_STYLE_USAGE(.BOTH.,#382);
#256=FACE_BOUND('',#383,.T.);
#257=FACE_OUTER_BOUND('',#384,.T.);
#258=PLANE('',#385);
#259=POINT_STYLE(' ',#386,POSITIVE_LENGTH_MEASURE(1.0E-006),#387);
#260=CARTESIAN_POINT('',(9.0,-1.22460635382238E-015,-20.0));
#261=CURVE_STYLE('',#388,POSITIVE_LENGTH_MEASURE(1.0E-006),#389);
#262=LINE('',#390,#391);
#263=CURVE_STYLE('',#392,POSITIVE_LENGTH_MEASURE(1.0E-006),#393);
#264=LINE('',#394,#395);
#265=CURVE_STYLE('',#396,POSITIVE_LENGTH_MEASURE(1.0E-006),#397);
#266=LINE('',#398,#399);
#267=PRODUCT_CONTEXT('',#53,'mechanical');
#268=PRODUCT_DEFINITION_FORMATION_WITH_SPECIFIED_SOURCE(' ','NONE',#152,.NOT_KNOWN.);
#269=CLOSED_SHELL('',(#69,#105,#101,#129,#119,#71,#117,#143,#87,#73,#75));
#270=CARTESIAN_POINT('',(0.0,0.0,0.0));
#271=DIRECTION('',(0.0,0.0,1.0));
#272=DIRECTION('',(1.0,0.0,0.0));
#273= (NAMED_UNIT(#161)LENGTH_UNIT()SI_UNIT(.MILLI.,.METRE.));
#274=PRE_DEFINED_MARKER('');
#275=COLOUR_RGB('',0.509803950786591,0.509803950786591,0.588235318660736);
#276=SURFACE_SIDE_STYLE('',(#401));
#277=EDGE_LOOP('',(#402,#403,#404,#405));
#278=AXIS2_PLACEMENT_3D('',#406,#407,#408);
#279=SURFACE_SIDE_STYLE('',(#409));
#280=EDGE_LOOP('',(#410,#411,#412,#413));
#281=AXIS2_PLACEMENT_3D('',#414,#415,#416);
#282=SURFACE_SIDE_STYLE('',(#417));
#283=EDGE_LOOP('',(#418,#419,#420,#421));
#284=AXIS2_PLACEMENT_3D('',#422,#423,#424);
#285=SURFACE_SIDE_STYLE('',(#425));
#286=EDGE_LOOP('',(#426,#427));
#287=AXIS2_PLACEMENT_3D('',#428,#429,#430);
#288=DRAUGHTING_PRE_DEFINED_CURVE_FONT('continuous');
#289=COLOUR_RGB('',0.509803950786591,0.509803950786591,0.588235318660736);
#290=AXIS2_PLACEMENT_3D('',#431,#432,#433);
#291=PRE_DEFINED_MARKER('');
#292=COLOUR_RGB('',0.509803950786591,0.509803950786591,0.588235318660736);
#293=DRAUGHTING_PRE_DEFINED_CURVE_FONT('continuous');
#294=COLOUR_RGB('',0.509803950786591,0.509803950786591,0.588235318660736);
#295=AXIS2_PLACEMENT_3D('',#434,#435,#436);
#296=DRAUGHTING_PRE_DEFINED_CURVE_FONT('continuous');
#297=COLOUR_RGB('',0.509803950786591,0.509803950786591,0.588235318660736);
#298=AXIS2_PLACEMENT_3D('',#437,#438,#439);
#299=DRAUGHTING_PRE_DEFINED_CURVE_FONT('continuous');
#300=COLOUR_RGB('',0.509803950786591,0.509803950786591,0.588235318660736);
#301=AXIS2_PLACEMENT_3D('',#440,#441,#442);
#302=SURFACE_SIDE_STYLE('',(#443));
#303=EDGE_LOOP('',(#444,#445,#446,#447));
#304=AXIS2_PLACEMENT_3D('',#448,#449,#450);
#305=DRAUGHTING_PRE_DEFINED_CURVE_FONT('continuous');
#306=COLOUR_RGB('',0.509803950786591,0.509803950786591,0.588235318660736);
#307=AXIS2_PLACEMENT_3D('',#451,#452,#453);
#308=DRAUGHTING_PRE_DEFINED_CURVE_FONT('continuous');
#309=COLOUR_RGB('',0.509803950786591,0.509803950786591,0.588235318660736);
#310=AXIS2_PLACEMENT_3D('',#454,#455,#456);
#311=DRAUGHTING_PRE_DEFINED_CURVE_FONT('continuous');
#312=COLOUR_RGB('',0.509803950786591,0.509803950786591,0.588235318660736);
#313=CARTESIAN_POINT('',(-10.0,-1.68383373650577E-015,-7.5));
#314=VECTOR('',#457,1.0);
#315=PRE_DEFINED_MARKER('');
#316=COLOUR_RGB('',0.509803950786591,0.509803950786591,0.588235318660736);
#317=DRAUGHTING_PRE_DEFINED_CURVE_FONT('continuous');
#318=COLOUR_RGB('',0.509803950786591,0.509803950786591,0.588235318660736);
#319=CARTESIAN_POINT('',(10.0,7.65378971138986E-016,-7.5));
#320=VECTOR('',#458,1.0);
#321=DRAUGHTING_PRE_DEFINED_CURVE_FONT('continuous');
#322=COLOUR_RGB('',0.509803950786591,0.509803950786591,0.588235318660736);
#323=AXIS2_PLACEMENT_3D('',#459,#460,#461);
#324=SURFACE_SIDE_STYLE('',(#462));
#325=EDGE_LOOP('',(#463,#464,#465,#466));
#326=AXIS2_PLACEMENT_3D('',#467,#468,#469);
#327=DRAUGHTING_PRE_DEFINED_CURVE_FONT('continuous');
#328=COLOUR_RGB('',0.509803950786591,0.509803950786591,0.588235318660736);
#329=CARTESIAN_POINT('',(-10.0,4.59227382683391E-015,95.0));
#330=VECTOR('',#470,1.0);
#331=SURFACE_SIDE_STYLE('',(#471));
#332=EDGE_LOOP('',(#472,#473,#474,#475));
#333=AXIS2_PLACEMENT_3D('',#476,#477,#478);
#334=DRAUGHTING_PRE_DEFINED_CURVE_FONT('continuous');
#335=COLOUR_RGB('',0.509803950786591,0.509803950786591,0.588235318660736);
#336=AXIS2_PLACEMENT_3D('',#479,#480,#481);
#337=DRAUGHTING_PRE_DEFINED_CURVE_FONT('continuous');
#338=COLOUR_RGB('',0.509803950786591,0.509803950786591,0.588235318660736);
#339=AXIS2_PLACEMENT_3D('',#482,#483,#484);
#340=PRE_DEFINED_MARKER('');
#341=COLOUR_RGB('',0.509803950786591,0.509803950786591,0.588235318660736);
#342=DRAUGHTING_PRE_DEFINED_CURVE_FONT('continuous');
#343=COLOUR_RGB('',0.509803950786591,0.509803950786591,0.588235318660736);
#344=CARTESIAN_POINT('',(-9.5,-2.23490659572584E-015,-17.5));
#345=VECTOR('',#485,1.0);
#346=PRE_DEFINED_MARKER('');
#347=COLOUR_RGB('',0.509803950786591,0.509803950786591,0.588235318660736);
#348=SURFACE_SIDE_STYLE('',(#486));
#349=EDGE_LOOP('',(#487,#488,#489,#490));
#350=AXIS2_PLACEMENT_3D('',#491,#492,#493);
#351=SURFACE_SIDE_STYLE('',(#494));
#352=EDGE_LOOP('',(#495,#496));
#353=AXIS2_PLACEMENT_3D('',#497,#498,#499);
#354=PRE_DEFINED_MARKER('');
#355=COLOUR_RGB('',0.509803950786591,0.509803950786591,0.588235318660736);
#356=DRAUGHTING_PRE_DEFINED_CURVE_FONT('continuous');
#357=COLOUR_RGB('',0.509803950786591,0.509803950786591,0.588235318660736);
#358=CARTESIAN_POINT('',(10.0,7.04148653447867E-015,95.0));
#359=VECTOR('',#500,1.0);
#360=DRAUGHTING_PRE_DEFINED_CURVE_FONT('continuous');
#361=COLOUR_RGB('',0.509803950786591,0.509803950786591,0.588235318660736);
#362=AXIS2_PLACEMENT_3D('',#501,#502,#503);
#363=PRE_DEFINED_MARKER('');
#364=COLOUR_RGB('',0.509803950786591,0.509803950786591,0.588235318660736);
#365=SURFACE_SIDE_STYLE('',(#504));
#366=EDGE_LOOP('',(#505,#506,#507,#508));
#367=AXIS2_PLACEMENT_3D('',#509,#510,#511);
#368=DRAUGHTING_PRE_DEFINED_CURVE_FONT('continuous');
#369=COLOUR_RGB('',0.509803950786591,0.509803950786591,0.588235318660736);
#370=AXIS2_PLACEMENT_3D('',#512,#513,#514);
#371=PRE_DEFINED_MARKER('');
#372=COLOUR_RGB('',0.509803950786591,0.509803950786591,0.588235318660736);
#373=PRE_DEFINED_MARKER('');
#374=COLOUR_RGB('',0.509803950786591,0.509803950786591,0.588235318660736);
#375=PRE_DEFINED_MARKER('');
#376=COLOUR_RGB('',0.509803950786591,0.509803950786591,0.588235318660736);
#377=DRAUGHTING_PRE_DEFINED_CURVE_FONT('continuous');
#378=COLOUR_RGB('',0.509803950786591,0.509803950786591,0.588235318660736);
#379=AXIS2_PLACEMENT_3D('',#515,#516,#517);
#380=PRE_DEFINED_MARKER('');
#381=COLOUR_RGB('',0.509803950786591,0.509803950786591,0.588235318660736);
#382=SURFACE_SIDE_STYLE('',(#518));
#383=EDGE_LOOP('',(#519,#520));
#384=EDGE_LOOP('',(#521,#522));
#385=AXIS2_PLACEMENT_3D('',#523,#524,#525);
#386=PRE_DEFINED_MARKER('');
#387=COLOUR_RGB('',0.509803950786591,0.509803950786591,0.588235318660736);
#388=DRAUGHTING_PRE_DEFINED_CURVE_FONT('continuous');
#389=COLOUR_RGB('',0.509803950786591,0.509803950786591,0.588235318660736);
#390=CARTESIAN_POINT('',(15.0,4.59227382683391E-015,45.0));
#391=VECTOR('',#526,1.0);
#392=DRAUGHTING_PRE_DEFINED_CURVE_FONT('continuous');
#393=COLOUR_RGB('',0.509803950786591,0.509803950786591,0.588235318660736);
#394=CARTESIAN_POINT('',(-15.0,9.18454765366783E-016,45.0));
#395=VECTOR('',#527,1.0);
#396=DRAUGHTING_PRE_DEFINED_CURVE_FONT('continuous');
#397=COLOUR_RGB('',0.509803950786591,0.509803950786591,0.588235318660736);
#398=CARTESIAN_POINT('',(9.5,9.18454765366783E-017,-17.5));
#399=VECTOR('',#528,1.0);
#401=SURFACE_STYLE_FILL_AREA(#529);
#402=ORIENTED_EDGE('',*,*,#151,.F.);
#403=ORIENTED_EDGE('',*,*,#107,.T.);
#404=ORIENTED_EDGE('',*,*,#113,.F.);
#405=ORIENTED_EDGE('',*,*,#131,.F.);
#406=CARTESIAN_POINT('',(0.0,-1.07153055959458E-015,-17.5));
#407=DIRECTION('',(-0.0,6.12303176911189E-017,1.0));
#408=DIRECTION('',(1.0,0.0,0.0));
#409=SURFACE_STYLE_FILL_AREA(#530);
#410=ORIENTED_EDGE('',*,*,#123,.T.);
#411=ORIENTED_EDGE('',*,*,#89,.F.);
#412=ORIENTED_EDGE('',*,*,#103,.T.);
#413=ORIENTED_EDGE('',*,*,#91,.T.);
#414=CARTESIAN_POINT('',(0.0,5.81688018065629E-015,95.0));
#415=DIRECTION('',(0.0,-6.12303176911189E-017,-1.0));
#416=DIRECTION('',(1.0,0.0,0.0));
#417=SURFACE_STYLE_FILL_AREA(#531);
#418=ORIENTED_EDGE('',*,*,#151,.T.);
#419=ORIENTED_EDGE('',*,*,#83,.F.);
#420=ORIENTED_EDGE('',*,*,#113,.T.);
#421=ORIENTED_EDGE('',*,*,#125,.T.);
#422=CARTESIAN_POINT('',(0.0,-1.07153055959458E-015,-17.5));
#423=DIRECTION('',(-0.0,6.12303176911189E-017,1.0));
#424=DIRECTION('',(1.0,0.0,0.0));
#425=SURFACE_STYLE_FILL_AREA(#532);
#426=ORIENTED_EDGE('',*,*,#131,.T.);
#427=ORIENTED_EDGE('',*,*,#83,.T.);
#428=CARTESIAN_POINT('',(4.5,-1.22460635382238E-015,-20.0));
#429=DIRECTION('',(0.0,-6.12303176911189E-017,-1.0));
#430=DIRECTION('',(1.0,0.0,0.0));
#431=CARTESIAN_POINT('',(0.0,0.0,0.0));
#432=DIRECTION('',(0.0,-6.12303176911189E-017,-1.0));
#433=DIRECTION('',(1.0,0.0,0.0));
#434=CARTESIAN_POINT('',(0.0,0.0,0.0));
#435=DIRECTION('',(0.0,-6.12303176911189E-017,-1.0));
#436=DIRECTION('',(1.0,0.0,0.0));
#437=CARTESIAN_POINT('',(0.0,-1.22460635382238E-015,-20.0));
#438=DIRECTION('',(0.0,-6.12303176911189E-017,-1.0));
#439=DIRECTION('',(1.0,0.0,0.0));
#440=CARTESIAN_POINT('',(0.0,0.0,0.0));
#441=DIRECTION('',(0.0,-6.12303176911189E-017,-1.0));
#442=DIRECTION('',(1.0,0.0,0.0));
#443=SURFACE_STYLE_FILL_AREA(#533);
#444=ORIENTED_EDGE('',*,*,#97,.T.);
#445=ORIENTED_EDGE('',*,*,#125,.F.);
#446=ORIENTED_EDGE('',*,*,#93,.T.);
#447=ORIENTED_EDGE('',*,*,#81,.T.);
#448=CARTESIAN_POINT('',(0.0,-4.59227382683391E-016,-7.5));
#449=DIRECTION('',(-0.0,6.12303176911189E-017,1.0));
#450=DIRECTION('',(1.0,0.0,0.0));
#451=CARTESIAN_POINT('',(0.0,5.5107285922007E-015,90.0));
#452=DIRECTION('',(0.0,-6.12303176911189E-017,-1.0));
#453=DIRECTION('',(1.0,0.0,0.0));
#454=CARTESIAN_POINT('',(0.0,6.12303176911189E-015,100.0));
#455=DIRECTION('',(0.0,-6.12303176911189E-017,-1.0));
#456=DIRECTION('',(1.0,0.0,0.0));
#457=DIRECTION('',(-0.0,6.12303176911189E-017,1.0));
#458=DIRECTION('',(0.0,-6.12303176911189E-017,-1.0));
#459=CARTESIAN_POINT('',(0.0,5.5107285922007E-015,90.0));
#460=DIRECTION('',(0.0,-6.12303176911189E-017,-1.0));
#461=DIRECTION('',(1.0,0.0,0.0));
#462=SURFACE_STYLE_FILL_AREA(#534);
#463=ORIENTED_EDGE('',*,*,#147,.F.);
#464=ORIENTED_EDGE('',*,*,#99,.T.);
#465=ORIENTED_EDGE('',*,*,#149,.F.);
#466=ORIENTED_EDGE('',*,*,#139,.F.);
#467=CARTESIAN_POINT('',(0.0,2.75536429610035E-015,45.0));
#468=DIRECTION('',(-0.0,6.12303176911189E-017,1.0));
#469=DIRECTION('',(1.0,0.0,0.0));
#470=DIRECTION('',(0.707106781186547,1.2988911856079E-016,0.707106781186548));
#471=SURFACE_STYLE_FILL_AREA(#535);
#472=ORIENTED_EDGE('',*,*,#97,.F.);
#473=ORIENTED_EDGE('',*,*,#77,.T.);
#474=ORIENTED_EDGE('',*,*,#93,.F.);
#475=ORIENTED_EDGE('',*,*,#107,.F.);
#476=CARTESIAN_POINT('',(0.0,-4.59227382683391E-016,-7.5));
#477=DIRECTION('',(-0.0,6.12303176911189E-017,1.0));
#478=DIRECTION('',(1.0,0.0,0.0));
#479=CARTESIAN_POINT('',(0.0,-9.18454765366783E-016,-15.0));
#480=DIRECTION('',(0.0,-6.12303176911189E-017,-1.0));
#481=DIRECTION('',(1.0,0.0,0.0));
#482=CARTESIAN_POINT('',(0.0,6.12303176911189E-015,100.0));
#483=DIRECTION('',(0.0,-6.12303176911189E-017,-1.0));
#484=DIRECTION('',(1.0,0.0,0.0));
#485=DIRECTION('',(-0.196116135138184,3.60247597765962E-017,0.98058067569092));
#486=SURFACE_STYLE_FILL_AREA(#536);
#487=ORIENTED_EDGE('',*,*,#147,.T.);
#488=ORIENTED_EDGE('',*,*,#85,.F.);
#489=ORIENTED_EDGE('',*,*,#149,.T.);
#490=ORIENTED_EDGE('',*,*,#89,.T.);
#491=CARTESIAN_POINT('',(0.0,2.75536429610035E-015,45.0));
#492=DIRECTION('',(-0.0,6.12303176911189E-017,1.0));
#493=DIRECTION('',(1.0,0.0,0.0));
#494=SURFACE_STYLE_FILL_AREA(#537);
#495=ORIENTED_EDGE('',*,*,#109,.F.);
#496=ORIENTED_EDGE('',*,*,#91,.F.);
#497=CARTESIAN_POINT('',(2.5,6.12303176911189E-015,100.0));
#498=DIRECTION('',(0.0,6.12303176911189E-017,1.0));
#499=DIRECTION('',(-1.0,0.0,0.0));
#500=DIRECTION('',(0.707106781186547,4.32963728535968E-017,-0.707106781186548));
#501=CARTESIAN_POINT('',(0.0,-9.18454765366783E-016,-15.0));
#502=DIRECTION('',(0.0,-6.12303176911189E-017,-1.0));
#503=DIRECTION('',(1.0,0.0,0.0));
#504=SURFACE_STYLE_FILL_AREA(#538);
#505=ORIENTED_EDGE('',*,*,#123,.F.);
#506=ORIENTED_EDGE('',*,*,#109,.T.);
#507=ORIENTED_EDGE('',*,*,#103,.F.);
#508=ORIENTED_EDGE('',*,*,#99,.F.);
#509=CARTESIAN_POINT('',(0.0,5.81688018065629E-015,95.0));
#510=DIRECTION('',(0.0,-6.12303176911189E-017,-1.0));
#511=DIRECTION('',(1.0,0.0,0.0));
#512=CARTESIAN_POINT('',(0.0,-1.22460635382238E-015,-20.0));
#513=DIRECTION('',(0.0,-6.12303176911189E-017,-1.0));
#514=DIRECTION('',(1.0,0.0,0.0));
#515=CARTESIAN_POINT('',(0.0,0.0,0.0));
#516=DIRECTION('',(0.0,-6.12303176911189E-017,-1.0));
#517=DIRECTION('',(1.0,0.0,0.0));
#518=SURFACE_STYLE_FILL_AREA(#539);
#519=ORIENTED_EDGE('',*,*,#77,.F.);
#520=ORIENTED_EDGE('',*,*,#81,.F.);
#521=ORIENTED_EDGE('',*,*,#139,.T.);
#522=ORIENTED_EDGE('',*,*,#85,.T.);
#523=CARTESIAN_POINT('',(12.5,0.0,0.0));
#524=DIRECTION('',(0.0,-6.12303176911189E-017,-1.0));
#525=DIRECTION('',(1.0,0.0,0.0));
#526=DIRECTION('',(0.0,-6.12303176911189E-017,-1.0));
#527=DIRECTION('',(-0.0,6.12303176911189E-017,1.0));
#528=DIRECTION('',(-0.196116135138184,-8.40577728120578E-017,-0.98058067569092));
#529=FILL_AREA_STYLE('',(#540));
#530=FILL_AREA_STYLE('',(#541));
#531=FILL_AREA_STYLE('',(#542));
#532=FILL_AREA_STYLE('',(#543));
#533=FILL_AREA_STYLE('',(#544));
#534=FILL_AREA_STYLE('',(#545));
#535=FILL_AREA_STYLE('',(#546));
#536=FILL_AREA_STYLE('',(#547));
#537=FILL_AREA_STYLE('',(#548));
#538=FILL_AREA_STYLE('',(#549));
#539=FILL_AREA_STYLE('',(#550));
#540=FILL_AREA_STYLE_COLOUR('',#551);
#541=FILL_AREA_STYLE_COLOUR('',#552);
#542=FILL_AREA_STYLE_COLOUR('',#553);
#543=FILL_AREA_STYLE_COLOUR('',#554);
#544=FILL_AREA_STYLE_COLOUR('',#555);
#545=FILL_AREA_STYLE_COLOUR('',#556);
#546=FILL_AREA_STYLE_COLOUR('',#557);
#547=FILL_AREA_STYLE_COLOUR('',#558);
#548=FILL_AREA_STYLE_COLOUR('',#559);
#549=FILL_AREA_STYLE_COLOUR('',#560);
#550=FILL_AREA_STYLE_COLOUR('',#561);
#551=COLOUR_RGB('',0.509803950786591,0.509803950786591,0.588235318660736);
#552=COLOUR_RGB('',0.509803950786591,0.509803950786591,0.588235318660736);
#553=COLOUR_RGB('',0.509803950786591,0.509803950786591,0.588235318660736);
#554=COLOUR_RGB('',0.509803950786591,0.509803950786591,0.588235318660736);
#555=COLOUR_RGB('',0.509803950786591,0.509803950786591,0.588235318660736);
#556=COLOUR_RGB('',0.509803950786591,0.509803950786591,0.588235318660736);
#557=COLOUR_RGB('',0.509803950786591,0.509803950786591,0.588235318660736);
#558=COLOUR_RGB('',0.509803950786591,0.509803950786591,0.588235318660736);
#559=COLOUR_RGB('',0.509803950786591,0.509803950786591,0.588235318660736);
#560=COLOUR_RGB('',0.509803950786591,0.509803950786591,0.588235318660736);
#561=COLOUR_RGB('',0.509803950786591,0.509803950786591,0.588235318660736);
ENDSEC;
END-ISO-10303-21;
