ISO-10303-21;
HEADER;
FILE_DESCRIPTION(('STEP AP214'),'1');
FILE_NAME(' ','  ',('TraceParts'),('TraceParts S.A.'),'XStep 1.0',' ',' ');
FILE_SCHEMA(('automotive_design'));
ENDSEC;
DATA;
#1=MECHANICAL_DESIGN_GEOMETRIC_PRESENTATION_REPRESENTATION(' ',(#10,#11,#12,#13,#14,#15,#16,#17,#18,#19,#20,#21,#22,#23,#24,#25,#26,#27,#28,#29,#30,#31,#32,#33,#34,#35,#36,#37,#38,#39,#40,#41,#42,#43,#44,#45,#46,#47,#48,#49,#50,#51,#52),#6);
#2=PRODUCT_DEFINITION_CONTEXT('',#53,'design');
#3=APPLICATION_PROTOCOL_DEFINITION('INTERNATIONAL STANDARD','automotive_design',1994,#53);
#4=PRODUCT_CATEGORY_RELATIONSHIP('NONE','NONE',#54,#55);
#5=SHAPE_DEFINITION_REPRESENTATION(#56,#57);
#6= (GEOMETRIC_REPRESENTATION_CONTEXT(3)GLOBAL_UNCERTAINTY_ASSIGNED_CONTEXT((#60))GLOBAL_UNIT_ASSIGNED_CONTEXT((#62,#63,#64))REPRESENTATION_CONTEXT('NONE','WORKSPACE'));
#10=STYLED_ITEM('',(#66),#67);
#11=STYLED_ITEM('',(#68),#69);
#12=STYLED_ITEM('',(#70),#71);
#13=STYLED_ITEM('',(#72),#73);
#14=STYLED_ITEM('',(#74),#75);
#15=STYLED_ITEM('',(#76),#77);
#16=STYLED_ITEM('',(#78),#79);
#17=STYLED_ITEM('',(#80),#81);
#18=STYLED_ITEM('',(#82),#83);
#19=STYLED_ITEM('',(#84),#85);
#20=STYLED_ITEM('',(#86),#87);
#21=STYLED_ITEM('',(#88),#89);
#22=STYLED_ITEM('',(#90),#91);
#23=STYLED_ITEM('',(#92),#93);
#24=STYLED_ITEM('',(#94),#95);
#25=STYLED_ITEM('',(#96),#97);
#26=STYLED_ITEM('',(#98),#99);
#27=STYLED_ITEM('',(#100),#101);
#28=STYLED_ITEM('',(#102),#103);
#29=STYLED_ITEM('',(#104),#105);
#30=STYLED_ITEM('',(#106),#107);
#31=STYLED_ITEM('',(#108),#109);
#32=STYLED_ITEM('',(#110),#111);
#33=STYLED_ITEM('',(#112),#113);
#34=STYLED_ITEM('',(#114),#115);
#35=STYLED_ITEM('',(#116),#117);
#36=STYLED_ITEM('',(#118),#119);
#37=STYLED_ITEM('',(#120),#121);
#38=STYLED_ITEM('',(#122),#123);
#39=STYLED_ITEM('',(#124),#125);
#40=STYLED_ITEM('',(#126),#127);
#41=STYLED_ITEM('',(#128),#129);
#42=STYLED_ITEM('',(#130),#131);
#43=STYLED_ITEM('',(#132),#133);
#44=STYLED_ITEM('',(#134),#135);
#45=STYLED_ITEM('',(#136),#137);
#46=STYLED_ITEM('',(#138),#139);
#47=STYLED_ITEM('',(#140),#141);
#48=STYLED_ITEM('',(#142),#143);
#49=STYLED_ITEM('',(#144),#145);
#50=STYLED_ITEM('',(#146),#147);
#51=STYLED_ITEM('',(#148),#149);
#52=STYLED_ITEM('',(#150),#151);
#53=APPLICATION_CONTEXT(' ');
#54=PRODUCT_CATEGORY('part','NONE');
#55=PRODUCT_RELATED_PRODUCT_CATEGORY('detail',' ',(#152));
#56=PRODUCT_DEFINITION_SHAPE('NONE','NONE',#153);
#57=ADVANCED_BREP_SHAPE_REPRESENTATION('1',(#154,#155),#6);
#60=UNCERTAINTY_MEASURE_WITH_UNIT(LENGTH_MEASURE(1.0E-006),#62,'','');
#62= (CONVERSION_BASED_UNIT('MILLIMETRE',#158)LENGTH_UNIT()NAMED_UNIT(#161));
#63= (NAMED_UNIT(#163)PLANE_ANGLE_UNIT()SI_UNIT($,.RADIAN.));
#64= (NAMED_UNIT(#163)SOLID_ANGLE_UNIT()SI_UNIT($,.STERADIAN.));
#66=PRESENTATION_STYLE_ASSIGNMENT((#169));
#67=VERTEX_POINT('',#170);
#68=PRESENTATION_STYLE_ASSIGNMENT((#171));
#69=VERTEX_POINT('',#172);
#70=PRESENTATION_STYLE_ASSIGNMENT((#173));
#71=EDGE_CURVE('',#123,#141,#174,.T.);
#72=PRESENTATION_STYLE_ASSIGNMENT((#175));
#73=VERTEX_POINT('',#176);
#74=PRESENTATION_STYLE_ASSIGNMENT((#177));
#75=EDGE_CURVE('',#67,#81,#178,.T.);
#76=PRESENTATION_STYLE_ASSIGNMENT((#179));
#77=ADVANCED_FACE('',(#180,#181),#182,.T.);
#78=PRESENTATION_STYLE_ASSIGNMENT((#183));
#79=EDGE_CURVE('',#103,#73,#184,.T.);
#80=PRESENTATION_STYLE_ASSIGNMENT((#185));
#81=VERTEX_POINT('',#186);
#82=PRESENTATION_STYLE_ASSIGNMENT((#187));
#83=VERTEX_POINT('',#188);
#84=PRESENTATION_STYLE_ASSIGNMENT((#189));
#85=EDGE_CURVE('',#111,#69,#190,.T.);
#86=PRESENTATION_STYLE_ASSIGNMENT((#191));
#87=EDGE_CURVE('',#73,#123,#192,.T.);
#88=PRESENTATION_STYLE_ASSIGNMENT((#193));
#89=EDGE_CURVE('',#125,#83,#194,.T.);
#90=PRESENTATION_STYLE_ASSIGNMENT((#195));
#91=ADVANCED_FACE('',(#196),#197,.T.);
#92=PRESENTATION_STYLE_ASSIGNMENT((#198));
#93=ADVANCED_FACE('',(#199),#200,.T.);
#94=PRESENTATION_STYLE_ASSIGNMENT((#201));
#95=EDGE_CURVE('',#127,#135,#202,.T.);
#96=PRESENTATION_STYLE_ASSIGNMENT((#203));
#97=ADVANCED_FACE('',(#204),#205,.T.);
#98=PRESENTATION_STYLE_ASSIGNMENT((#206));
#99=EDGE_CURVE('',#111,#73,#207,.T.);
#100=PRESENTATION_STYLE_ASSIGNMENT((#208));
#101=ADVANCED_FACE('',(#209),#210,.T.);
#102=PRESENTATION_STYLE_ASSIGNMENT((#211));
#103=VERTEX_POINT('',#212);
#104=PRESENTATION_STYLE_ASSIGNMENT((#213));
#105=ADVANCED_FACE('',(#214),#215,.T.);
#106=PRESENTATION_STYLE_ASSIGNMENT((#216));
#107=EDGE_CURVE('',#125,#127,#217,.T.);
#108=PRESENTATION_STYLE_ASSIGNMENT((#218));
#109=EDGE_CURVE('',#103,#69,#219,.T.);
#110=PRESENTATION_STYLE_ASSIGNMENT((#220));
#111=VERTEX_POINT('',#221);
#112=PRESENTATION_STYLE_ASSIGNMENT((#222));
#113=EDGE_CURVE('',#135,#127,#223,.T.);
#114=PRESENTATION_STYLE_ASSIGNMENT((#224));
#115=EDGE_CURVE('',#73,#103,#225,.T.);
#116=PRESENTATION_STYLE_ASSIGNMENT((#226));
#117=ADVANCED_FACE('',(#227),#228,.T.);
#118=PRESENTATION_STYLE_ASSIGNMENT((#229));
#119=EDGE_CURVE('',#69,#111,#230,.T.);
#120=PRESENTATION_STYLE_ASSIGNMENT((#231));
#121=EDGE_CURVE('',#141,#103,#232,.T.);
#122=PRESENTATION_STYLE_ASSIGNMENT((#233));
#123=VERTEX_POINT('',#234);
#124=PRESENTATION_STYLE_ASSIGNMENT((#235));
#125=VERTEX_POINT('',#236);
#126=PRESENTATION_STYLE_ASSIGNMENT((#237));
#127=VERTEX_POINT('',#238);
#128=PRESENTATION_STYLE_ASSIGNMENT((#239));
#129=EDGE_CURVE('',#135,#83,#240,.T.);
#130=PRESENTATION_STYLE_ASSIGNMENT((#241));
#131=EDGE_CURVE('',#83,#81,#242,.T.);
#132=PRESENTATION_STYLE_ASSIGNMENT((#243));
#133=ADVANCED_FACE('',(#244),#245,.T.);
#134=PRESENTATION_STYLE_ASSIGNMENT((#246));
#135=VERTEX_POINT('',#247);
#136=PRESENTATION_STYLE_ASSIGNMENT((#248));
#137=ADVANCED_FACE('',(#249),#250,.T.);
#138=PRESENTATION_STYLE_ASSIGNMENT((#251));
#139=ADVANCED_FACE('',(#252),#253,.T.);
#140=PRESENTATION_STYLE_ASSIGNMENT((#254));
#141=VERTEX_POINT('',#255);
#142=PRESENTATION_STYLE_ASSIGNMENT((#256));
#143=ADVANCED_FACE('',(#257),#258,.T.);
#144=PRESENTATION_STYLE_ASSIGNMENT((#259));
#145=EDGE_CURVE('',#83,#125,#260,.T.);
#146=PRESENTATION_STYLE_ASSIGNMENT((#261));
#147=EDGE_CURVE('',#141,#123,#262,.T.);
#148=PRESENTATION_STYLE_ASSIGNMENT((#263));
#149=EDGE_CURVE('',#81,#67,#264,.T.);
#150=PRESENTATION_STYLE_ASSIGNMENT((#265));
#151=EDGE_CURVE('',#67,#125,#266,.T.);
#152=PRODUCT('1','1','PART-1-DESC',(#267));
#153=PRODUCT_DEFINITION('NONE','NONE',#268,#2);
#154=MANIFOLD_SOLID_BREP('1',#269);
#155=AXIS2_PLACEMENT_3D('',#270,#271,#272);
#158=LENGTH_MEASURE_WITH_UNIT(LENGTH_MEASURE(1.0),#273);
#161=DIMENSIONAL_EXPONENTS(1.0,0.0,0.0,0.0,0.0,0.0,0.0);
#163=DIMENSIONAL_EXPONENTS(0.0,0.0,0.0,0.0,0.0,0.0,0.0);
#169=POINT_STYLE(' ',#274,POSITIVE_LENGTH_MEASURE(1.0E-006),#275);
#170=CARTESIAN_POINT('',(-15.0,-1.83690953073357E-015,1.1247455413666E-031));
#171=POINT_STYLE(' ',#276,POSITIVE_LENGTH_MEASURE(1.0E-006),#277);
#172=CARTESIAN_POINT('',(7.2,-1.22460635382238E-015,-20.0));
#173=CURVE_STYLE('',#278,POSITIVE_LENGTH_MEASURE(1.0E-006),#279);
#174=CIRCLE('',#280,8.0);
#175=POINT_STYLE(' ',#281,POSITIVE_LENGTH_MEASURE(1.0E-006),#282);
#176=CARTESIAN_POINT('',(-8.0,-1.9593701661158E-015,-16.0));
#177=CURVE_STYLE('',#283,POSITIVE_LENGTH_MEASURE(1.0E-006),#284);
#178=CIRCLE('',#285,15.0);
#179=SURFACE_STYLE_USAGE(.BOTH.,#286);
#180=FACE_BOUND('',#287,.T.);
#181=FACE_OUTER_BOUND('',#288,.T.);
#182=PLANE('',#289);
#183=CURVE_STYLE('',#290,POSITIVE_LENGTH_MEASURE(1.0E-006),#291);
#184=CIRCLE('',#292,8.0);
#185=POINT_STYLE(' ',#293,POSITIVE_LENGTH_MEASURE(1.0E-006),#294);
#186=CARTESIAN_POINT('',(15.0,0.0,0.0));
#187=POINT_STYLE(' ',#295,POSITIVE_LENGTH_MEASURE(1.0E-006),#296);
#188=CARTESIAN_POINT('',(15.0,1.37768214805017E-015,22.5));
#189=CURVE_STYLE('',#297,POSITIVE_LENGTH_MEASURE(1.0E-006),#298);
#190=CIRCLE('',#299,7.2);
#191=CURVE_STYLE('',#300,POSITIVE_LENGTH_MEASURE(1.0E-006),#301);
#192=LINE('',#302,#303);
#193=CURVE_STYLE('',#304,POSITIVE_LENGTH_MEASURE(1.0E-006),#305);
#194=CIRCLE('',#306,15.0);
#195=SURFACE_STYLE_USAGE(.BOTH.,#307);
#196=FACE_OUTER_BOUND('',#308,.T.);
#197=CONICAL_SURFACE('',#309,13.75,0.785398163397448);
#198=SURFACE_STYLE_USAGE(.BOTH.,#310);
#199=FACE_OUTER_BOUND('',#311,.T.);
#200=PLANE('',#312);
#201=CURVE_STYLE('',#313,POSITIVE_LENGTH_MEASURE(1.0E-006),#314);
#202=CIRCLE('',#315,12.5);
#203=SURFACE_STYLE_USAGE(.BOTH.,#316);
#204=FACE_OUTER_BOUND('',#317,.T.);
#205=CYLINDRICAL_SURFACE('',#318,15.0);
#206=CURVE_STYLE('',#319,POSITIVE_LENGTH_MEASURE(1.0E-006),#320);
#207=LINE('',#321,#322);
#208=SURFACE_STYLE_USAGE(.BOTH.,#323);
#209=FACE_OUTER_BOUND('',#324,.T.);
#210=CONICAL_SURFACE('',#325,13.75,0.785398163397448);
#211=POINT_STYLE(' ',#326,POSITIVE_LENGTH_MEASURE(1.0E-006),#327);
#212=CARTESIAN_POINT('',(8.0,-9.79685083057902E-016,-16.0));
#213=SURFACE_STYLE_USAGE(.BOTH.,#328);
#214=FACE_OUTER_BOUND('',#329,.T.);
#215=PLANE('',#330);
#216=CURVE_STYLE('',#331,POSITIVE_LENGTH_MEASURE(1.0E-006),#332);
#217=LINE('',#333,#334);
#218=CURVE_STYLE('',#335,POSITIVE_LENGTH_MEASURE(1.0E-006),#336);
#219=LINE('',#337,#338);
#220=POINT_STYLE(' ',#339,POSITIVE_LENGTH_MEASURE(1.0E-006),#340);
#221=CARTESIAN_POINT('',(-7.2,-2.10632292857449E-015,-20.0));
#222=CURVE_STYLE('',#341,POSITIVE_LENGTH_MEASURE(1.0E-006),#342);
#223=CIRCLE('',#343,12.5);
#224=CURVE_STYLE('',#344,POSITIVE_LENGTH_MEASURE(1.0E-006),#345);
#225=CIRCLE('',#346,8.0);
#226=SURFACE_STYLE_USAGE(.BOTH.,#347);
#227=FACE_OUTER_BOUND('',#348,.T.);
#228=CYLINDRICAL_SURFACE('',#349,15.0);
#229=CURVE_STYLE('',#350,POSITIVE_LENGTH_MEASURE(1.0E-006),#351);
#230=CIRCLE('',#352,7.2);
#231=CURVE_STYLE('',#353,POSITIVE_LENGTH_MEASURE(1.0E-006),#354);
#232=LINE('',#355,#356);
#233=POINT_STYLE(' ',#357,POSITIVE_LENGTH_MEASURE(1.0E-006),#358);
#234=CARTESIAN_POINT('',(-8.0,-9.79685083057902E-016,5.99864288728855E-032));
#235=POINT_STYLE(' ',#359,POSITIVE_LENGTH_MEASURE(1.0E-006),#360);
#236=CARTESIAN_POINT('',(-15.0,-4.59227382683391E-016,22.5));
#237=POINT_STYLE(' ',#361,POSITIVE_LENGTH_MEASURE(1.0E-006),#362);
#238=CARTESIAN_POINT('',(-12.5,3.94430452610506E-031,25.0));
#239=CURVE_STYLE('',#363,POSITIVE_LENGTH_MEASURE(1.0E-006),#364);
#240=LINE('',#365,#366);
#241=CURVE_STYLE('',#367,POSITIVE_LENGTH_MEASURE(1.0E-006),#368);
#242=LINE('',#369,#370);
#243=SURFACE_STYLE_USAGE(.BOTH.,#371);
#244=FACE_OUTER_BOUND('',#372,.T.);
#245=CYLINDRICAL_SURFACE('',#373,8.0);
#246=POINT_STYLE(' ',#374,POSITIVE_LENGTH_MEASURE(1.0E-006),#375);
#247=CARTESIAN_POINT('',(12.5,1.53075794227797E-015,25.0));
#248=SURFACE_STYLE_USAGE(.BOTH.,#376);
#249=FACE_OUTER_BOUND('',#377,.T.);
#250=CYLINDRICAL_SURFACE('',#378,8.0);
#251=SURFACE_STYLE_USAGE(.BOTH.,#379);
#252=FACE_OUTER_BOUND('',#380,.T.);
#253=CONICAL_SURFACE('',#381,7.6,0.197395559849881);
#254=POINT_STYLE(' ',#382,POSITIVE_LENGTH_MEASURE(1.0E-006),#383);
#255=CARTESIAN_POINT('',(8.0,0.0,0.0));
#256=SURFACE_STYLE_USAGE(.BOTH.,#384);
#257=FACE_OUTER_BOUND('',#385,.T.);
#258=CONICAL_SURFACE('',#386,7.6,0.197395559849881);
#259=CURVE_STYLE('',#387,POSITIVE_LENGTH_MEASURE(1.0E-006),#388);
#260=CIRCLE('',#389,15.0);
#261=CURVE_STYLE('',#390,POSITIVE_LENGTH_MEASURE(1.0E-006),#391);
#262=CIRCLE('',#392,8.0);
#263=CURVE_STYLE('',#393,POSITIVE_LENGTH_MEASURE(1.0E-006),#394);
#264=CIRCLE('',#395,15.0);
#265=CURVE_STYLE('',#396,POSITIVE_LENGTH_MEASURE(1.0E-006),#397);
#266=LINE('',#398,#399);
#267=PRODUCT_CONTEXT('',#53,'mechanical');
#268=PRODUCT_DEFINITION_FORMATION_WITH_SPECIFIED_SOURCE(' ','NONE',#152,.NOT_KNOWN.);
#269=CLOSED_SHELL('',(#143,#137,#97,#91,#93,#101,#117,#77,#133,#139,#105));
#270=CARTESIAN_POINT('',(0.0,0.0,0.0));
#271=DIRECTION('',(0.0,0.0,1.0));
#272=DIRECTION('',(1.0,0.0,0.0));
#273= (NAMED_UNIT(#161)LENGTH_UNIT()SI_UNIT(.MILLI.,.METRE.));
#274=PRE_DEFINED_MARKER('');
#275=COLOUR_RGB('',0.509803950786591,0.509803950786591,0.588235318660736);
#276=PRE_DEFINED_MARKER('');
#277=COLOUR_RGB('',0.509803950786591,0.509803950786591,0.588235318660736);
#278=DRAUGHTING_PRE_DEFINED_CURVE_FONT('continuous');
#279=COLOUR_RGB('',0.509803950786591,0.509803950786591,0.588235318660736);
#280=AXIS2_PLACEMENT_3D('',#401,#402,#403);
#281=PRE_DEFINED_MARKER('');
#282=COLOUR_RGB('',0.509803950786591,0.509803950786591,0.588235318660736);
#283=DRAUGHTING_PRE_DEFINED_CURVE_FONT('continuous');
#284=COLOUR_RGB('',0.509803950786591,0.509803950786591,0.588235318660736);
#285=AXIS2_PLACEMENT_3D('',#404,#405,#406);
#286=SURFACE_SIDE_STYLE('',(#407));
#287=EDGE_LOOP('',(#408,#409));
#288=EDGE_LOOP('',(#410,#411));
#289=AXIS2_PLACEMENT_3D('',#412,#413,#414);
#290=DRAUGHTING_PRE_DEFINED_CURVE_FONT('continuous');
#291=COLOUR_RGB('',0.509803950786591,0.509803950786591,0.588235318660736);
#292=AXIS2_PLACEMENT_3D('',#415,#416,#417);
#293=PRE_DEFINED_MARKER('');
#294=COLOUR_RGB('',0.509803950786591,0.509803950786591,0.588235318660736);
#295=PRE_DEFINED_MARKER('');
#296=COLOUR_RGB('',0.509803950786591,0.509803950786591,0.588235318660736);
#297=DRAUGHTING_PRE_DEFINED_CURVE_FONT('continuous');
#298=COLOUR_RGB('',0.509803950786591,0.509803950786591,0.588235318660736);
#299=AXIS2_PLACEMENT_3D('',#418,#419,#420);
#300=DRAUGHTING_PRE_DEFINED_CURVE_FONT('continuous');
#301=COLOUR_RGB('',0.509803950786591,0.509803950786591,0.588235318660736);
#302=CARTESIAN_POINT('',(-8.0,-1.46952762458685E-015,-8.0));
#303=VECTOR('',#421,1.0);
#304=DRAUGHTING_PRE_DEFINED_CURVE_FONT('continuous');
#305=COLOUR_RGB('',0.509803950786591,0.509803950786591,0.588235318660736);
#306=AXIS2_PLACEMENT_3D('',#422,#423,#424);
#307=SURFACE_SIDE_STYLE('',(#425));
#308=EDGE_LOOP('',(#426,#427,#428,#429));
#309=AXIS2_PLACEMENT_3D('',#430,#431,#432);
#310=SURFACE_SIDE_STYLE('',(#433));
#311=EDGE_LOOP('',(#434,#435));
#312=AXIS2_PLACEMENT_3D('',#436,#437,#438);
#313=DRAUGHTING_PRE_DEFINED_CURVE_FONT('continuous');
#314=COLOUR_RGB('',0.509803950786591,0.509803950786591,0.588235318660736);
#315=AXIS2_PLACEMENT_3D('',#439,#440,#441);
#316=SURFACE_SIDE_STYLE('',(#442));
#317=EDGE_LOOP('',(#443,#444,#445,#446));
#318=AXIS2_PLACEMENT_3D('',#447,#448,#449);
#319=DRAUGHTING_PRE_DEFINED_CURVE_FONT('continuous');
#320=COLOUR_RGB('',0.509803950786591,0.509803950786591,0.588235318660736);
#321=CARTESIAN_POINT('',(-7.6,-2.03284654734515E-015,-18.0));
#322=VECTOR('',#450,1.0);
#323=SURFACE_SIDE_STYLE('',(#451));
#324=EDGE_LOOP('',(#452,#453,#454,#455));
#325=AXIS2_PLACEMENT_3D('',#456,#457,#458);
#326=PRE_DEFINED_MARKER('');
#327=COLOUR_RGB('',0.509803950786591,0.509803950786591,0.588235318660736);
#328=SURFACE_SIDE_STYLE('',(#459));
#329=EDGE_LOOP('',(#460,#461));
#330=AXIS2_PLACEMENT_3D('',#462,#463,#464);
#331=DRAUGHTING_PRE_DEFINED_CURVE_FONT('continuous');
#332=COLOUR_RGB('',0.509803950786591,0.509803950786591,0.588235318660736);
#333=CARTESIAN_POINT('',(-13.75,-2.29613691341695E-016,23.75));
#334=VECTOR('',#465,1.0);
#335=DRAUGHTING_PRE_DEFINED_CURVE_FONT('continuous');
#336=COLOUR_RGB('',0.509803950786591,0.509803950786591,0.588235318660736);
#337=CARTESIAN_POINT('',(7.6,-1.71444889535134E-016,-18.0));
#338=VECTOR('',#466,1.0);
#339=PRE_DEFINED_MARKER('');
#340=COLOUR_RGB('',0.509803950786591,0.509803950786591,0.588235318660736);
#341=DRAUGHTING_PRE_DEFINED_CURVE_FONT('continuous');
#342=COLOUR_RGB('',0.509803950786591,0.509803950786591,0.588235318660736);
#343=AXIS2_PLACEMENT_3D('',#467,#468,#469);
#344=DRAUGHTING_PRE_DEFINED_CURVE_FONT('continuous');
#345=COLOUR_RGB('',0.509803950786591,0.509803950786591,0.588235318660736);
#346=AXIS2_PLACEMENT_3D('',#470,#471,#472);
#347=SURFACE_SIDE_STYLE('',(#473));
#348=EDGE_LOOP('',(#474,#475,#476,#477));
#349=AXIS2_PLACEMENT_3D('',#478,#479,#480);
#350=DRAUGHTING_PRE_DEFINED_CURVE_FONT('continuous');
#351=COLOUR_RGB('',0.509803950786591,0.509803950786591,0.588235318660736);
#352=AXIS2_PLACEMENT_3D('',#481,#482,#483);
#353=DRAUGHTING_PRE_DEFINED_CURVE_FONT('continuous');
#354=COLOUR_RGB('',0.509803950786591,0.509803950786591,0.588235318660736);
#355=CARTESIAN_POINT('',(8.0,4.89842541528951E-016,-8.0));
#356=VECTOR('',#484,1.0);
#357=PRE_DEFINED_MARKER('');
#358=COLOUR_RGB('',0.509803950786591,0.509803950786591,0.588235318660736);
#359=PRE_DEFINED_MARKER('');
#360=COLOUR_RGB('',0.509803950786591,0.509803950786591,0.588235318660736);
#361=PRE_DEFINED_MARKER('');
#362=COLOUR_RGB('',0.509803950786591,0.509803950786591,0.588235318660736);
#363=DRAUGHTING_PRE_DEFINED_CURVE_FONT('continuous');
#364=COLOUR_RGB('',0.509803950786591,0.509803950786591,0.588235318660736);
#365=CARTESIAN_POINT('',(13.75,3.13805378166984E-015,23.75));
#366=VECTOR('',#485,1.0);
#367=DRAUGHTING_PRE_DEFINED_CURVE_FONT('continuous');
#368=COLOUR_RGB('',0.509803950786591,0.509803950786591,0.588235318660736);
#369=CARTESIAN_POINT('',(15.0,2.52575060475865E-015,11.25));
#370=VECTOR('',#486,1.0);
#371=SURFACE_SIDE_STYLE('',(#487));
#372=EDGE_LOOP('',(#488,#489,#490,#491));
#373=AXIS2_PLACEMENT_3D('',#492,#493,#494);
#374=PRE_DEFINED_MARKER('');
#375=COLOUR_RGB('',0.509803950786591,0.509803950786591,0.588235318660736);
#376=SURFACE_SIDE_STYLE('',(#495));
#377=EDGE_LOOP('',(#496,#497,#498,#499));
#378=AXIS2_PLACEMENT_3D('',#500,#501,#502);
#379=SURFACE_SIDE_STYLE('',(#503));
#380=EDGE_LOOP('',(#504,#505,#506,#507));
#381=AXIS2_PLACEMENT_3D('',#508,#509,#510);
#382=PRE_DEFINED_MARKER('');
#383=COLOUR_RGB('',0.509803950786591,0.509803950786591,0.588235318660736);
#384=SURFACE_SIDE_STYLE('',(#511));
#385=EDGE_LOOP('',(#512,#513,#514,#515));
#386=AXIS2_PLACEMENT_3D('',#516,#517,#518);
#387=DRAUGHTING_PRE_DEFINED_CURVE_FONT('continuous');
#388=COLOUR_RGB('',0.509803950786591,0.509803950786591,0.588235318660736);
#389=AXIS2_PLACEMENT_3D('',#519,#520,#521);
#390=DRAUGHTING_PRE_DEFINED_CURVE_FONT('continuous');
#391=COLOUR_RGB('',0.509803950786591,0.509803950786591,0.588235318660736);
#392=AXIS2_PLACEMENT_3D('',#522,#523,#524);
#393=DRAUGHTING_PRE_DEFINED_CURVE_FONT('continuous');
#394=COLOUR_RGB('',0.509803950786591,0.509803950786591,0.588235318660736);
#395=AXIS2_PLACEMENT_3D('',#525,#526,#527);
#396=DRAUGHTING_PRE_DEFINED_CURVE_FONT('continuous');
#397=COLOUR_RGB('',0.509803950786591,0.509803950786591,0.588235318660736);
#398=CARTESIAN_POINT('',(-15.0,-1.14806845670848E-015,11.25));
#399=VECTOR('',#528,1.0);
#401=CARTESIAN_POINT('',(0.0,0.0,0.0));
#402=DIRECTION('',(0.0,-6.12303176911189E-017,-1.0));
#403=DIRECTION('',(1.0,0.0,0.0));
#404=CARTESIAN_POINT('',(0.0,0.0,0.0));
#405=DIRECTION('',(0.0,-6.12303176911189E-017,-1.0));
#406=DIRECTION('',(1.0,0.0,0.0));
#407=SURFACE_STYLE_FILL_AREA(#529);
#408=ORIENTED_EDGE('',*,*,#147,.F.);
#409=ORIENTED_EDGE('',*,*,#71,.F.);
#410=ORIENTED_EDGE('',*,*,#149,.T.);
#411=ORIENTED_EDGE('',*,*,#75,.T.);
#412=CARTESIAN_POINT('',(11.5,0.0,0.0));
#413=DIRECTION('',(0.0,-6.12303176911189E-017,-1.0));
#414=DIRECTION('',(1.0,0.0,0.0));
#415=CARTESIAN_POINT('',(0.0,-9.79685083057902E-016,-16.0));
#416=DIRECTION('',(0.0,-6.12303176911189E-017,-1.0));
#417=DIRECTION('',(1.0,0.0,0.0));
#418=CARTESIAN_POINT('',(0.0,-1.22460635382238E-015,-20.0));
#419=DIRECTION('',(0.0,-6.12303176911189E-017,-1.0));
#420=DIRECTION('',(1.0,0.0,0.0));
#421=DIRECTION('',(-0.0,6.12303176911189E-017,1.0));
#422=CARTESIAN_POINT('',(0.0,1.37768214805017E-015,22.5));
#423=DIRECTION('',(0.0,-6.12303176911189E-017,-1.0));
#424=DIRECTION('',(1.0,0.0,0.0));
#425=SURFACE_STYLE_FILL_AREA(#530);
#426=ORIENTED_EDGE('',*,*,#129,.F.);
#427=ORIENTED_EDGE('',*,*,#113,.T.);
#428=ORIENTED_EDGE('',*,*,#107,.F.);
#429=ORIENTED_EDGE('',*,*,#145,.F.);
#430=CARTESIAN_POINT('',(0.0,1.45422004516407E-015,23.75));
#431=DIRECTION('',(0.0,-6.12303176911189E-017,-1.0));
#432=DIRECTION('',(1.0,0.0,0.0));
#433=SURFACE_STYLE_FILL_AREA(#531);
#434=ORIENTED_EDGE('',*,*,#113,.F.);
#435=ORIENTED_EDGE('',*,*,#95,.F.);
#436=CARTESIAN_POINT('',(6.25,1.53075794227797E-015,25.0));
#437=DIRECTION('',(0.0,6.12303176911189E-017,1.0));
#438=DIRECTION('',(-1.0,0.0,0.0));
#439=CARTESIAN_POINT('',(0.0,1.53075794227797E-015,25.0));
#440=DIRECTION('',(0.0,-6.12303176911189E-017,-1.0));
#441=DIRECTION('',(1.0,0.0,0.0));
#442=SURFACE_STYLE_FILL_AREA(#532);
#443=ORIENTED_EDGE('',*,*,#131,.F.);
#444=ORIENTED_EDGE('',*,*,#145,.T.);
#445=ORIENTED_EDGE('',*,*,#151,.F.);
#446=ORIENTED_EDGE('',*,*,#149,.F.);
#447=CARTESIAN_POINT('',(0.0,6.88841074025087E-016,11.25));
#448=DIRECTION('',(-0.0,6.12303176911189E-017,1.0));
#449=DIRECTION('',(1.0,0.0,0.0));
#450=DIRECTION('',(-0.196116135138184,3.60247597765962E-017,0.98058067569092));
#451=SURFACE_STYLE_FILL_AREA(#533);
#452=ORIENTED_EDGE('',*,*,#129,.T.);
#453=ORIENTED_EDGE('',*,*,#89,.F.);
#454=ORIENTED_EDGE('',*,*,#107,.T.);
#455=ORIENTED_EDGE('',*,*,#95,.T.);
#456=CARTESIAN_POINT('',(0.0,1.45422004516407E-015,23.75));
#457=DIRECTION('',(0.0,-6.12303176911189E-017,-1.0));
#458=DIRECTION('',(1.0,0.0,0.0));
#459=SURFACE_STYLE_FILL_AREA(#534);
#460=ORIENTED_EDGE('',*,*,#119,.T.);
#461=ORIENTED_EDGE('',*,*,#85,.T.);
#462=CARTESIAN_POINT('',(3.6,-1.22460635382238E-015,-20.0));
#463=DIRECTION('',(0.0,-6.12303176911189E-017,-1.0));
#464=DIRECTION('',(1.0,0.0,0.0));
#465=DIRECTION('',(0.707106781186547,1.2988911856079E-016,0.707106781186548));
#466=DIRECTION('',(-0.196116135138184,-8.40577728120578E-017,-0.98058067569092));
#467=CARTESIAN_POINT('',(0.0,1.53075794227797E-015,25.0));
#468=DIRECTION('',(0.0,-6.12303176911189E-017,-1.0));
#469=DIRECTION('',(1.0,0.0,0.0));
#470=CARTESIAN_POINT('',(0.0,-9.79685083057902E-016,-16.0));
#471=DIRECTION('',(0.0,-6.12303176911189E-017,-1.0));
#472=DIRECTION('',(1.0,0.0,0.0));
#473=SURFACE_STYLE_FILL_AREA(#535);
#474=ORIENTED_EDGE('',*,*,#131,.T.);
#475=ORIENTED_EDGE('',*,*,#75,.F.);
#476=ORIENTED_EDGE('',*,*,#151,.T.);
#477=ORIENTED_EDGE('',*,*,#89,.T.);
#478=CARTESIAN_POINT('',(0.0,6.88841074025087E-016,11.25));
#479=DIRECTION('',(-0.0,6.12303176911189E-017,1.0));
#480=DIRECTION('',(1.0,0.0,0.0));
#481=CARTESIAN_POINT('',(0.0,-1.22460635382238E-015,-20.0));
#482=DIRECTION('',(0.0,-6.12303176911189E-017,-1.0));
#483=DIRECTION('',(1.0,0.0,0.0));
#484=DIRECTION('',(0.0,-6.12303176911189E-017,-1.0));
#485=DIRECTION('',(0.707106781186547,4.32963728535968E-017,-0.707106781186548));
#486=DIRECTION('',(0.0,-6.12303176911189E-017,-1.0));
#487=SURFACE_STYLE_FILL_AREA(#536);
#488=ORIENTED_EDGE('',*,*,#121,.T.);
#489=ORIENTED_EDGE('',*,*,#115,.F.);
#490=ORIENTED_EDGE('',*,*,#87,.T.);
#491=ORIENTED_EDGE('',*,*,#71,.T.);
#492=CARTESIAN_POINT('',(0.0,-4.89842541528951E-016,-8.0));
#493=DIRECTION('',(-0.0,6.12303176911189E-017,1.0));
#494=DIRECTION('',(1.0,0.0,0.0));
#495=SURFACE_STYLE_FILL_AREA(#537);
#496=ORIENTED_EDGE('',*,*,#121,.F.);
#497=ORIENTED_EDGE('',*,*,#147,.T.);
#498=ORIENTED_EDGE('',*,*,#87,.F.);
#499=ORIENTED_EDGE('',*,*,#79,.F.);
#500=CARTESIAN_POINT('',(0.0,-4.89842541528951E-016,-8.0));
#501=DIRECTION('',(-0.0,6.12303176911189E-017,1.0));
#502=DIRECTION('',(1.0,0.0,0.0));
#503=SURFACE_STYLE_FILL_AREA(#538);
#504=ORIENTED_EDGE('',*,*,#109,.T.);
#505=ORIENTED_EDGE('',*,*,#85,.F.);
#506=ORIENTED_EDGE('',*,*,#99,.T.);
#507=ORIENTED_EDGE('',*,*,#115,.T.);
#508=CARTESIAN_POINT('',(0.0,-1.10214571844014E-015,-18.0));
#509=DIRECTION('',(-0.0,6.12303176911189E-017,1.0));
#510=DIRECTION('',(1.0,0.0,0.0));
#511=SURFACE_STYLE_FILL_AREA(#539);
#512=ORIENTED_EDGE('',*,*,#109,.F.);
#513=ORIENTED_EDGE('',*,*,#79,.T.);
#514=ORIENTED_EDGE('',*,*,#99,.F.);
#515=ORIENTED_EDGE('',*,*,#119,.F.);
#516=CARTESIAN_POINT('',(0.0,-1.10214571844014E-015,-18.0));
#517=DIRECTION('',(-0.0,6.12303176911189E-017,1.0));
#518=DIRECTION('',(1.0,0.0,0.0));
#519=CARTESIAN_POINT('',(0.0,1.37768214805017E-015,22.5));
#520=DIRECTION('',(0.0,-6.12303176911189E-017,-1.0));
#521=DIRECTION('',(1.0,0.0,0.0));
#522=CARTESIAN_POINT('',(0.0,0.0,0.0));
#523=DIRECTION('',(0.0,-6.12303176911189E-017,-1.0));
#524=DIRECTION('',(1.0,0.0,0.0));
#525=CARTESIAN_POINT('',(0.0,0.0,0.0));
#526=DIRECTION('',(0.0,-6.12303176911189E-017,-1.0));
#527=DIRECTION('',(1.0,0.0,0.0));
#528=DIRECTION('',(-0.0,6.12303176911189E-017,1.0));
#529=FILL_AREA_STYLE('',(#540));
#530=FILL_AREA_STYLE('',(#541));
#531=FILL_AREA_STYLE('',(#542));
#532=FILL_AREA_STYLE('',(#543));
#533=FILL_AREA_STYLE('',(#544));
#534=FILL_AREA_STYLE('',(#545));
#535=FILL_AREA_STYLE('',(#546));
#536=FILL_AREA_STYLE('',(#547));
#537=FILL_AREA_STYLE('',(#548));
#538=FILL_AREA_STYLE('',(#549));
#539=FILL_AREA_STYLE('',(#550));
#540=FILL_AREA_STYLE_COLOUR('',#551);
#541=FILL_AREA_STYLE_COLOUR('',#552);
#542=FILL_AREA_STYLE_COLOUR('',#553);
#543=FILL_AREA_STYLE_COLOUR('',#554);
#544=FILL_AREA_STYLE_COLOUR('',#555);
#545=FILL_AREA_STYLE_COLOUR('',#556);
#546=FILL_AREA_STYLE_COLOUR('',#557);
#547=FILL_AREA_STYLE_COLOUR('',#558);
#548=FILL_AREA_STYLE_COLOUR('',#559);
#549=FILL_AREA_STYLE_COLOUR('',#560);
#550=FILL_AREA_STYLE_COLOUR('',#561);
#551=COLOUR_RGB('',0.509803950786591,0.509803950786591,0.588235318660736);
#552=COLOUR_RGB('',0.509803950786591,0.509803950786591,0.588235318660736);
#553=COLOUR_RGB('',0.509803950786591,0.509803950786591,0.588235318660736);
#554=COLOUR_RGB('',0.509803950786591,0.509803950786591,0.588235318660736);
#555=COLOUR_RGB('',0.509803950786591,0.509803950786591,0.588235318660736);
#556=COLOUR_RGB('',0.509803950786591,0.509803950786591,0.588235318660736);
#557=COLOUR_RGB('',0.509803950786591,0.509803950786591,0.588235318660736);
#558=COLOUR_RGB('',0.509803950786591,0.509803950786591,0.588235318660736);
#559=COLOUR_RGB('',0.509803950786591,0.509803950786591,0.588235318660736);
#560=COLOUR_RGB('',0.509803950786591,0.509803950786591,0.588235318660736);
#561=COLOUR_RGB('',0.509803950786591,0.509803950786591,0.588235318660736);
ENDSEC;
END-ISO-10303-21;
