ISO-10303-21;
HEADER;
FILE_DESCRIPTION(('STEP AP214'),'1');
FILE_NAME(' ','  ',('TraceParts'),('TraceParts S.A.'),'XStep 1.0',' ',' ');
FILE_SCHEMA(('automotive_design'));
ENDSEC;
DATA;
#1=MECHANICAL_DESIGN_GEOMETRIC_PRESENTATION_REPRESENTATION(' ',(#10,#11,#12,#13,#14,#15,#16,#17,#18,#19,#20,#21,#22,#23,#24,#25,#26,#27,#28,#29,#30,#31,#32,#33,#34,#35,#36,#37,#38,#39,#40,#41,#42,#43,#44,#45,#46,#47,#48,#49,#50,#51,#52),#6);
#2=PRODUCT_DEFINITION_CONTEXT('',#53,'design');
#3=APPLICATION_PROTOCOL_DEFINITION('INTERNATIONAL STANDARD','automotive_design',1994,#53);
#4=PRODUCT_CATEGORY_RELATIONSHIP('NONE','NONE',#54,#55);
#5=SHAPE_DEFINITION_REPRESENTATION(#56,#57);
#6= (GEOMETRIC_REPRESENTATION_CONTEXT(3)GLOBAL_UNCERTAINTY_ASSIGNED_CONTEXT((#60))GLOBAL_UNIT_ASSIGNED_CONTEXT((#62,#63,#64))REPRESENTATION_CONTEXT('NONE','WORKSPACE'));
#10=STYLED_ITEM('',(#66),#67);
#11=STYLED_ITEM('',(#68),#69);
#12=STYLED_ITEM('',(#70),#71);
#13=STYLED_ITEM('',(#72),#73);
#14=STYLED_ITEM('',(#74),#75);
#15=STYLED_ITEM('',(#76),#77);
#16=STYLED_ITEM('',(#78),#79);
#17=STYLED_ITEM('',(#80),#81);
#18=STYLED_ITEM('',(#82),#83);
#19=STYLED_ITEM('',(#84),#85);
#20=STYLED_ITEM('',(#86),#87);
#21=STYLED_ITEM('',(#88),#89);
#22=STYLED_ITEM('',(#90),#91);
#23=STYLED_ITEM('',(#92),#93);
#24=STYLED_ITEM('',(#94),#95);
#25=STYLED_ITEM('',(#96),#97);
#26=STYLED_ITEM('',(#98),#99);
#27=STYLED_ITEM('',(#100),#101);
#28=STYLED_ITEM('',(#102),#103);
#29=STYLED_ITEM('',(#104),#105);
#30=STYLED_ITEM('',(#106),#107);
#31=STYLED_ITEM('',(#108),#109);
#32=STYLED_ITEM('',(#110),#111);
#33=STYLED_ITEM('',(#112),#113);
#34=STYLED_ITEM('',(#114),#115);
#35=STYLED_ITEM('',(#116),#117);
#36=STYLED_ITEM('',(#118),#119);
#37=STYLED_ITEM('',(#120),#121);
#38=STYLED_ITEM('',(#122),#123);
#39=STYLED_ITEM('',(#124),#125);
#40=STYLED_ITEM('',(#126),#127);
#41=STYLED_ITEM('',(#128),#129);
#42=STYLED_ITEM('',(#130),#131);
#43=STYLED_ITEM('',(#132),#133);
#44=STYLED_ITEM('',(#134),#135);
#45=STYLED_ITEM('',(#136),#137);
#46=STYLED_ITEM('',(#138),#139);
#47=STYLED_ITEM('',(#140),#141);
#48=STYLED_ITEM('',(#142),#143);
#49=STYLED_ITEM('',(#144),#145);
#50=STYLED_ITEM('',(#146),#147);
#51=STYLED_ITEM('',(#148),#149);
#52=STYLED_ITEM('',(#150),#151);
#53=APPLICATION_CONTEXT(' ');
#54=PRODUCT_CATEGORY('part','NONE');
#55=PRODUCT_RELATED_PRODUCT_CATEGORY('detail',' ',(#152));
#56=PRODUCT_DEFINITION_SHAPE('NONE','NONE',#153);
#57=ADVANCED_BREP_SHAPE_REPRESENTATION('1',(#154,#155),#6);
#60=UNCERTAINTY_MEASURE_WITH_UNIT(LENGTH_MEASURE(1.0E-006),#62,'','');
#62= (CONVERSION_BASED_UNIT('MILLIMETRE',#158)LENGTH_UNIT()NAMED_UNIT(#161));
#63= (NAMED_UNIT(#163)PLANE_ANGLE_UNIT()SI_UNIT($,.RADIAN.));
#64= (NAMED_UNIT(#163)SOLID_ANGLE_UNIT()SI_UNIT($,.STERADIAN.));
#66=PRESENTATION_STYLE_ASSIGNMENT((#169));
#67=EDGE_CURVE('',#119,#99,#170,.T.);
#68=PRESENTATION_STYLE_ASSIGNMENT((#171));
#69=EDGE_CURVE('',#145,#119,#172,.T.);
#70=PRESENTATION_STYLE_ASSIGNMENT((#173));
#71=ADVANCED_FACE('',(#174),#175,.T.);
#72=PRESENTATION_STYLE_ASSIGNMENT((#176));
#73=EDGE_CURVE('',#97,#103,#177,.T.);
#74=PRESENTATION_STYLE_ASSIGNMENT((#178));
#75=EDGE_CURVE('',#99,#119,#179,.T.);
#76=PRESENTATION_STYLE_ASSIGNMENT((#180));
#77=ADVANCED_FACE('',(#181,#182),#183,.T.);
#78=PRESENTATION_STYLE_ASSIGNMENT((#184));
#79=ADVANCED_FACE('',(#185),#186,.T.);
#80=PRESENTATION_STYLE_ASSIGNMENT((#187));
#81=EDGE_CURVE('',#87,#123,#188,.T.);
#82=PRESENTATION_STYLE_ASSIGNMENT((#189));
#83=ADVANCED_FACE('',(#190),#191,.T.);
#84=PRESENTATION_STYLE_ASSIGNMENT((#192));
#85=EDGE_CURVE('',#151,#133,#193,.T.);
#86=PRESENTATION_STYLE_ASSIGNMENT((#194));
#87=VERTEX_POINT('',#195);
#88=PRESENTATION_STYLE_ASSIGNMENT((#196));
#89=EDGE_CURVE('',#97,#145,#197,.T.);
#90=PRESENTATION_STYLE_ASSIGNMENT((#198));
#91=EDGE_CURVE('',#117,#103,#199,.T.);
#92=PRESENTATION_STYLE_ASSIGNMENT((#200));
#93=EDGE_CURVE('',#127,#139,#201,.T.);
#94=PRESENTATION_STYLE_ASSIGNMENT((#202));
#95=ADVANCED_FACE('',(#203),#204,.T.);
#96=PRESENTATION_STYLE_ASSIGNMENT((#205));
#97=VERTEX_POINT('',#206);
#98=PRESENTATION_STYLE_ASSIGNMENT((#207));
#99=VERTEX_POINT('',#208);
#100=PRESENTATION_STYLE_ASSIGNMENT((#209));
#101=ADVANCED_FACE('',(#210),#211,.T.);
#102=PRESENTATION_STYLE_ASSIGNMENT((#212));
#103=VERTEX_POINT('',#213);
#104=PRESENTATION_STYLE_ASSIGNMENT((#214));
#105=ADVANCED_FACE('',(#215),#216,.T.);
#106=PRESENTATION_STYLE_ASSIGNMENT((#217));
#107=EDGE_CURVE('',#99,#117,#218,.T.);
#108=PRESENTATION_STYLE_ASSIGNMENT((#219));
#109=EDGE_CURVE('',#139,#127,#220,.T.);
#110=PRESENTATION_STYLE_ASSIGNMENT((#221));
#111=ADVANCED_FACE('',(#222),#223,.T.);
#112=PRESENTATION_STYLE_ASSIGNMENT((#224));
#113=EDGE_CURVE('',#103,#97,#225,.T.);
#114=PRESENTATION_STYLE_ASSIGNMENT((#226));
#115=ADVANCED_FACE('',(#227),#228,.T.);
#116=PRESENTATION_STYLE_ASSIGNMENT((#229));
#117=VERTEX_POINT('',#230);
#118=PRESENTATION_STYLE_ASSIGNMENT((#231));
#119=VERTEX_POINT('',#232);
#120=PRESENTATION_STYLE_ASSIGNMENT((#233));
#121=ADVANCED_FACE('',(#234),#235,.T.);
#122=PRESENTATION_STYLE_ASSIGNMENT((#236));
#123=VERTEX_POINT('',#237);
#124=PRESENTATION_STYLE_ASSIGNMENT((#238));
#125=EDGE_CURVE('',#151,#127,#239,.T.);
#126=PRESENTATION_STYLE_ASSIGNMENT((#240));
#127=VERTEX_POINT('',#241);
#128=PRESENTATION_STYLE_ASSIGNMENT((#242));
#129=EDGE_CURVE('',#145,#117,#243,.T.);
#130=PRESENTATION_STYLE_ASSIGNMENT((#244));
#131=ADVANCED_FACE('',(#245),#246,.T.);
#132=PRESENTATION_STYLE_ASSIGNMENT((#247));
#133=VERTEX_POINT('',#248);
#134=PRESENTATION_STYLE_ASSIGNMENT((#249));
#135=EDGE_CURVE('',#139,#133,#250,.T.);
#136=PRESENTATION_STYLE_ASSIGNMENT((#251));
#137=EDGE_CURVE('',#117,#145,#252,.T.);
#138=PRESENTATION_STYLE_ASSIGNMENT((#253));
#139=VERTEX_POINT('',#254);
#140=PRESENTATION_STYLE_ASSIGNMENT((#255));
#141=EDGE_CURVE('',#133,#151,#256,.T.);
#142=PRESENTATION_STYLE_ASSIGNMENT((#257));
#143=EDGE_CURVE('',#123,#87,#258,.T.);
#144=PRESENTATION_STYLE_ASSIGNMENT((#259));
#145=VERTEX_POINT('',#260);
#146=PRESENTATION_STYLE_ASSIGNMENT((#261));
#147=EDGE_CURVE('',#133,#123,#262,.T.);
#148=PRESENTATION_STYLE_ASSIGNMENT((#263));
#149=EDGE_CURVE('',#87,#151,#264,.T.);
#150=PRESENTATION_STYLE_ASSIGNMENT((#265));
#151=VERTEX_POINT('',#266);
#152=PRODUCT('1','1','PART-1-DESC',(#267));
#153=PRODUCT_DEFINITION('NONE','NONE',#268,#2);
#154=MANIFOLD_SOLID_BREP('1',#269);
#155=AXIS2_PLACEMENT_3D('',#270,#271,#272);
#158=LENGTH_MEASURE_WITH_UNIT(LENGTH_MEASURE(1.0),#273);
#161=DIMENSIONAL_EXPONENTS(1.0,0.0,0.0,0.0,0.0,0.0,0.0);
#163=DIMENSIONAL_EXPONENTS(0.0,0.0,0.0,0.0,0.0,0.0,0.0);
#169=CURVE_STYLE('',#274,POSITIVE_LENGTH_MEASURE(1.0E-006),#275);
#170=CIRCLE('',#276,6.0);
#171=CURVE_STYLE('',#277,POSITIVE_LENGTH_MEASURE(1.0E-006),#278);
#172=LINE('',#279,#280);
#173=SURFACE_STYLE_USAGE(.BOTH.,#281);
#174=FACE_OUTER_BOUND('',#282,.T.);
#175=PLANE('',#283);
#176=CURVE_STYLE('',#284,POSITIVE_LENGTH_MEASURE(1.0E-006),#285);
#177=CIRCLE('',#286,5.4);
#178=CURVE_STYLE('',#287,POSITIVE_LENGTH_MEASURE(1.0E-006),#288);
#179=CIRCLE('',#289,6.0);
#180=SURFACE_STYLE_USAGE(.BOTH.,#290);
#181=FACE_BOUND('',#291,.T.);
#182=FACE_OUTER_BOUND('',#292,.T.);
#183=PLANE('',#293);
#184=SURFACE_STYLE_USAGE(.BOTH.,#294);
#185=FACE_OUTER_BOUND('',#295,.T.);
#186=CYLINDRICAL_SURFACE('',#296,12.5);
#187=CURVE_STYLE('',#297,POSITIVE_LENGTH_MEASURE(1.0E-006),#298);
#188=CIRCLE('',#299,12.5);
#189=SURFACE_STYLE_USAGE(.BOTH.,#300);
#190=FACE_OUTER_BOUND('',#301,.T.);
#191=CYLINDRICAL_SURFACE('',#302,6.0);
#192=CURVE_STYLE('',#303,POSITIVE_LENGTH_MEASURE(1.0E-006),#304);
#193=CIRCLE('',#305,12.5);
#194=POINT_STYLE(' ',#306,POSITIVE_LENGTH_MEASURE(1.0E-006),#307);
#195=CARTESIAN_POINT('',(-12.5,-1.53075794227797E-015,9.37287951138836E-032));
#196=CURVE_STYLE('',#308,POSITIVE_LENGTH_MEASURE(1.0E-006),#309);
#197=LINE('',#310,#311);
#198=CURVE_STYLE('',#312,POSITIVE_LENGTH_MEASURE(1.0E-006),#313);
#199=LINE('',#314,#315);
#200=CURVE_STYLE('',#316,POSITIVE_LENGTH_MEASURE(1.0E-006),#317);
#201=CIRCLE('',#318,9.5);
#202=SURFACE_STYLE_USAGE(.BOTH.,#319);
#203=FACE_OUTER_BOUND('',#320,.T.);
#204=CYLINDRICAL_SURFACE('',#321,6.0);
#205=POINT_STYLE(' ',#322,POSITIVE_LENGTH_MEASURE(1.0E-006),#323);
#206=CARTESIAN_POINT('',(-5.4,-1.51851187873975E-015,-14.0));
#207=POINT_STYLE(' ',#324,POSITIVE_LENGTH_MEASURE(1.0E-006),#325);
#208=CARTESIAN_POINT('',(6.0,0.0,0.0));
#209=SURFACE_STYLE_USAGE(.BOTH.,#326);
#210=FACE_OUTER_BOUND('',#327,.T.);
#211=CONICAL_SURFACE('',#328,11.0,0.785398163397448);
#212=POINT_STYLE(' ',#329,POSITIVE_LENGTH_MEASURE(1.0E-006),#330);
#213=CARTESIAN_POINT('',(5.4,-8.57224447675664E-016,-14.0));
#214=SURFACE_STYLE_USAGE(.BOTH.,#331);
#215=FACE_OUTER_BOUND('',#332,.T.);
#216=CYLINDRICAL_SURFACE('',#333,12.5);
#217=CURVE_STYLE('',#334,POSITIVE_LENGTH_MEASURE(1.0E-006),#335);
#218=LINE('',#336,#337);
#219=CURVE_STYLE('',#338,POSITIVE_LENGTH_MEASURE(1.0E-006),#339);
#220=CIRCLE('',#340,9.5);
#221=SURFACE_STYLE_USAGE(.BOTH.,#341);
#222=FACE_OUTER_BOUND('',#342,.T.);
#223=CONICAL_SURFACE('',#343,11.0,0.785398163397448);
#224=CURVE_STYLE('',#344,POSITIVE_LENGTH_MEASURE(1.0E-006),#345);
#225=CIRCLE('',#346,5.4);
#226=SURFACE_STYLE_USAGE(.BOTH.,#347);
#227=FACE_OUTER_BOUND('',#348,.T.);
#228=CONICAL_SURFACE('',#349,5.7,0.197395559849881);
#229=POINT_STYLE(' ',#350,POSITIVE_LENGTH_MEASURE(1.0E-006),#351);
#230=CARTESIAN_POINT('',(6.0,-6.73533494602307E-016,-11.0));
#231=POINT_STYLE(' ',#352,POSITIVE_LENGTH_MEASURE(1.0E-006),#353);
#232=CARTESIAN_POINT('',(-6.0,-7.34763812293426E-016,4.49898216546641E-032));
#233=SURFACE_STYLE_USAGE(.BOTH.,#354);
#234=FACE_OUTER_BOUND('',#355,.T.);
#235=CONICAL_SURFACE('',#356,5.7,0.197395559849881);
#236=POINT_STYLE(' ',#357,POSITIVE_LENGTH_MEASURE(1.0E-006),#358);
#237=CARTESIAN_POINT('',(12.5,0.0,0.0));
#238=CURVE_STYLE('',#359,POSITIVE_LENGTH_MEASURE(1.0E-006),#360);
#239=LINE('',#361,#362);
#240=POINT_STYLE(' ',#363,POSITIVE_LENGTH_MEASURE(1.0E-006),#364);
#241=CARTESIAN_POINT('',(-9.5,6.73533494602307E-016,30.0));
#242=CURVE_STYLE('',#365,POSITIVE_LENGTH_MEASURE(1.0E-006),#366);
#243=CIRCLE('',#367,6.0);
#244=SURFACE_STYLE_USAGE(.BOTH.,#368);
#245=FACE_OUTER_BOUND('',#369,.T.);
#246=PLANE('',#370);
#247=POINT_STYLE(' ',#371,POSITIVE_LENGTH_MEASURE(1.0E-006),#372);
#248=CARTESIAN_POINT('',(12.5,1.65321857766021E-015,27.0));
#249=CURVE_STYLE('',#373,POSITIVE_LENGTH_MEASURE(1.0E-006),#374);
#250=LINE('',#375,#376);
#251=CURVE_STYLE('',#377,POSITIVE_LENGTH_MEASURE(1.0E-006),#378);
#252=CIRCLE('',#379,6.0);
#253=POINT_STYLE(' ',#380,POSITIVE_LENGTH_MEASURE(1.0E-006),#381);
#254=CARTESIAN_POINT('',(9.5,1.83690953073357E-015,30.0));
#255=CURVE_STYLE('',#382,POSITIVE_LENGTH_MEASURE(1.0E-006),#383);
#256=CIRCLE('',#384,12.5);
#257=CURVE_STYLE('',#385,POSITIVE_LENGTH_MEASURE(1.0E-006),#386);
#258=CIRCLE('',#387,12.5);
#259=POINT_STYLE(' ',#388,POSITIVE_LENGTH_MEASURE(1.0E-006),#389);
#260=CARTESIAN_POINT('',(-6.0,-1.40829730689573E-015,-11.0));
#261=CURVE_STYLE('',#390,POSITIVE_LENGTH_MEASURE(1.0E-006),#391);
#262=LINE('',#392,#393);
#263=CURVE_STYLE('',#394,POSITIVE_LENGTH_MEASURE(1.0E-006),#395);
#264=LINE('',#396,#397);
#265=POINT_STYLE(' ',#398,POSITIVE_LENGTH_MEASURE(1.0E-006),#399);
#266=CARTESIAN_POINT('',(-12.5,1.22460635382237E-016,27.0));
#267=PRODUCT_CONTEXT('',#53,'mechanical');
#268=PRODUCT_DEFINITION_FORMATION_WITH_SPECIFIED_SOURCE(' ','NONE',#152,.NOT_KNOWN.);
#269=CLOSED_SHELL('',(#115,#83,#79,#111,#71,#101,#105,#77,#95,#121,#131));
#270=CARTESIAN_POINT('',(0.0,0.0,0.0));
#271=DIRECTION('',(0.0,0.0,1.0));
#272=DIRECTION('',(1.0,0.0,0.0));
#273= (NAMED_UNIT(#161)LENGTH_UNIT()SI_UNIT(.MILLI.,.METRE.));
#274=DRAUGHTING_PRE_DEFINED_CURVE_FONT('continuous');
#275=COLOUR_RGB('',0.509803950786591,0.509803950786591,0.588235318660736);
#276=AXIS2_PLACEMENT_3D('',#401,#402,#403);
#277=DRAUGHTING_PRE_DEFINED_CURVE_FONT('continuous');
#278=COLOUR_RGB('',0.509803950786591,0.509803950786591,0.588235318660736);
#279=CARTESIAN_POINT('',(-6.0,-1.07153055959458E-015,-5.5));
#280=VECTOR('',#404,1.0);
#281=SURFACE_SIDE_STYLE('',(#405));
#282=EDGE_LOOP('',(#406,#407));
#283=AXIS2_PLACEMENT_3D('',#408,#409,#410);
#284=DRAUGHTING_PRE_DEFINED_CURVE_FONT('continuous');
#285=COLOUR_RGB('',0.509803950786591,0.509803950786591,0.588235318660736);
#286=AXIS2_PLACEMENT_3D('',#411,#412,#413);
#287=DRAUGHTING_PRE_DEFINED_CURVE_FONT('continuous');
#288=COLOUR_RGB('',0.509803950786591,0.509803950786591,0.588235318660736);
#289=AXIS2_PLACEMENT_3D('',#414,#415,#416);
#290=SURFACE_SIDE_STYLE('',(#417));
#291=EDGE_LOOP('',(#418,#419));
#292=EDGE_LOOP('',(#420,#421));
#293=AXIS2_PLACEMENT_3D('',#422,#423,#424);
#294=SURFACE_SIDE_STYLE('',(#425));
#295=EDGE_LOOP('',(#426,#427,#428,#429));
#296=AXIS2_PLACEMENT_3D('',#430,#431,#432);
#297=DRAUGHTING_PRE_DEFINED_CURVE_FONT('continuous');
#298=COLOUR_RGB('',0.509803950786591,0.509803950786591,0.588235318660736);
#299=AXIS2_PLACEMENT_3D('',#433,#434,#435);
#300=SURFACE_SIDE_STYLE('',(#436));
#301=EDGE_LOOP('',(#437,#438,#439,#440));
#302=AXIS2_PLACEMENT_3D('',#441,#442,#443);
#303=DRAUGHTING_PRE_DEFINED_CURVE_FONT('continuous');
#304=COLOUR_RGB('',0.509803950786591,0.509803950786591,0.588235318660736);
#305=AXIS2_PLACEMENT_3D('',#444,#445,#446);
#306=PRE_DEFINED_MARKER('');
#307=COLOUR_RGB('',0.509803950786591,0.509803950786591,0.588235318660736);
#308=DRAUGHTING_PRE_DEFINED_CURVE_FONT('continuous');
#309=COLOUR_RGB('',0.509803950786591,0.509803950786591,0.588235318660736);
#310=CARTESIAN_POINT('',(-5.7,-1.46340459281774E-015,-12.5));
#311=VECTOR('',#447,1.0);
#312=DRAUGHTING_PRE_DEFINED_CURVE_FONT('continuous');
#313=COLOUR_RGB('',0.509803950786591,0.509803950786591,0.588235318660736);
#314=CARTESIAN_POINT('',(5.7,-6.73533494602306E-017,-12.5));
#315=VECTOR('',#448,1.0);
#316=DRAUGHTING_PRE_DEFINED_CURVE_FONT('continuous');
#317=COLOUR_RGB('',0.509803950786591,0.509803950786591,0.588235318660736);
#318=AXIS2_PLACEMENT_3D('',#449,#450,#451);
#319=SURFACE_SIDE_STYLE('',(#452));
#320=EDGE_LOOP('',(#453,#454,#455,#456));
#321=AXIS2_PLACEMENT_3D('',#457,#458,#459);
#322=PRE_DEFINED_MARKER('');
#323=COLOUR_RGB('',0.509803950786591,0.509803950786591,0.588235318660736);
#324=PRE_DEFINED_MARKER('');
#325=COLOUR_RGB('',0.509803950786591,0.509803950786591,0.588235318660736);
#326=SURFACE_SIDE_STYLE('',(#460));
#327=EDGE_LOOP('',(#461,#462,#463,#464));
#328=AXIS2_PLACEMENT_3D('',#465,#466,#467);
#329=PRE_DEFINED_MARKER('');
#330=COLOUR_RGB('',0.509803950786591,0.509803950786591,0.588235318660736);
#331=SURFACE_SIDE_STYLE('',(#468));
#332=EDGE_LOOP('',(#469,#470,#471,#472));
#333=AXIS2_PLACEMENT_3D('',#473,#474,#475);
#334=DRAUGHTING_PRE_DEFINED_CURVE_FONT('continuous');
#335=COLOUR_RGB('',0.509803950786591,0.509803950786591,0.588235318660736);
#336=CARTESIAN_POINT('',(6.0,3.97997064992273E-016,-5.5));
#337=VECTOR('',#476,1.0);
#338=DRAUGHTING_PRE_DEFINED_CURVE_FONT('continuous');
#339=COLOUR_RGB('',0.509803950786591,0.509803950786591,0.588235318660736);
#340=AXIS2_PLACEMENT_3D('',#477,#478,#479);
#341=SURFACE_SIDE_STYLE('',(#480));
#342=EDGE_LOOP('',(#481,#482,#483,#484));
#343=AXIS2_PLACEMENT_3D('',#485,#486,#487);
#344=DRAUGHTING_PRE_DEFINED_CURVE_FONT('continuous');
#345=COLOUR_RGB('',0.509803950786591,0.509803950786591,0.588235318660736);
#346=AXIS2_PLACEMENT_3D('',#488,#489,#490);
#347=SURFACE_SIDE_STYLE('',(#491));
#348=EDGE_LOOP('',(#492,#493,#494,#495));
#349=AXIS2_PLACEMENT_3D('',#496,#497,#498);
#350=PRE_DEFINED_MARKER('');
#351=COLOUR_RGB('',0.509803950786591,0.509803950786591,0.588235318660736);
#352=PRE_DEFINED_MARKER('');
#353=COLOUR_RGB('',0.509803950786591,0.509803950786591,0.588235318660736);
#354=SURFACE_SIDE_STYLE('',(#499));
#355=EDGE_LOOP('',(#500,#501,#502,#503));
#356=AXIS2_PLACEMENT_3D('',#504,#505,#506);
#357=PRE_DEFINED_MARKER('');
#358=COLOUR_RGB('',0.509803950786591,0.509803950786591,0.588235318660736);
#359=DRAUGHTING_PRE_DEFINED_CURVE_FONT('continuous');
#360=COLOUR_RGB('',0.509803950786591,0.509803950786591,0.588235318660736);
#361=CARTESIAN_POINT('',(-11.0,3.97997064992272E-016,28.5));
#362=VECTOR('',#507,1.0);
#363=PRE_DEFINED_MARKER('');
#364=COLOUR_RGB('',0.509803950786591,0.509803950786591,0.588235318660736);
#365=DRAUGHTING_PRE_DEFINED_CURVE_FONT('continuous');
#366=COLOUR_RGB('',0.509803950786591,0.509803950786591,0.588235318660736);
#367=AXIS2_PLACEMENT_3D('',#508,#509,#510);
#368=SURFACE_SIDE_STYLE('',(#511));
#369=EDGE_LOOP('',(#512,#513));
#370=AXIS2_PLACEMENT_3D('',#514,#515,#516);
#371=PRE_DEFINED_MARKER('');
#372=COLOUR_RGB('',0.509803950786591,0.509803950786591,0.588235318660736);
#373=DRAUGHTING_PRE_DEFINED_CURVE_FONT('continuous');
#374=COLOUR_RGB('',0.509803950786591,0.509803950786591,0.588235318660736);
#375=CARTESIAN_POINT('',(11.0,3.0921310434015E-015,28.5));
#376=VECTOR('',#517,1.0);
#377=DRAUGHTING_PRE_DEFINED_CURVE_FONT('continuous');
#378=COLOUR_RGB('',0.509803950786591,0.509803950786591,0.588235318660736);
#379=AXIS2_PLACEMENT_3D('',#518,#519,#520);
#380=PRE_DEFINED_MARKER('');
#381=COLOUR_RGB('',0.509803950786591,0.509803950786591,0.588235318660736);
#382=DRAUGHTING_PRE_DEFINED_CURVE_FONT('continuous');
#383=COLOUR_RGB('',0.509803950786591,0.509803950786591,0.588235318660736);
#384=AXIS2_PLACEMENT_3D('',#521,#522,#523);
#385=DRAUGHTING_PRE_DEFINED_CURVE_FONT('continuous');
#386=COLOUR_RGB('',0.509803950786591,0.509803950786591,0.588235318660736);
#387=AXIS2_PLACEMENT_3D('',#524,#525,#526);
#388=PRE_DEFINED_MARKER('');
#389=COLOUR_RGB('',0.509803950786591,0.509803950786591,0.588235318660736);
#390=DRAUGHTING_PRE_DEFINED_CURVE_FONT('continuous');
#391=COLOUR_RGB('',0.509803950786591,0.509803950786591,0.588235318660736);
#392=CARTESIAN_POINT('',(12.5,2.35736723110808E-015,13.5));
#393=VECTOR('',#527,1.0);
#394=DRAUGHTING_PRE_DEFINED_CURVE_FONT('continuous');
#395=COLOUR_RGB('',0.509803950786591,0.509803950786591,0.588235318660736);
#396=CARTESIAN_POINT('',(-12.5,-7.04148653447867E-016,13.5));
#397=VECTOR('',#528,1.0);
#398=PRE_DEFINED_MARKER('');
#399=COLOUR_RGB('',0.509803950786591,0.509803950786591,0.588235318660736);
#401=CARTESIAN_POINT('',(0.0,0.0,0.0));
#402=DIRECTION('',(0.0,-6.12303176911189E-017,-1.0));
#403=DIRECTION('',(1.0,0.0,0.0));
#404=DIRECTION('',(-0.0,6.12303176911189E-017,1.0));
#405=SURFACE_STYLE_FILL_AREA(#529);
#406=ORIENTED_EDGE('',*,*,#109,.F.);
#407=ORIENTED_EDGE('',*,*,#93,.F.);
#408=CARTESIAN_POINT('',(4.75,1.83690953073357E-015,30.0));
#409=DIRECTION('',(0.0,6.12303176911189E-017,1.0));
#410=DIRECTION('',(-1.0,0.0,0.0));
#411=CARTESIAN_POINT('',(0.0,-8.57224447675664E-016,-14.0));
#412=DIRECTION('',(0.0,-6.12303176911189E-017,-1.0));
#413=DIRECTION('',(1.0,0.0,0.0));
#414=CARTESIAN_POINT('',(0.0,0.0,0.0));
#415=DIRECTION('',(0.0,-6.12303176911189E-017,-1.0));
#416=DIRECTION('',(1.0,0.0,0.0));
#417=SURFACE_STYLE_FILL_AREA(#530);
#418=ORIENTED_EDGE('',*,*,#75,.F.);
#419=ORIENTED_EDGE('',*,*,#67,.F.);
#420=ORIENTED_EDGE('',*,*,#143,.T.);
#421=ORIENTED_EDGE('',*,*,#81,.T.);
#422=CARTESIAN_POINT('',(9.25,0.0,0.0));
#423=DIRECTION('',(0.0,-6.12303176911189E-017,-1.0));
#424=DIRECTION('',(1.0,0.0,0.0));
#425=SURFACE_STYLE_FILL_AREA(#531);
#426=ORIENTED_EDGE('',*,*,#147,.F.);
#427=ORIENTED_EDGE('',*,*,#141,.T.);
#428=ORIENTED_EDGE('',*,*,#149,.F.);
#429=ORIENTED_EDGE('',*,*,#143,.F.);
#430=CARTESIAN_POINT('',(0.0,8.26609288830105E-016,13.5));
#431=DIRECTION('',(-0.0,6.12303176911189E-017,1.0));
#432=DIRECTION('',(1.0,0.0,0.0));
#433=CARTESIAN_POINT('',(0.0,0.0,0.0));
#434=DIRECTION('',(0.0,-6.12303176911189E-017,-1.0));
#435=DIRECTION('',(1.0,0.0,0.0));
#436=SURFACE_STYLE_FILL_AREA(#532);
#437=ORIENTED_EDGE('',*,*,#107,.F.);
#438=ORIENTED_EDGE('',*,*,#75,.T.);
#439=ORIENTED_EDGE('',*,*,#69,.F.);
#440=ORIENTED_EDGE('',*,*,#137,.F.);
#441=CARTESIAN_POINT('',(0.0,-3.36766747301154E-016,-5.5));
#442=DIRECTION('',(-0.0,6.12303176911189E-017,1.0));
#443=DIRECTION('',(1.0,0.0,0.0));
#444=CARTESIAN_POINT('',(0.0,1.65321857766021E-015,27.0));
#445=DIRECTION('',(0.0,-6.12303176911189E-017,-1.0));
#446=DIRECTION('',(1.0,0.0,0.0));
#447=DIRECTION('',(-0.196116135138184,3.60247597765962E-017,0.98058067569092));
#448=DIRECTION('',(-0.196116135138184,-8.40577728120578E-017,-0.98058067569092));
#449=CARTESIAN_POINT('',(0.0,1.83690953073357E-015,30.0));
#450=DIRECTION('',(0.0,-6.12303176911189E-017,-1.0));
#451=DIRECTION('',(1.0,0.0,0.0));
#452=SURFACE_STYLE_FILL_AREA(#533);
#453=ORIENTED_EDGE('',*,*,#107,.T.);
#454=ORIENTED_EDGE('',*,*,#129,.F.);
#455=ORIENTED_EDGE('',*,*,#69,.T.);
#456=ORIENTED_EDGE('',*,*,#67,.T.);
#457=CARTESIAN_POINT('',(0.0,-3.36766747301154E-016,-5.5));
#458=DIRECTION('',(-0.0,6.12303176911189E-017,1.0));
#459=DIRECTION('',(1.0,0.0,0.0));
#460=SURFACE_STYLE_FILL_AREA(#534);
#461=ORIENTED_EDGE('',*,*,#135,.T.);
#462=ORIENTED_EDGE('',*,*,#85,.F.);
#463=ORIENTED_EDGE('',*,*,#125,.T.);
#464=ORIENTED_EDGE('',*,*,#93,.T.);
#465=CARTESIAN_POINT('',(0.0,1.74506405419689E-015,28.5));
#466=DIRECTION('',(0.0,-6.12303176911189E-017,-1.0));
#467=DIRECTION('',(1.0,0.0,0.0));
#468=SURFACE_STYLE_FILL_AREA(#535);
#469=ORIENTED_EDGE('',*,*,#147,.T.);
#470=ORIENTED_EDGE('',*,*,#81,.F.);
#471=ORIENTED_EDGE('',*,*,#149,.T.);
#472=ORIENTED_EDGE('',*,*,#85,.T.);
#473=CARTESIAN_POINT('',(0.0,8.26609288830105E-016,13.5));
#474=DIRECTION('',(-0.0,6.12303176911189E-017,1.0));
#475=DIRECTION('',(1.0,0.0,0.0));
#476=DIRECTION('',(0.0,-6.12303176911189E-017,-1.0));
#477=CARTESIAN_POINT('',(0.0,1.83690953073357E-015,30.0));
#478=DIRECTION('',(0.0,-6.12303176911189E-017,-1.0));
#479=DIRECTION('',(1.0,0.0,0.0));
#480=SURFACE_STYLE_FILL_AREA(#536);
#481=ORIENTED_EDGE('',*,*,#135,.F.);
#482=ORIENTED_EDGE('',*,*,#109,.T.);
#483=ORIENTED_EDGE('',*,*,#125,.F.);
#484=ORIENTED_EDGE('',*,*,#141,.F.);
#485=CARTESIAN_POINT('',(0.0,1.74506405419689E-015,28.5));
#486=DIRECTION('',(0.0,-6.12303176911189E-017,-1.0));
#487=DIRECTION('',(1.0,0.0,0.0));
#488=CARTESIAN_POINT('',(0.0,-8.57224447675664E-016,-14.0));
#489=DIRECTION('',(0.0,-6.12303176911189E-017,-1.0));
#490=DIRECTION('',(1.0,0.0,0.0));
#491=SURFACE_STYLE_FILL_AREA(#537);
#492=ORIENTED_EDGE('',*,*,#91,.F.);
#493=ORIENTED_EDGE('',*,*,#137,.T.);
#494=ORIENTED_EDGE('',*,*,#89,.F.);
#495=ORIENTED_EDGE('',*,*,#113,.F.);
#496=CARTESIAN_POINT('',(0.0,-7.65378971138986E-016,-12.5));
#497=DIRECTION('',(-0.0,6.12303176911189E-017,1.0));
#498=DIRECTION('',(1.0,0.0,0.0));
#499=SURFACE_STYLE_FILL_AREA(#538);
#500=ORIENTED_EDGE('',*,*,#91,.T.);
#501=ORIENTED_EDGE('',*,*,#73,.F.);
#502=ORIENTED_EDGE('',*,*,#89,.T.);
#503=ORIENTED_EDGE('',*,*,#129,.T.);
#504=CARTESIAN_POINT('',(0.0,-7.65378971138986E-016,-12.5));
#505=DIRECTION('',(-0.0,6.12303176911189E-017,1.0));
#506=DIRECTION('',(1.0,0.0,0.0));
#507=DIRECTION('',(0.707106781186548,1.2988911856079E-016,0.707106781186547));
#508=CARTESIAN_POINT('',(0.0,-6.73533494602307E-016,-11.0));
#509=DIRECTION('',(0.0,-6.12303176911189E-017,-1.0));
#510=DIRECTION('',(1.0,0.0,0.0));
#511=SURFACE_STYLE_FILL_AREA(#539);
#512=ORIENTED_EDGE('',*,*,#113,.T.);
#513=ORIENTED_EDGE('',*,*,#73,.T.);
#514=CARTESIAN_POINT('',(2.7,-8.57224447675664E-016,-14.0));
#515=DIRECTION('',(0.0,-6.12303176911189E-017,-1.0));
#516=DIRECTION('',(1.0,0.0,0.0));
#517=DIRECTION('',(0.707106781186548,4.32963728535968E-017,-0.707106781186547));
#518=CARTESIAN_POINT('',(0.0,-6.73533494602307E-016,-11.0));
#519=DIRECTION('',(0.0,-6.12303176911189E-017,-1.0));
#520=DIRECTION('',(1.0,0.0,0.0));
#521=CARTESIAN_POINT('',(0.0,1.65321857766021E-015,27.0));
#522=DIRECTION('',(0.0,-6.12303176911189E-017,-1.0));
#523=DIRECTION('',(1.0,0.0,0.0));
#524=CARTESIAN_POINT('',(0.0,0.0,0.0));
#525=DIRECTION('',(0.0,-6.12303176911189E-017,-1.0));
#526=DIRECTION('',(1.0,0.0,0.0));
#527=DIRECTION('',(0.0,-6.12303176911189E-017,-1.0));
#528=DIRECTION('',(-0.0,6.12303176911189E-017,1.0));
#529=FILL_AREA_STYLE('',(#540));
#530=FILL_AREA_STYLE('',(#541));
#531=FILL_AREA_STYLE('',(#542));
#532=FILL_AREA_STYLE('',(#543));
#533=FILL_AREA_STYLE('',(#544));
#534=FILL_AREA_STYLE('',(#545));
#535=FILL_AREA_STYLE('',(#546));
#536=FILL_AREA_STYLE('',(#547));
#537=FILL_AREA_STYLE('',(#548));
#538=FILL_AREA_STYLE('',(#549));
#539=FILL_AREA_STYLE('',(#550));
#540=FILL_AREA_STYLE_COLOUR('',#551);
#541=FILL_AREA_STYLE_COLOUR('',#552);
#542=FILL_AREA_STYLE_COLOUR('',#553);
#543=FILL_AREA_STYLE_COLOUR('',#554);
#544=FILL_AREA_STYLE_COLOUR('',#555);
#545=FILL_AREA_STYLE_COLOUR('',#556);
#546=FILL_AREA_STYLE_COLOUR('',#557);
#547=FILL_AREA_STYLE_COLOUR('',#558);
#548=FILL_AREA_STYLE_COLOUR('',#559);
#549=FILL_AREA_STYLE_COLOUR('',#560);
#550=FILL_AREA_STYLE_COLOUR('',#561);
#551=COLOUR_RGB('',0.509803950786591,0.509803950786591,0.588235318660736);
#552=COLOUR_RGB('',0.509803950786591,0.509803950786591,0.588235318660736);
#553=COLOUR_RGB('',0.509803950786591,0.509803950786591,0.588235318660736);
#554=COLOUR_RGB('',0.509803950786591,0.509803950786591,0.588235318660736);
#555=COLOUR_RGB('',0.509803950786591,0.509803950786591,0.588235318660736);
#556=COLOUR_RGB('',0.509803950786591,0.509803950786591,0.588235318660736);
#557=COLOUR_RGB('',0.509803950786591,0.509803950786591,0.588235318660736);
#558=COLOUR_RGB('',0.509803950786591,0.509803950786591,0.588235318660736);
#559=COLOUR_RGB('',0.509803950786591,0.509803950786591,0.588235318660736);
#560=COLOUR_RGB('',0.509803950786591,0.509803950786591,0.588235318660736);
#561=COLOUR_RGB('',0.509803950786591,0.509803950786591,0.588235318660736);
ENDSEC;
END-ISO-10303-21;
