ISO-10303-21;
HEADER;
FILE_DESCRIPTION(('STEP AP214'),'1');
FILE_NAME(' ','  ',('TraceParts'),('TraceParts S.A.'),'XStep 1.0',' ',' ');
FILE_SCHEMA(('automotive_design'));
ENDSEC;
DATA;
#1=MECHANICAL_DESIGN_GEOMETRIC_PRESENTATION_REPRESENTATION(' ',(#10,#11,#12,#13,#14,#15,#16,#17,#18,#19,#20,#21,#22,#23,#24,#25,#26,#27,#28,#29,#30,#31,#32,#33,#34,#35,#36,#37,#38,#39,#40,#41,#42,#43,#44,#45,#46,#47,#48,#49,#50,#51,#52),#6);
#2=PRODUCT_DEFINITION_CONTEXT('',#53,'design');
#3=APPLICATION_PROTOCOL_DEFINITION('INTERNATIONAL STANDARD','automotive_design',1994,#53);
#4=PRODUCT_CATEGORY_RELATIONSHIP('NONE','NONE',#54,#55);
#5=SHAPE_DEFINITION_REPRESENTATION(#56,#57);
#6= (GEOMETRIC_REPRESENTATION_CONTEXT(3)GLOBAL_UNCERTAINTY_ASSIGNED_CONTEXT((#60))GLOBAL_UNIT_ASSIGNED_CONTEXT((#62,#63,#64))REPRESENTATION_CONTEXT('NONE','WORKSPACE'));
#10=STYLED_ITEM('',(#66),#67);
#11=STYLED_ITEM('',(#68),#69);
#12=STYLED_ITEM('',(#70),#71);
#13=STYLED_ITEM('',(#72),#73);
#14=STYLED_ITEM('',(#74),#75);
#15=STYLED_ITEM('',(#76),#77);
#16=STYLED_ITEM('',(#78),#79);
#17=STYLED_ITEM('',(#80),#81);
#18=STYLED_ITEM('',(#82),#83);
#19=STYLED_ITEM('',(#84),#85);
#20=STYLED_ITEM('',(#86),#87);
#21=STYLED_ITEM('',(#88),#89);
#22=STYLED_ITEM('',(#90),#91);
#23=STYLED_ITEM('',(#92),#93);
#24=STYLED_ITEM('',(#94),#95);
#25=STYLED_ITEM('',(#96),#97);
#26=STYLED_ITEM('',(#98),#99);
#27=STYLED_ITEM('',(#100),#101);
#28=STYLED_ITEM('',(#102),#103);
#29=STYLED_ITEM('',(#104),#105);
#30=STYLED_ITEM('',(#106),#107);
#31=STYLED_ITEM('',(#108),#109);
#32=STYLED_ITEM('',(#110),#111);
#33=STYLED_ITEM('',(#112),#113);
#34=STYLED_ITEM('',(#114),#115);
#35=STYLED_ITEM('',(#116),#117);
#36=STYLED_ITEM('',(#118),#119);
#37=STYLED_ITEM('',(#120),#121);
#38=STYLED_ITEM('',(#122),#123);
#39=STYLED_ITEM('',(#124),#125);
#40=STYLED_ITEM('',(#126),#127);
#41=STYLED_ITEM('',(#128),#129);
#42=STYLED_ITEM('',(#130),#131);
#43=STYLED_ITEM('',(#132),#133);
#44=STYLED_ITEM('',(#134),#135);
#45=STYLED_ITEM('',(#136),#137);
#46=STYLED_ITEM('',(#138),#139);
#47=STYLED_ITEM('',(#140),#141);
#48=STYLED_ITEM('',(#142),#143);
#49=STYLED_ITEM('',(#144),#145);
#50=STYLED_ITEM('',(#146),#147);
#51=STYLED_ITEM('',(#148),#149);
#52=STYLED_ITEM('',(#150),#151);
#53=APPLICATION_CONTEXT(' ');
#54=PRODUCT_CATEGORY('part','NONE');
#55=PRODUCT_RELATED_PRODUCT_CATEGORY('detail',' ',(#152));
#56=PRODUCT_DEFINITION_SHAPE('NONE','NONE',#153);
#57=ADVANCED_BREP_SHAPE_REPRESENTATION('1',(#154,#155),#6);
#60=UNCERTAINTY_MEASURE_WITH_UNIT(LENGTH_MEASURE(1.0E-006),#62,'','');
#62= (CONVERSION_BASED_UNIT('MILLIMETRE',#158)LENGTH_UNIT()NAMED_UNIT(#161));
#63= (NAMED_UNIT(#163)PLANE_ANGLE_UNIT()SI_UNIT($,.RADIAN.));
#64= (NAMED_UNIT(#163)SOLID_ANGLE_UNIT()SI_UNIT($,.STERADIAN.));
#66=PRESENTATION_STYLE_ASSIGNMENT((#169));
#67=ADVANCED_FACE('',(#170),#171,.T.);
#68=PRESENTATION_STYLE_ASSIGNMENT((#172));
#69=ADVANCED_FACE('',(#173),#174,.T.);
#70=PRESENTATION_STYLE_ASSIGNMENT((#175));
#71=EDGE_CURVE('',#129,#103,#176,.T.);
#72=PRESENTATION_STYLE_ASSIGNMENT((#177));
#73=EDGE_CURVE('',#143,#135,#178,.T.);
#74=PRESENTATION_STYLE_ASSIGNMENT((#179));
#75=EDGE_CURVE('',#103,#147,#180,.T.);
#76=PRESENTATION_STYLE_ASSIGNMENT((#181));
#77=EDGE_CURVE('',#135,#129,#182,.T.);
#78=PRESENTATION_STYLE_ASSIGNMENT((#183));
#79=EDGE_CURVE('',#81,#119,#184,.T.);
#80=PRESENTATION_STYLE_ASSIGNMENT((#185));
#81=VERTEX_POINT('',#186);
#82=PRESENTATION_STYLE_ASSIGNMENT((#187));
#83=ADVANCED_FACE('',(#188),#189,.T.);
#84=PRESENTATION_STYLE_ASSIGNMENT((#190));
#85=EDGE_CURVE('',#93,#133,#191,.T.);
#86=PRESENTATION_STYLE_ASSIGNMENT((#192));
#87=ADVANCED_FACE('',(#193),#194,.T.);
#88=PRESENTATION_STYLE_ASSIGNMENT((#195));
#89=EDGE_CURVE('',#147,#137,#196,.T.);
#90=PRESENTATION_STYLE_ASSIGNMENT((#197));
#91=EDGE_CURVE('',#117,#131,#198,.T.);
#92=PRESENTATION_STYLE_ASSIGNMENT((#199));
#93=VERTEX_POINT('',#200);
#94=PRESENTATION_STYLE_ASSIGNMENT((#201));
#95=EDGE_CURVE('',#133,#93,#202,.T.);
#96=PRESENTATION_STYLE_ASSIGNMENT((#203));
#97=EDGE_CURVE('',#147,#135,#204,.T.);
#98=PRESENTATION_STYLE_ASSIGNMENT((#205));
#99=EDGE_CURVE('',#135,#147,#206,.T.);
#100=PRESENTATION_STYLE_ASSIGNMENT((#207));
#101=EDGE_CURVE('',#93,#117,#208,.T.);
#102=PRESENTATION_STYLE_ASSIGNMENT((#209));
#103=VERTEX_POINT('',#210);
#104=PRESENTATION_STYLE_ASSIGNMENT((#211));
#105=ADVANCED_FACE('',(#212),#213,.T.);
#106=PRESENTATION_STYLE_ASSIGNMENT((#214));
#107=ADVANCED_FACE('',(#215),#216,.T.);
#108=PRESENTATION_STYLE_ASSIGNMENT((#217));
#109=EDGE_CURVE('',#131,#117,#218,.T.);
#110=PRESENTATION_STYLE_ASSIGNMENT((#219));
#111=EDGE_CURVE('',#133,#119,#220,.T.);
#112=PRESENTATION_STYLE_ASSIGNMENT((#221));
#113=EDGE_CURVE('',#143,#137,#222,.T.);
#114=PRESENTATION_STYLE_ASSIGNMENT((#223));
#115=ADVANCED_FACE('',(#224),#225,.T.);
#116=PRESENTATION_STYLE_ASSIGNMENT((#226));
#117=VERTEX_POINT('',#227);
#118=PRESENTATION_STYLE_ASSIGNMENT((#228));
#119=VERTEX_POINT('',#229);
#120=PRESENTATION_STYLE_ASSIGNMENT((#230));
#121=EDGE_CURVE('',#137,#143,#231,.T.);
#122=PRESENTATION_STYLE_ASSIGNMENT((#232));
#123=ADVANCED_FACE('',(#233,#234),#235,.T.);
#124=PRESENTATION_STYLE_ASSIGNMENT((#236));
#125=EDGE_CURVE('',#131,#133,#237,.T.);
#126=PRESENTATION_STYLE_ASSIGNMENT((#238));
#127=ADVANCED_FACE('',(#239),#240,.T.);
#128=PRESENTATION_STYLE_ASSIGNMENT((#241));
#129=VERTEX_POINT('',#242);
#130=PRESENTATION_STYLE_ASSIGNMENT((#243));
#131=VERTEX_POINT('',#244);
#132=PRESENTATION_STYLE_ASSIGNMENT((#245));
#133=VERTEX_POINT('',#246);
#134=PRESENTATION_STYLE_ASSIGNMENT((#247));
#135=VERTEX_POINT('',#248);
#136=PRESENTATION_STYLE_ASSIGNMENT((#249));
#137=VERTEX_POINT('',#250);
#138=PRESENTATION_STYLE_ASSIGNMENT((#251));
#139=EDGE_CURVE('',#119,#81,#252,.T.);
#140=PRESENTATION_STYLE_ASSIGNMENT((#253));
#141=EDGE_CURVE('',#81,#93,#254,.T.);
#142=PRESENTATION_STYLE_ASSIGNMENT((#255));
#143=VERTEX_POINT('',#256);
#144=PRESENTATION_STYLE_ASSIGNMENT((#257));
#145=EDGE_CURVE('',#103,#129,#258,.T.);
#146=PRESENTATION_STYLE_ASSIGNMENT((#259));
#147=VERTEX_POINT('',#260);
#148=PRESENTATION_STYLE_ASSIGNMENT((#261));
#149=ADVANCED_FACE('',(#262),#263,.T.);
#150=PRESENTATION_STYLE_ASSIGNMENT((#264));
#151=ADVANCED_FACE('',(#265),#266,.T.);
#152=PRODUCT('1','1','PART-1-DESC',(#267));
#153=PRODUCT_DEFINITION('NONE','NONE',#268,#2);
#154=MANIFOLD_SOLID_BREP('1',#269);
#155=AXIS2_PLACEMENT_3D('',#270,#271,#272);
#158=LENGTH_MEASURE_WITH_UNIT(LENGTH_MEASURE(1.0),#273);
#161=DIMENSIONAL_EXPONENTS(1.0,0.0,0.0,0.0,0.0,0.0,0.0);
#163=DIMENSIONAL_EXPONENTS(0.0,0.0,0.0,0.0,0.0,0.0,0.0);
#169=SURFACE_STYLE_USAGE(.BOTH.,#274);
#170=FACE_OUTER_BOUND('',#275,.T.);
#171=PLANE('',#276);
#172=SURFACE_STYLE_USAGE(.BOTH.,#277);
#173=FACE_OUTER_BOUND('',#278,.T.);
#174=CYLINDRICAL_SURFACE('',#279,5.0);
#175=CURVE_STYLE('',#280,POSITIVE_LENGTH_MEASURE(1.0E-006),#281);
#176=CIRCLE('',#282,3.0);
#177=CURVE_STYLE('',#283,POSITIVE_LENGTH_MEASURE(1.0E-006),#284);
#178=LINE('',#285,#286);
#179=CURVE_STYLE('',#287,POSITIVE_LENGTH_MEASURE(1.0E-006),#288);
#180=LINE('',#289,#290);
#181=CURVE_STYLE('',#291,POSITIVE_LENGTH_MEASURE(1.0E-006),#292);
#182=LINE('',#293,#294);
#183=CURVE_STYLE('',#295,POSITIVE_LENGTH_MEASURE(1.0E-006),#296);
#184=CIRCLE('',#297,5.0);
#185=POINT_STYLE(' ',#298,POSITIVE_LENGTH_MEASURE(1.0E-006),#299);
#186=CARTESIAN_POINT('',(-5.0,-6.12303176911189E-016,3.74915180455534E-032));
#187=SURFACE_STYLE_USAGE(.BOTH.,#300);
#188=FACE_OUTER_BOUND('',#301,.T.);
#189=CONICAL_SURFACE('',#302,2.85,0.197395559849881);
#190=CURVE_STYLE('',#303,POSITIVE_LENGTH_MEASURE(1.0E-006),#304);
#191=CIRCLE('',#305,5.0);
#192=SURFACE_STYLE_USAGE(.BOTH.,#306);
#193=FACE_OUTER_BOUND('',#307,.T.);
#194=CYLINDRICAL_SURFACE('',#308,5.0);
#195=CURVE_STYLE('',#309,POSITIVE_LENGTH_MEASURE(1.0E-006),#310);
#196=LINE('',#311,#312);
#197=CURVE_STYLE('',#313,POSITIVE_LENGTH_MEASURE(1.0E-006),#314);
#198=CIRCLE('',#315,4.55);
#199=POINT_STYLE(' ',#316,POSITIVE_LENGTH_MEASURE(1.0E-006),#317);
#200=CARTESIAN_POINT('',(-5.0,-3.64320390262157E-016,4.05));
#201=CURVE_STYLE('',#318,POSITIVE_LENGTH_MEASURE(1.0E-006),#319);
#202=CIRCLE('',#320,5.0);
#203=CURVE_STYLE('',#321,POSITIVE_LENGTH_MEASURE(1.0E-006),#322);
#204=CIRCLE('',#323,3.0);
#205=CURVE_STYLE('',#324,POSITIVE_LENGTH_MEASURE(1.0E-006),#325);
#206=CIRCLE('',#326,3.0);
#207=CURVE_STYLE('',#327,POSITIVE_LENGTH_MEASURE(1.0E-006),#328);
#208=LINE('',#329,#330);
#209=POINT_STYLE(' ',#331,POSITIVE_LENGTH_MEASURE(1.0E-006),#332);
#210=CARTESIAN_POINT('',(3.0,0.0,0.0));
#211=SURFACE_STYLE_USAGE(.BOTH.,#333);
#212=FACE_OUTER_BOUND('',#334,.T.);
#213=CYLINDRICAL_SURFACE('',#335,3.0);
#214=SURFACE_STYLE_USAGE(.BOTH.,#336);
#215=FACE_OUTER_BOUND('',#337,.T.);
#216=CONICAL_SURFACE('',#338,4.775,0.785398163397448);
#217=CURVE_STYLE('',#339,POSITIVE_LENGTH_MEASURE(1.0E-006),#340);
#218=CIRCLE('',#341,4.55);
#219=CURVE_STYLE('',#342,POSITIVE_LENGTH_MEASURE(1.0E-006),#343);
#220=LINE('',#344,#345);
#221=CURVE_STYLE('',#346,POSITIVE_LENGTH_MEASURE(1.0E-006),#347);
#222=CIRCLE('',#348,2.7);
#223=SURFACE_STYLE_USAGE(.BOTH.,#349);
#224=FACE_OUTER_BOUND('',#350,.T.);
#225=CYLINDRICAL_SURFACE('',#351,3.0);
#226=POINT_STYLE(' ',#352,POSITIVE_LENGTH_MEASURE(1.0E-006),#353);
#227=CARTESIAN_POINT('',(-4.55,-2.81659461379147E-016,4.5));
#228=POINT_STYLE(' ',#354,POSITIVE_LENGTH_MEASURE(1.0E-006),#355);
#229=CARTESIAN_POINT('',(5.0,0.0,0.0));
#230=CURVE_STYLE('',#356,POSITIVE_LENGTH_MEASURE(1.0E-006),#357);
#231=CIRCLE('',#358,2.7);
#232=SURFACE_STYLE_USAGE(.BOTH.,#359);
#233=FACE_BOUND('',#360,.T.);
#234=FACE_OUTER_BOUND('',#361,.T.);
#235=PLANE('',#362);
#236=CURVE_STYLE('',#363,POSITIVE_LENGTH_MEASURE(1.0E-006),#364);
#237=LINE('',#365,#366);
#238=SURFACE_STYLE_USAGE(.BOTH.,#367);
#239=FACE_OUTER_BOUND('',#368,.T.);
#240=PLANE('',#369);
#241=POINT_STYLE(' ',#370,POSITIVE_LENGTH_MEASURE(1.0E-006),#371);
#242=CARTESIAN_POINT('',(-3.0,-3.67381906146713E-016,2.24949108273321E-032));
#243=POINT_STYLE(' ',#372,POSITIVE_LENGTH_MEASURE(1.0E-006),#373);
#244=CARTESIAN_POINT('',(4.55,2.75536429610035E-016,4.5));
#245=POINT_STYLE(' ',#374,POSITIVE_LENGTH_MEASURE(1.0E-006),#375);
#246=CARTESIAN_POINT('',(5.0,2.47982786649031E-016,4.05));
#247=POINT_STYLE(' ',#376,POSITIVE_LENGTH_MEASURE(1.0E-006),#377);
#248=CARTESIAN_POINT('',(-3.0,-7.95994129984545E-016,-7.0));
#249=POINT_STYLE(' ',#378,POSITIVE_LENGTH_MEASURE(1.0E-006),#379);
#250=CARTESIAN_POINT('',(2.7,-5.2045770037451E-016,-8.5));
#251=CURVE_STYLE('',#380,POSITIVE_LENGTH_MEASURE(1.0E-006),#381);
#252=CIRCLE('',#382,5.0);
#253=CURVE_STYLE('',#383,POSITIVE_LENGTH_MEASURE(1.0E-006),#384);
#254=LINE('',#385,#386);
#255=POINT_STYLE(' ',#387,POSITIVE_LENGTH_MEASURE(1.0E-006),#388);
#256=CARTESIAN_POINT('',(-2.7,-8.51101415906552E-016,-8.5));
#257=CURVE_STYLE('',#389,POSITIVE_LENGTH_MEASURE(1.0E-006),#390);
#258=CIRCLE('',#391,3.0);
#259=POINT_STYLE(' ',#392,POSITIVE_LENGTH_MEASURE(1.0E-006),#393);
#260=CARTESIAN_POINT('',(3.0,-4.28612223837832E-016,-7.0));
#261=SURFACE_STYLE_USAGE(.BOTH.,#394);
#262=FACE_OUTER_BOUND('',#395,.T.);
#263=CONICAL_SURFACE('',#396,4.775,0.785398163397448);
#264=SURFACE_STYLE_USAGE(.BOTH.,#397);
#265=FACE_OUTER_BOUND('',#398,.T.);
#266=CONICAL_SURFACE('',#399,2.85,0.197395559849881);
#267=PRODUCT_CONTEXT('',#53,'mechanical');
#268=PRODUCT_DEFINITION_FORMATION_WITH_SPECIFIED_SOURCE(' ','NONE',#152,.NOT_KNOWN.);
#269=CLOSED_SHELL('',(#83,#105,#69,#149,#127,#107,#87,#123,#115,#151,#67));
#270=CARTESIAN_POINT('',(0.0,0.0,0.0));
#271=DIRECTION('',(0.0,0.0,1.0));
#272=DIRECTION('',(1.0,0.0,0.0));
#273= (NAMED_UNIT(#161)LENGTH_UNIT()SI_UNIT(.MILLI.,.METRE.));
#274=SURFACE_SIDE_STYLE('',(#401));
#275=EDGE_LOOP('',(#402,#403));
#276=AXIS2_PLACEMENT_3D('',#404,#405,#406);
#277=SURFACE_SIDE_STYLE('',(#407));
#278=EDGE_LOOP('',(#408,#409,#410,#411));
#279=AXIS2_PLACEMENT_3D('',#412,#413,#414);
#280=DRAUGHTING_PRE_DEFINED_CURVE_FONT('continuous');
#281=COLOUR_RGB('',0.509803950786591,0.509803950786591,0.588235318660736);
#282=AXIS2_PLACEMENT_3D('',#415,#416,#417);
#283=DRAUGHTING_PRE_DEFINED_CURVE_FONT('continuous');
#284=COLOUR_RGB('',0.509803950786591,0.509803950786591,0.588235318660736);
#285=CARTESIAN_POINT('',(-2.85,-8.23547772945549E-016,-7.75));
#286=VECTOR('',#418,1.0);
#287=DRAUGHTING_PRE_DEFINED_CURVE_FONT('continuous');
#288=COLOUR_RGB('',0.509803950786591,0.509803950786591,0.588235318660736);
#289=CARTESIAN_POINT('',(3.0,1.53075794227797E-016,-3.5));
#290=VECTOR('',#419,1.0);
#291=DRAUGHTING_PRE_DEFINED_CURVE_FONT('continuous');
#292=COLOUR_RGB('',0.509803950786591,0.509803950786591,0.588235318660736);
#293=CARTESIAN_POINT('',(-3.0,-5.81688018065629E-016,-3.5));
#294=VECTOR('',#420,1.0);
#295=DRAUGHTING_PRE_DEFINED_CURVE_FONT('continuous');
#296=COLOUR_RGB('',0.509803950786591,0.509803950786591,0.588235318660736);
#297=AXIS2_PLACEMENT_3D('',#421,#422,#423);
#298=PRE_DEFINED_MARKER('');
#299=COLOUR_RGB('',0.509803950786591,0.509803950786591,0.588235318660736);
#300=SURFACE_SIDE_STYLE('',(#424));
#301=EDGE_LOOP('',(#425,#426,#427,#428));
#302=AXIS2_PLACEMENT_3D('',#429,#430,#431);
#303=DRAUGHTING_PRE_DEFINED_CURVE_FONT('continuous');
#304=COLOUR_RGB('',0.509803950786591,0.509803950786591,0.588235318660736);
#305=AXIS2_PLACEMENT_3D('',#432,#433,#434);
#306=SURFACE_SIDE_STYLE('',(#435));
#307=EDGE_LOOP('',(#436,#437,#438,#439));
#308=AXIS2_PLACEMENT_3D('',#440,#441,#442);
#309=DRAUGHTING_PRE_DEFINED_CURVE_FONT('continuous');
#310=COLOUR_RGB('',0.509803950786591,0.509803950786591,0.588235318660736);
#311=CARTESIAN_POINT('',(2.85,-1.25522151266794E-016,-7.75));
#312=VECTOR('',#443,1.0);
#313=DRAUGHTING_PRE_DEFINED_CURVE_FONT('continuous');
#314=COLOUR_RGB('',0.509803950786591,0.509803950786591,0.588235318660736);
#315=AXIS2_PLACEMENT_3D('',#444,#445,#446);
#316=PRE_DEFINED_MARKER('');
#317=COLOUR_RGB('',0.509803950786591,0.509803950786591,0.588235318660736);
#318=DRAUGHTING_PRE_DEFINED_CURVE_FONT('continuous');
#319=COLOUR_RGB('',0.509803950786591,0.509803950786591,0.588235318660736);
#320=AXIS2_PLACEMENT_3D('',#447,#448,#449);
#321=DRAUGHTING_PRE_DEFINED_CURVE_FONT('continuous');
#322=COLOUR_RGB('',0.509803950786591,0.509803950786591,0.588235318660736);
#323=AXIS2_PLACEMENT_3D('',#450,#451,#452);
#324=DRAUGHTING_PRE_DEFINED_CURVE_FONT('continuous');
#325=COLOUR_RGB('',0.509803950786591,0.509803950786591,0.588235318660736);
#326=AXIS2_PLACEMENT_3D('',#453,#454,#455);
#327=DRAUGHTING_PRE_DEFINED_CURVE_FONT('continuous');
#328=COLOUR_RGB('',0.509803950786591,0.509803950786591,0.588235318660736);
#329=CARTESIAN_POINT('',(-4.775,-3.22989925820652E-016,4.275));
#330=VECTOR('',#456,1.0);
#331=PRE_DEFINED_MARKER('');
#332=COLOUR_RGB('',0.509803950786591,0.509803950786591,0.588235318660736);
#333=SURFACE_SIDE_STYLE('',(#457));
#334=EDGE_LOOP('',(#458,#459,#460,#461));
#335=AXIS2_PLACEMENT_3D('',#462,#463,#464);
#336=SURFACE_SIDE_STYLE('',(#465));
#337=EDGE_LOOP('',(#466,#467,#468,#469));
#338=AXIS2_PLACEMENT_3D('',#470,#471,#472);
#339=DRAUGHTING_PRE_DEFINED_CURVE_FONT('continuous');
#340=COLOUR_RGB('',0.509803950786591,0.509803950786591,0.588235318660736);
#341=AXIS2_PLACEMENT_3D('',#473,#474,#475);
#342=DRAUGHTING_PRE_DEFINED_CURVE_FONT('continuous');
#343=COLOUR_RGB('',0.509803950786591,0.509803950786591,0.588235318660736);
#344=CARTESIAN_POINT('',(5.0,7.36294570235704E-016,2.025));
#345=VECTOR('',#476,1.0);
#346=DRAUGHTING_PRE_DEFINED_CURVE_FONT('continuous');
#347=COLOUR_RGB('',0.509803950786591,0.509803950786591,0.588235318660736);
#348=AXIS2_PLACEMENT_3D('',#477,#478,#479);
#349=SURFACE_SIDE_STYLE('',(#480));
#350=EDGE_LOOP('',(#481,#482,#483,#484));
#351=AXIS2_PLACEMENT_3D('',#485,#486,#487);
#352=PRE_DEFINED_MARKER('');
#353=COLOUR_RGB('',0.509803950786591,0.509803950786591,0.588235318660736);
#354=PRE_DEFINED_MARKER('');
#355=COLOUR_RGB('',0.509803950786591,0.509803950786591,0.588235318660736);
#356=DRAUGHTING_PRE_DEFINED_CURVE_FONT('continuous');
#357=COLOUR_RGB('',0.509803950786591,0.509803950786591,0.588235318660736);
#358=AXIS2_PLACEMENT_3D('',#488,#489,#490);
#359=SURFACE_SIDE_STYLE('',(#491));
#360=EDGE_LOOP('',(#492,#493));
#361=EDGE_LOOP('',(#494,#495));
#362=AXIS2_PLACEMENT_3D('',#496,#497,#498);
#363=DRAUGHTING_PRE_DEFINED_CURVE_FONT('continuous');
#364=COLOUR_RGB('',0.509803950786591,0.509803950786591,0.588235318660736);
#365=CARTESIAN_POINT('',(4.775,8.46509142079718E-016,4.275));
#366=VECTOR('',#499,1.0);
#367=SURFACE_SIDE_STYLE('',(#500));
#368=EDGE_LOOP('',(#501,#502));
#369=AXIS2_PLACEMENT_3D('',#503,#504,#505);
#370=PRE_DEFINED_MARKER('');
#371=COLOUR_RGB('',0.509803950786591,0.509803950786591,0.588235318660736);
#372=PRE_DEFINED_MARKER('');
#373=COLOUR_RGB('',0.509803950786591,0.509803950786591,0.588235318660736);
#374=PRE_DEFINED_MARKER('');
#375=COLOUR_RGB('',0.509803950786591,0.509803950786591,0.588235318660736);
#376=PRE_DEFINED_MARKER('');
#377=COLOUR_RGB('',0.509803950786591,0.509803950786591,0.588235318660736);
#378=PRE_DEFINED_MARKER('');
#379=COLOUR_RGB('',0.509803950786591,0.509803950786591,0.588235318660736);
#380=DRAUGHTING_PRE_DEFINED_CURVE_FONT('continuous');
#381=COLOUR_RGB('',0.509803950786591,0.509803950786591,0.588235318660736);
#382=AXIS2_PLACEMENT_3D('',#506,#507,#508);
#383=DRAUGHTING_PRE_DEFINED_CURVE_FONT('continuous');
#384=COLOUR_RGB('',0.509803950786591,0.509803950786591,0.588235318660736);
#385=CARTESIAN_POINT('',(-5.0,-4.88311783586673E-016,2.025));
#386=VECTOR('',#509,1.0);
#387=PRE_DEFINED_MARKER('');
#388=COLOUR_RGB('',0.509803950786591,0.509803950786591,0.588235318660736);
#389=DRAUGHTING_PRE_DEFINED_CURVE_FONT('continuous');
#390=COLOUR_RGB('',0.509803950786591,0.509803950786591,0.588235318660736);
#391=AXIS2_PLACEMENT_3D('',#510,#511,#512);
#392=PRE_DEFINED_MARKER('');
#393=COLOUR_RGB('',0.509803950786591,0.509803950786591,0.588235318660736);
#394=SURFACE_SIDE_STYLE('',(#513));
#395=EDGE_LOOP('',(#514,#515,#516,#517));
#396=AXIS2_PLACEMENT_3D('',#518,#519,#520);
#397=SURFACE_SIDE_STYLE('',(#521));
#398=EDGE_LOOP('',(#522,#523,#524,#525));
#399=AXIS2_PLACEMENT_3D('',#526,#527,#528);
#401=SURFACE_STYLE_FILL_AREA(#529);
#402=ORIENTED_EDGE('',*,*,#121,.T.);
#403=ORIENTED_EDGE('',*,*,#113,.T.);
#404=CARTESIAN_POINT('',(1.35,-5.2045770037451E-016,-8.5));
#405=DIRECTION('',(0.0,-6.12303176911189E-017,-1.0));
#406=DIRECTION('',(1.0,0.0,0.0));
#407=SURFACE_STYLE_FILL_AREA(#530);
#408=ORIENTED_EDGE('',*,*,#111,.F.);
#409=ORIENTED_EDGE('',*,*,#95,.T.);
#410=ORIENTED_EDGE('',*,*,#141,.F.);
#411=ORIENTED_EDGE('',*,*,#139,.F.);
#412=CARTESIAN_POINT('',(0.0,1.23991393324516E-016,2.025));
#413=DIRECTION('',(-0.0,6.12303176911189E-017,1.0));
#414=DIRECTION('',(1.0,0.0,0.0));
#415=CARTESIAN_POINT('',(0.0,0.0,0.0));
#416=DIRECTION('',(0.0,-6.12303176911189E-017,-1.0));
#417=DIRECTION('',(1.0,0.0,0.0));
#418=DIRECTION('',(-0.196116135138184,3.60247597765962E-017,0.98058067569092));
#419=DIRECTION('',(0.0,-6.12303176911189E-017,-1.0));
#420=DIRECTION('',(-0.0,6.12303176911189E-017,1.0));
#421=CARTESIAN_POINT('',(0.0,0.0,0.0));
#422=DIRECTION('',(0.0,-6.12303176911189E-017,-1.0));
#423=DIRECTION('',(1.0,0.0,0.0));
#424=SURFACE_STYLE_FILL_AREA(#531);
#425=ORIENTED_EDGE('',*,*,#89,.F.);
#426=ORIENTED_EDGE('',*,*,#97,.T.);
#427=ORIENTED_EDGE('',*,*,#73,.F.);
#428=ORIENTED_EDGE('',*,*,#121,.F.);
#429=CARTESIAN_POINT('',(0.0,-4.74534962106171E-016,-7.75));
#430=DIRECTION('',(-0.0,6.12303176911189E-017,1.0));
#431=DIRECTION('',(1.0,0.0,0.0));
#432=CARTESIAN_POINT('',(0.0,2.47982786649031E-016,4.05));
#433=DIRECTION('',(0.0,-6.12303176911189E-017,-1.0));
#434=DIRECTION('',(1.0,0.0,0.0));
#435=SURFACE_STYLE_FILL_AREA(#532);
#436=ORIENTED_EDGE('',*,*,#111,.T.);
#437=ORIENTED_EDGE('',*,*,#79,.F.);
#438=ORIENTED_EDGE('',*,*,#141,.T.);
#439=ORIENTED_EDGE('',*,*,#85,.T.);
#440=CARTESIAN_POINT('',(0.0,1.23991393324516E-016,2.025));
#441=DIRECTION('',(-0.0,6.12303176911189E-017,1.0));
#442=DIRECTION('',(1.0,0.0,0.0));
#443=DIRECTION('',(-0.196116135138184,-8.40577728120578E-017,-0.98058067569092));
#444=CARTESIAN_POINT('',(0.0,2.75536429610035E-016,4.5));
#445=DIRECTION('',(0.0,-6.12303176911189E-017,-1.0));
#446=DIRECTION('',(1.0,0.0,0.0));
#447=CARTESIAN_POINT('',(0.0,2.47982786649031E-016,4.05));
#448=DIRECTION('',(0.0,-6.12303176911189E-017,-1.0));
#449=DIRECTION('',(1.0,0.0,0.0));
#450=CARTESIAN_POINT('',(0.0,-4.28612223837832E-016,-7.0));
#451=DIRECTION('',(0.0,-6.12303176911189E-017,-1.0));
#452=DIRECTION('',(1.0,0.0,0.0));
#453=CARTESIAN_POINT('',(0.0,-4.28612223837832E-016,-7.0));
#454=DIRECTION('',(0.0,-6.12303176911189E-017,-1.0));
#455=DIRECTION('',(1.0,0.0,0.0));
#456=DIRECTION('',(0.707106781186548,1.2988911856079E-016,0.707106781186547));
#457=SURFACE_STYLE_FILL_AREA(#533);
#458=ORIENTED_EDGE('',*,*,#75,.F.);
#459=ORIENTED_EDGE('',*,*,#145,.T.);
#460=ORIENTED_EDGE('',*,*,#77,.F.);
#461=ORIENTED_EDGE('',*,*,#97,.F.);
#462=CARTESIAN_POINT('',(0.0,-2.14306111918916E-016,-3.5));
#463=DIRECTION('',(-0.0,6.12303176911189E-017,1.0));
#464=DIRECTION('',(1.0,0.0,0.0));
#465=SURFACE_STYLE_FILL_AREA(#534);
#466=ORIENTED_EDGE('',*,*,#125,.T.);
#467=ORIENTED_EDGE('',*,*,#85,.F.);
#468=ORIENTED_EDGE('',*,*,#101,.T.);
#469=ORIENTED_EDGE('',*,*,#91,.T.);
#470=CARTESIAN_POINT('',(0.0,2.61759608129533E-016,4.275));
#471=DIRECTION('',(0.0,-6.12303176911189E-017,-1.0));
#472=DIRECTION('',(1.0,0.0,0.0));
#473=CARTESIAN_POINT('',(0.0,2.75536429610035E-016,4.5));
#474=DIRECTION('',(0.0,-6.12303176911189E-017,-1.0));
#475=DIRECTION('',(1.0,0.0,0.0));
#476=DIRECTION('',(0.0,-6.12303176911189E-017,-1.0));
#477=CARTESIAN_POINT('',(0.0,-5.2045770037451E-016,-8.5));
#478=DIRECTION('',(0.0,-6.12303176911189E-017,-1.0));
#479=DIRECTION('',(1.0,0.0,0.0));
#480=SURFACE_STYLE_FILL_AREA(#535);
#481=ORIENTED_EDGE('',*,*,#75,.T.);
#482=ORIENTED_EDGE('',*,*,#99,.F.);
#483=ORIENTED_EDGE('',*,*,#77,.T.);
#484=ORIENTED_EDGE('',*,*,#71,.T.);
#485=CARTESIAN_POINT('',(0.0,-2.14306111918916E-016,-3.5));
#486=DIRECTION('',(-0.0,6.12303176911189E-017,1.0));
#487=DIRECTION('',(1.0,0.0,0.0));
#488=CARTESIAN_POINT('',(0.0,-5.2045770037451E-016,-8.5));
#489=DIRECTION('',(0.0,-6.12303176911189E-017,-1.0));
#490=DIRECTION('',(1.0,0.0,0.0));
#491=SURFACE_STYLE_FILL_AREA(#536);
#492=ORIENTED_EDGE('',*,*,#145,.F.);
#493=ORIENTED_EDGE('',*,*,#71,.F.);
#494=ORIENTED_EDGE('',*,*,#139,.T.);
#495=ORIENTED_EDGE('',*,*,#79,.T.);
#496=CARTESIAN_POINT('',(4.0,0.0,0.0));
#497=DIRECTION('',(0.0,-6.12303176911189E-017,-1.0));
#498=DIRECTION('',(1.0,0.0,0.0));
#499=DIRECTION('',(0.707106781186548,4.32963728535968E-017,-0.707106781186547));
#500=SURFACE_STYLE_FILL_AREA(#537);
#501=ORIENTED_EDGE('',*,*,#109,.F.);
#502=ORIENTED_EDGE('',*,*,#91,.F.);
#503=CARTESIAN_POINT('',(2.275,2.75536429610035E-016,4.5));
#504=DIRECTION('',(0.0,6.12303176911189E-017,1.0));
#505=DIRECTION('',(-1.0,0.0,0.0));
#506=CARTESIAN_POINT('',(0.0,0.0,0.0));
#507=DIRECTION('',(0.0,-6.12303176911189E-017,-1.0));
#508=DIRECTION('',(1.0,0.0,0.0));
#509=DIRECTION('',(-0.0,6.12303176911189E-017,1.0));
#510=CARTESIAN_POINT('',(0.0,0.0,0.0));
#511=DIRECTION('',(0.0,-6.12303176911189E-017,-1.0));
#512=DIRECTION('',(1.0,0.0,0.0));
#513=SURFACE_STYLE_FILL_AREA(#538);
#514=ORIENTED_EDGE('',*,*,#125,.F.);
#515=ORIENTED_EDGE('',*,*,#109,.T.);
#516=ORIENTED_EDGE('',*,*,#101,.F.);
#517=ORIENTED_EDGE('',*,*,#95,.F.);
#518=CARTESIAN_POINT('',(0.0,2.61759608129533E-016,4.275));
#519=DIRECTION('',(0.0,-6.12303176911189E-017,-1.0));
#520=DIRECTION('',(1.0,0.0,0.0));
#521=SURFACE_STYLE_FILL_AREA(#539);
#522=ORIENTED_EDGE('',*,*,#89,.T.);
#523=ORIENTED_EDGE('',*,*,#113,.F.);
#524=ORIENTED_EDGE('',*,*,#73,.T.);
#525=ORIENTED_EDGE('',*,*,#99,.T.);
#526=CARTESIAN_POINT('',(0.0,-4.74534962106171E-016,-7.75));
#527=DIRECTION('',(-0.0,6.12303176911189E-017,1.0));
#528=DIRECTION('',(1.0,0.0,0.0));
#529=FILL_AREA_STYLE('',(#540));
#530=FILL_AREA_STYLE('',(#541));
#531=FILL_AREA_STYLE('',(#542));
#532=FILL_AREA_STYLE('',(#543));
#533=FILL_AREA_STYLE('',(#544));
#534=FILL_AREA_STYLE('',(#545));
#535=FILL_AREA_STYLE('',(#546));
#536=FILL_AREA_STYLE('',(#547));
#537=FILL_AREA_STYLE('',(#548));
#538=FILL_AREA_STYLE('',(#549));
#539=FILL_AREA_STYLE('',(#550));
#540=FILL_AREA_STYLE_COLOUR('',#551);
#541=FILL_AREA_STYLE_COLOUR('',#552);
#542=FILL_AREA_STYLE_COLOUR('',#553);
#543=FILL_AREA_STYLE_COLOUR('',#554);
#544=FILL_AREA_STYLE_COLOUR('',#555);
#545=FILL_AREA_STYLE_COLOUR('',#556);
#546=FILL_AREA_STYLE_COLOUR('',#557);
#547=FILL_AREA_STYLE_COLOUR('',#558);
#548=FILL_AREA_STYLE_COLOUR('',#559);
#549=FILL_AREA_STYLE_COLOUR('',#560);
#550=FILL_AREA_STYLE_COLOUR('',#561);
#551=COLOUR_RGB('',0.509803950786591,0.509803950786591,0.588235318660736);
#552=COLOUR_RGB('',0.509803950786591,0.509803950786591,0.588235318660736);
#553=COLOUR_RGB('',0.509803950786591,0.509803950786591,0.588235318660736);
#554=COLOUR_RGB('',0.509803950786591,0.509803950786591,0.588235318660736);
#555=COLOUR_RGB('',0.509803950786591,0.509803950786591,0.588235318660736);
#556=COLOUR_RGB('',0.509803950786591,0.509803950786591,0.588235318660736);
#557=COLOUR_RGB('',0.509803950786591,0.509803950786591,0.588235318660736);
#558=COLOUR_RGB('',0.509803950786591,0.509803950786591,0.588235318660736);
#559=COLOUR_RGB('',0.509803950786591,0.509803950786591,0.588235318660736);
#560=COLOUR_RGB('',0.509803950786591,0.509803950786591,0.588235318660736);
#561=COLOUR_RGB('',0.509803950786591,0.509803950786591,0.588235318660736);
ENDSEC;
END-ISO-10303-21;
