ISO-10303-21;
HEADER;
FILE_DESCRIPTION(('STEP AP214'),'1');
FILE_NAME(' ','  ',('TraceParts'),('TraceParts S.A.'),'XStep 1.0',' ',' ');
FILE_SCHEMA(('automotive_design'));
ENDSEC;
DATA;
#1=MECHANICAL_DESIGN_GEOMETRIC_PRESENTATION_REPRESENTATION(' ',(#10,#11,#12,#13,#14,#15,#16,#17,#18,#19,#20,#21,#22,#23,#24,#25,#26,#27,#28,#29,#30,#31,#32,#33,#34,#35,#36,#37,#38,#39,#40,#41,#42,#43,#44,#45,#46,#47,#48,#49,#50,#51,#52,#53),#6);
#2=PRODUCT_DEFINITION_CONTEXT('',#54,'design');
#3=APPLICATION_PROTOCOL_DEFINITION('INTERNATIONAL STANDARD','automotive_design',1994,#54);
#4=PRODUCT_CATEGORY_RELATIONSHIP('NONE','NONE',#55,#56);
#5=SHAPE_DEFINITION_REPRESENTATION(#57,#58);
#6= (GEOMETRIC_REPRESENTATION_CONTEXT(3)GLOBAL_UNCERTAINTY_ASSIGNED_CONTEXT((#61))GLOBAL_UNIT_ASSIGNED_CONTEXT((#63,#64,#65))REPRESENTATION_CONTEXT('NONE','WORKSPACE'));
#10=STYLED_ITEM('',(#67),#68);
#11=STYLED_ITEM('',(#69),#70);
#12=STYLED_ITEM('',(#71),#72);
#13=STYLED_ITEM('',(#73),#74);
#14=STYLED_ITEM('',(#75),#76);
#15=STYLED_ITEM('',(#77),#78);
#16=STYLED_ITEM('',(#79),#80);
#17=STYLED_ITEM('',(#81),#82);
#18=STYLED_ITEM('',(#83),#84);
#19=STYLED_ITEM('',(#85),#86);
#20=STYLED_ITEM('',(#87),#88);
#21=STYLED_ITEM('',(#89),#90);
#22=STYLED_ITEM('',(#91),#92);
#23=STYLED_ITEM('',(#93),#94);
#24=STYLED_ITEM('',(#95),#96);
#25=STYLED_ITEM('',(#97),#98);
#26=STYLED_ITEM('',(#99),#100);
#27=STYLED_ITEM('',(#101),#102);
#28=STYLED_ITEM('',(#103),#104);
#29=STYLED_ITEM('',(#105),#106);
#30=STYLED_ITEM('',(#107),#108);
#31=STYLED_ITEM('',(#109),#110);
#32=STYLED_ITEM('',(#111),#112);
#33=STYLED_ITEM('',(#113),#114);
#34=STYLED_ITEM('',(#115),#116);
#35=STYLED_ITEM('',(#117),#118);
#36=STYLED_ITEM('',(#119),#120);
#37=STYLED_ITEM('',(#121),#122);
#38=STYLED_ITEM('',(#123),#124);
#39=STYLED_ITEM('',(#125),#126);
#40=STYLED_ITEM('',(#127),#128);
#41=STYLED_ITEM('',(#129),#130);
#42=STYLED_ITEM('',(#131),#132);
#43=STYLED_ITEM('',(#133),#134);
#44=STYLED_ITEM('',(#135),#136);
#45=STYLED_ITEM('',(#137),#138);
#46=STYLED_ITEM('',(#139),#140);
#47=STYLED_ITEM('',(#141),#142);
#48=STYLED_ITEM('',(#143),#144);
#49=STYLED_ITEM('',(#145),#146);
#50=STYLED_ITEM('',(#147),#148);
#51=STYLED_ITEM('',(#149),#150);
#52=STYLED_ITEM('',(#151),#152);
#53=STYLED_ITEM('',(#153),#154);
#54=APPLICATION_CONTEXT(' ');
#55=PRODUCT_CATEGORY('part','NONE');
#56=PRODUCT_RELATED_PRODUCT_CATEGORY('detail',' ',(#155));
#57=PRODUCT_DEFINITION_SHAPE('NONE','NONE',#156);
#58=ADVANCED_BREP_SHAPE_REPRESENTATION('1',(#74,#157),#6);
#61=UNCERTAINTY_MEASURE_WITH_UNIT(LENGTH_MEASURE(1.0E-006),#63,'','');
#63= (CONVERSION_BASED_UNIT('MILLIMETRE',#160)LENGTH_UNIT()NAMED_UNIT(#163));
#64= (NAMED_UNIT(#165)PLANE_ANGLE_UNIT()SI_UNIT($,.RADIAN.));
#65= (NAMED_UNIT(#165)SOLID_ANGLE_UNIT()SI_UNIT($,.STERADIAN.));
#67=PRESENTATION_STYLE_ASSIGNMENT((#171));
#68=EDGE_CURVE('',#124,#84,#172,.T.);
#69=PRESENTATION_STYLE_ASSIGNMENT((#173));
#70=EDGE_CURVE('',#136,#118,#174,.T.);
#71=PRESENTATION_STYLE_ASSIGNMENT((#175));
#72=EDGE_CURVE('',#118,#136,#176,.T.);
#73=PRESENTATION_STYLE_ASSIGNMENT((#177));
#74=MANIFOLD_SOLID_BREP('1',#178);
#75=PRESENTATION_STYLE_ASSIGNMENT((#179));
#76=ADVANCED_FACE('',(#180),#181,.T.);
#77=PRESENTATION_STYLE_ASSIGNMENT((#182));
#78=ADVANCED_FACE('',(#183),#184,.T.);
#79=PRESENTATION_STYLE_ASSIGNMENT((#185));
#80=EDGE_CURVE('',#138,#146,#186,.T.);
#81=PRESENTATION_STYLE_ASSIGNMENT((#187));
#82=EDGE_CURVE('',#124,#118,#188,.T.);
#83=PRESENTATION_STYLE_ASSIGNMENT((#189));
#84=VERTEX_POINT('',#190);
#85=PRESENTATION_STYLE_ASSIGNMENT((#191));
#86=EDGE_CURVE('',#106,#88,#192,.T.);
#87=PRESENTATION_STYLE_ASSIGNMENT((#193));
#88=VERTEX_POINT('',#194);
#89=PRESENTATION_STYLE_ASSIGNMENT((#195));
#90=EDGE_CURVE('',#106,#116,#196,.T.);
#91=PRESENTATION_STYLE_ASSIGNMENT((#197));
#92=ADVANCED_FACE('',(#198),#199,.T.);
#93=PRESENTATION_STYLE_ASSIGNMENT((#200));
#94=ADVANCED_FACE('',(#201),#202,.T.);
#95=PRESENTATION_STYLE_ASSIGNMENT((#203));
#96=EDGE_CURVE('',#146,#138,#204,.T.);
#97=PRESENTATION_STYLE_ASSIGNMENT((#205));
#98=ADVANCED_FACE('',(#206),#207,.T.);
#99=PRESENTATION_STYLE_ASSIGNMENT((#208));
#100=EDGE_CURVE('',#132,#116,#209,.T.);
#101=PRESENTATION_STYLE_ASSIGNMENT((#210));
#102=EDGE_CURVE('',#88,#132,#211,.T.);
#103=PRESENTATION_STYLE_ASSIGNMENT((#212));
#104=ADVANCED_FACE('',(#213),#214,.T.);
#105=PRESENTATION_STYLE_ASSIGNMENT((#215));
#106=VERTEX_POINT('',#216);
#107=PRESENTATION_STYLE_ASSIGNMENT((#217));
#108=EDGE_CURVE('',#142,#148,#218,.T.);
#109=PRESENTATION_STYLE_ASSIGNMENT((#219));
#110=ADVANCED_FACE('',(#220),#221,.T.);
#111=PRESENTATION_STYLE_ASSIGNMENT((#222));
#112=EDGE_CURVE('',#136,#84,#223,.T.);
#113=PRESENTATION_STYLE_ASSIGNMENT((#224));
#114=EDGE_CURVE('',#118,#138,#225,.T.);
#115=PRESENTATION_STYLE_ASSIGNMENT((#226));
#116=VERTEX_POINT('',#227);
#117=PRESENTATION_STYLE_ASSIGNMENT((#228));
#118=VERTEX_POINT('',#229);
#119=PRESENTATION_STYLE_ASSIGNMENT((#230));
#120=EDGE_CURVE('',#132,#88,#231,.T.);
#121=PRESENTATION_STYLE_ASSIGNMENT((#232));
#122=ADVANCED_FACE('',(#233),#234,.T.);
#123=PRESENTATION_STYLE_ASSIGNMENT((#235));
#124=VERTEX_POINT('',#236);
#125=PRESENTATION_STYLE_ASSIGNMENT((#237));
#126=ADVANCED_FACE('',(#238,#239),#240,.T.);
#127=PRESENTATION_STYLE_ASSIGNMENT((#241));
#128=ADVANCED_FACE('',(#242),#243,.T.);
#129=PRESENTATION_STYLE_ASSIGNMENT((#244));
#130=EDGE_CURVE('',#148,#142,#245,.T.);
#131=PRESENTATION_STYLE_ASSIGNMENT((#246));
#132=VERTEX_POINT('',#247);
#133=PRESENTATION_STYLE_ASSIGNMENT((#248));
#134=EDGE_CURVE('',#88,#142,#249,.T.);
#135=PRESENTATION_STYLE_ASSIGNMENT((#250));
#136=VERTEX_POINT('',#251);
#137=PRESENTATION_STYLE_ASSIGNMENT((#252));
#138=VERTEX_POINT('',#253);
#139=PRESENTATION_STYLE_ASSIGNMENT((#254));
#140=EDGE_CURVE('',#84,#124,#255,.T.);
#141=PRESENTATION_STYLE_ASSIGNMENT((#256));
#142=VERTEX_POINT('',#257);
#143=PRESENTATION_STYLE_ASSIGNMENT((#258));
#144=EDGE_CURVE('',#148,#132,#259,.T.);
#145=PRESENTATION_STYLE_ASSIGNMENT((#260));
#146=VERTEX_POINT('',#261);
#147=PRESENTATION_STYLE_ASSIGNMENT((#262));
#148=VERTEX_POINT('',#263);
#149=PRESENTATION_STYLE_ASSIGNMENT((#264));
#150=EDGE_CURVE('',#116,#106,#265,.T.);
#151=PRESENTATION_STYLE_ASSIGNMENT((#266));
#152=EDGE_CURVE('',#146,#136,#267,.T.);
#153=PRESENTATION_STYLE_ASSIGNMENT((#268));
#154=ADVANCED_FACE('',(#269),#270,.T.);
#155=PRODUCT('1','1','PART-1-DESC',(#271));
#156=PRODUCT_DEFINITION('NONE','NONE',#272,#2);
#157=AXIS2_PLACEMENT_3D('',#273,#274,#275);
#160=LENGTH_MEASURE_WITH_UNIT(LENGTH_MEASURE(1.0),#276);
#163=DIMENSIONAL_EXPONENTS(1.0,0.0,0.0,0.0,0.0,0.0,0.0);
#165=DIMENSIONAL_EXPONENTS(0.0,0.0,0.0,0.0,0.0,0.0,0.0);
#171=CURVE_STYLE('',#277,POSITIVE_LENGTH_MEASURE(1.0E-006),#278);
#172=CIRCLE('',#279,7.58845726811995);
#173=CURVE_STYLE('',#280,POSITIVE_LENGTH_MEASURE(1.0E-006),#281);
#174=CIRCLE('',#282,10.0);
#175=CURVE_STYLE('',#283,POSITIVE_LENGTH_MEASURE(1.0E-006),#284);
#176=CIRCLE('',#285,10.0);
#177=SURFACE_STYLE_USAGE(.BOTH.,#286);
#178=CLOSED_SHELL('',(#110,#104,#78,#98,#92,#94,#76,#126,#154,#122,#128));
#179=SURFACE_STYLE_USAGE(.BOTH.,#287);
#180=FACE_OUTER_BOUND('',#288,.T.);
#181=CYLINDRICAL_SURFACE('',#289,6.0);
#182=SURFACE_STYLE_USAGE(.BOTH.,#290);
#183=FACE_OUTER_BOUND('',#291,.T.);
#184=CYLINDRICAL_SURFACE('',#292,6.0);
#185=CURVE_STYLE('',#293,POSITIVE_LENGTH_MEASURE(1.0E-006),#294);
#186=CIRCLE('',#295,10.0);
#187=CURVE_STYLE('',#296,POSITIVE_LENGTH_MEASURE(1.0E-006),#297);
#188=LINE('',#298,#299);
#189=POINT_STYLE(' ',#300,POSITIVE_LENGTH_MEASURE(1.0E-006),#301);
#190=CARTESIAN_POINT('',(8.37487885239771E-015,-7.58845726811992,25.0));
#191=CURVE_STYLE('',#302,POSITIVE_LENGTH_MEASURE(1.0E-006),#303);
#192=LINE('',#304,#305);
#193=POINT_STYLE(' ',#306,POSITIVE_LENGTH_MEASURE(1.0E-006),#307);
#194=CARTESIAN_POINT('',(-1.68352304185588E-012,6.00000000000003,-15.5));
#195=CURVE_STYLE('',#308,POSITIVE_LENGTH_MEASURE(1.0E-006),#309);
#196=CIRCLE('',#310,6.0);
#197=SURFACE_STYLE_USAGE(.BOTH.,#311);
#198=FACE_OUTER_BOUND('',#312,.T.);
#199=PLANE('',#313);
#200=SURFACE_STYLE_USAGE(.BOTH.,#314);
#201=FACE_OUTER_BOUND('',#315,.T.);
#202=CONICAL_SURFACE('',#316,5.66506350946111,0.261799387799142);
#203=CURVE_STYLE('',#317,POSITIVE_LENGTH_MEASURE(1.0E-006),#318);
#204=CIRCLE('',#319,10.0);
#205=SURFACE_STYLE_USAGE(.BOTH.,#320);
#206=FACE_OUTER_BOUND('',#321,.T.);
#207=CONICAL_SURFACE('',#322,5.66506350946111,0.261799387799142);
#208=CURVE_STYLE('',#323,POSITIVE_LENGTH_MEASURE(1.0E-006),#324);
#209=LINE('',#325,#326);
#210=CURVE_STYLE('',#327,POSITIVE_LENGTH_MEASURE(1.0E-006),#328);
#211=CIRCLE('',#329,6.0);
#212=SURFACE_STYLE_USAGE(.BOTH.,#330);
#213=FACE_OUTER_BOUND('',#331,.T.);
#214=CYLINDRICAL_SURFACE('',#332,10.0);
#215=POINT_STYLE(' ',#333,POSITIVE_LENGTH_MEASURE(1.0E-006),#334);
#216=CARTESIAN_POINT('',(-1.68352304185588E-012,6.00000000000003,-2.8421709430404E-014));
#217=CURVE_STYLE('',#335,POSITIVE_LENGTH_MEASURE(1.0E-006),#336);
#218=CIRCLE('',#337,5.33012701892221);
#219=SURFACE_STYLE_USAGE(.BOTH.,#338);
#220=FACE_OUTER_BOUND('',#339,.T.);
#221=CONICAL_SURFACE('',#340,8.79422863405998,0.261799387799143);
#222=CURVE_STYLE('',#341,POSITIVE_LENGTH_MEASURE(1.0E-006),#342);
#223=LINE('',#343,#344);
#224=CURVE_STYLE('',#345,POSITIVE_LENGTH_MEASURE(1.0E-006),#346);
#225=LINE('',#347,#348);
#226=POINT_STYLE(' ',#349,POSITIVE_LENGTH_MEASURE(1.0E-006),#350);
#227=CARTESIAN_POINT('',(7.13590613961699E-015,-5.99999999999997,-2.8421709430404E-014));
#228=POINT_STYLE(' ',#351,POSITIVE_LENGTH_MEASURE(1.0E-006),#352);
#229=CARTESIAN_POINT('',(-2.81062900718622E-012,10.0,16.0));
#230=CURVE_STYLE('',#353,POSITIVE_LENGTH_MEASURE(1.0E-006),#354);
#231=CIRCLE('',#355,6.0);
#232=SURFACE_STYLE_USAGE(.BOTH.,#356);
#233=FACE_OUTER_BOUND('',#357,.T.);
#234=CONICAL_SURFACE('',#358,8.79422863405998,0.261799387799143);
#235=POINT_STYLE(' ',#359,POSITIVE_LENGTH_MEASURE(1.0E-006),#360);
#236=CARTESIAN_POINT('',(-2.13111295749846E-012,7.58845726811998,25.0));
#237=SURFACE_STYLE_USAGE(.BOTH.,#361);
#238=FACE_OUTER_BOUND('',#362,.T.);
#239=FACE_BOUND('',#363,.T.);
#240=PLANE('',#364);
#241=SURFACE_STYLE_USAGE(.BOTH.,#365);
#242=FACE_OUTER_BOUND('',#366,.T.);
#243=PLANE('',#367);
#244=CURVE_STYLE('',#368,POSITIVE_LENGTH_MEASURE(1.0E-006),#369);
#245=CIRCLE('',#370,5.33012701892221);
#246=POINT_STYLE(' ',#371,POSITIVE_LENGTH_MEASURE(1.0E-006),#372);
#247=CARTESIAN_POINT('',(6.18683621540465E-015,-5.99999999999997,-15.5));
#248=CURVE_STYLE('',#373,POSITIVE_LENGTH_MEASURE(1.0E-006),#374);
#249=LINE('',#375,#376);
#250=POINT_STYLE(' ',#377,POSITIVE_LENGTH_MEASURE(1.0E-006),#378);
#251=CARTESIAN_POINT('',(7.38082741038146E-015,-9.99999999999997,16.0));
#252=POINT_STYLE(' ',#379,POSITIVE_LENGTH_MEASURE(1.0E-006),#380);
#253=CARTESIAN_POINT('',(-2.81062900718622E-012,10.0,-2.8421709430404E-014));
#254=CURVE_STYLE('',#381,POSITIVE_LENGTH_MEASURE(1.0E-006),#382);
#255=CIRCLE('',#383,7.58845726811995);
#256=POINT_STYLE(' ',#384,POSITIVE_LENGTH_MEASURE(1.0E-006),#385);
#257=CARTESIAN_POINT('',(-1.49476858360929E-012,5.33012701892224,-18.0));
#258=CURVE_STYLE('',#386,POSITIVE_LENGTH_MEASURE(1.0E-006),#387);
#259=LINE('',#388,#389);
#260=POINT_STYLE(' ',#390,POSITIVE_LENGTH_MEASURE(1.0E-006),#391);
#261=CARTESIAN_POINT('',(6.40114232732356E-015,-9.99999999999997,-2.8421709430404E-014));
#262=POINT_STYLE(' ',#392,POSITIVE_LENGTH_MEASURE(1.0E-006),#393);
#263=CARTESIAN_POINT('',(6.15681002750912E-015,-5.33012701892218,-18.0));
#264=CURVE_STYLE('',#394,POSITIVE_LENGTH_MEASURE(1.0E-006),#395);
#265=CIRCLE('',#396,6.0);
#266=CURVE_STYLE('',#397,POSITIVE_LENGTH_MEASURE(1.0E-006),#398);
#267=LINE('',#399,#400);
#268=SURFACE_STYLE_USAGE(.BOTH.,#401);
#269=FACE_OUTER_BOUND('',#402,.T.);
#270=CYLINDRICAL_SURFACE('',#403,10.0);
#271=PRODUCT_CONTEXT('',#54,'mechanical');
#272=PRODUCT_DEFINITION_FORMATION_WITH_SPECIFIED_SOURCE(' ','NONE',#155,.NOT_KNOWN.);
#273=CARTESIAN_POINT('',(0.0,0.0,0.0));
#274=DIRECTION('',(0.0,0.0,1.0));
#275=DIRECTION('',(1.0,0.0,0.0));
#276= (NAMED_UNIT(#163)LENGTH_UNIT()SI_UNIT(.MILLI.,.METRE.));
#277=DRAUGHTING_PRE_DEFINED_CURVE_FONT('continuous');
#278=COLOUR_RGB('',0.509803950786591,0.509803950786591,0.588235318660736);
#279=AXIS2_PLACEMENT_3D('',#405,#406,#407);
#280=DRAUGHTING_PRE_DEFINED_CURVE_FONT('continuous');
#281=COLOUR_RGB('',0.509803950786591,0.509803950786591,0.588235318660736);
#282=AXIS2_PLACEMENT_3D('',#408,#409,#410);
#283=DRAUGHTING_PRE_DEFINED_CURVE_FONT('continuous');
#284=COLOUR_RGB('',0.509803950786591,0.509803950786591,0.588235318660736);
#285=AXIS2_PLACEMENT_3D('',#411,#412,#413);
#286=SURFACE_SIDE_STYLE('',(#414));
#287=SURFACE_SIDE_STYLE('',(#415));
#288=EDGE_LOOP('',(#416,#417,#418,#419));
#289=AXIS2_PLACEMENT_3D('',#420,#421,#422);
#290=SURFACE_SIDE_STYLE('',(#423));
#291=EDGE_LOOP('',(#424,#425,#426,#427));
#292=AXIS2_PLACEMENT_3D('',#428,#429,#430);
#293=DRAUGHTING_PRE_DEFINED_CURVE_FONT('continuous');
#294=COLOUR_RGB('',0.509803950786591,0.509803950786591,0.588235318660736);
#295=AXIS2_PLACEMENT_3D('',#431,#432,#433);
#296=DRAUGHTING_PRE_DEFINED_CURVE_FONT('continuous');
#297=COLOUR_RGB('',0.509803950786591,0.509803950786591,0.588235318660736);
#298=CARTESIAN_POINT('',(-2.47087098234234E-012,8.79422863406,20.5));
#299=VECTOR('',#434,1.0);
#300=PRE_DEFINED_MARKER('');
#301=COLOUR_RGB('',0.509803950786591,0.509803950786591,0.588235318660736);
#302=DRAUGHTING_PRE_DEFINED_CURVE_FONT('continuous');
#303=COLOUR_RGB('',0.509803950786591,0.509803950786591,0.588235318660736);
#304=CARTESIAN_POINT('',(-1.68352304185588E-012,6.00000000000003,-7.75000000000003));
#305=VECTOR('',#435,1.0);
#306=PRE_DEFINED_MARKER('');
#307=COLOUR_RGB('',0.509803950786591,0.509803950786591,0.588235318660736);
#308=DRAUGHTING_PRE_DEFINED_CURVE_FONT('continuous');
#309=COLOUR_RGB('',0.509803950786591,0.509803950786591,0.588235318660736);
#310=AXIS2_PLACEMENT_3D('',#436,#437,#438);
#311=SURFACE_SIDE_STYLE('',(#439));
#312=EDGE_LOOP('',(#440,#441));
#313=AXIS2_PLACEMENT_3D('',#442,#443,#444);
#314=SURFACE_SIDE_STYLE('',(#445));
#315=EDGE_LOOP('',(#446,#447,#448,#449));
#316=AXIS2_PLACEMENT_3D('',#450,#451,#452);
#317=DRAUGHTING_PRE_DEFINED_CURVE_FONT('continuous');
#318=COLOUR_RGB('',0.509803950786591,0.509803950786591,0.588235318660736);
#319=AXIS2_PLACEMENT_3D('',#453,#454,#455);
#320=SURFACE_SIDE_STYLE('',(#456));
#321=EDGE_LOOP('',(#457,#458,#459,#460));
#322=AXIS2_PLACEMENT_3D('',#461,#462,#463);
#323=DRAUGHTING_PRE_DEFINED_CURVE_FONT('continuous');
#324=COLOUR_RGB('',0.509803950786591,0.509803950786591,0.588235318660736);
#325=CARTESIAN_POINT('',(1.69779485413512E-012,-5.99999999999997,-7.75000000000003));
#326=VECTOR('',#464,1.0);
#327=DRAUGHTING_PRE_DEFINED_CURVE_FONT('continuous');
#328=COLOUR_RGB('',0.509803950786591,0.509803950786591,0.588235318660736);
#329=AXIS2_PLACEMENT_3D('',#465,#466,#467);
#330=SURFACE_SIDE_STYLE('',(#468));
#331=EDGE_LOOP('',(#469,#470,#471,#472));
#332=AXIS2_PLACEMENT_3D('',#473,#474,#475);
#333=PRE_DEFINED_MARKER('');
#334=COLOUR_RGB('',0.509803950786591,0.509803950786591,0.588235318660736);
#335=DRAUGHTING_PRE_DEFINED_CURVE_FONT('continuous');
#336=COLOUR_RGB('',0.509803950786591,0.509803950786591,0.588235318660736);
#337=AXIS2_PLACEMENT_3D('',#476,#477,#478);
#338=SURFACE_SIDE_STYLE('',(#479));
#339=EDGE_LOOP('',(#480,#481,#482,#483));
#340=AXIS2_PLACEMENT_3D('',#484,#485,#486);
#341=DRAUGHTING_PRE_DEFINED_CURVE_FONT('continuous');
#342=COLOUR_RGB('',0.509803950786591,0.509803950786591,0.588235318660736);
#343=CARTESIAN_POINT('',(2.48514279462157E-012,-8.79422863405995,20.5));
#344=VECTOR('',#487,1.0);
#345=DRAUGHTING_PRE_DEFINED_CURVE_FONT('continuous');
#346=COLOUR_RGB('',0.509803950786591,0.509803950786591,0.588235318660736);
#347=CARTESIAN_POINT('',(-2.81062900718622E-012,10.0,7.99999999999997));
#348=VECTOR('',#488,1.0);
#349=PRE_DEFINED_MARKER('');
#350=COLOUR_RGB('',0.509803950786591,0.509803950786591,0.588235318660736);
#351=PRE_DEFINED_MARKER('');
#352=COLOUR_RGB('',0.509803950786591,0.509803950786591,0.588235318660736);
#353=DRAUGHTING_PRE_DEFINED_CURVE_FONT('continuous');
#354=COLOUR_RGB('',0.509803950786591,0.509803950786591,0.588235318660736);
#355=AXIS2_PLACEMENT_3D('',#489,#490,#491);
#356=SURFACE_SIDE_STYLE('',(#492));
#357=EDGE_LOOP('',(#493,#494,#495,#496));
#358=AXIS2_PLACEMENT_3D('',#497,#498,#499);
#359=PRE_DEFINED_MARKER('');
#360=COLOUR_RGB('',0.509803950786591,0.509803950786591,0.588235318660736);
#361=SURFACE_SIDE_STYLE('',(#500));
#362=EDGE_LOOP('',(#501,#502));
#363=EDGE_LOOP('',(#503,#504));
#364=AXIS2_PLACEMENT_3D('',#505,#506,#507);
#365=SURFACE_SIDE_STYLE('',(#508));
#366=EDGE_LOOP('',(#509,#510));
#367=AXIS2_PLACEMENT_3D('',#511,#512,#513);
#368=DRAUGHTING_PRE_DEFINED_CURVE_FONT('continuous');
#369=COLOUR_RGB('',0.509803950786591,0.509803950786591,0.588235318660736);
#370=AXIS2_PLACEMENT_3D('',#514,#515,#516);
#371=PRE_DEFINED_MARKER('');
#372=COLOUR_RGB('',0.509803950786591,0.509803950786591,0.588235318660736);
#373=DRAUGHTING_PRE_DEFINED_CURVE_FONT('continuous');
#374=COLOUR_RGB('',0.509803950786591,0.509803950786591,0.588235318660736);
#375=CARTESIAN_POINT('',(-1.58914581273258E-012,5.66506350946113,-16.75));
#376=VECTOR('',#517,1.0);
#377=PRE_DEFINED_MARKER('');
#378=COLOUR_RGB('',0.509803950786591,0.509803950786591,0.588235318660736);
#379=PRE_DEFINED_MARKER('');
#380=COLOUR_RGB('',0.509803950786591,0.509803950786591,0.588235318660736);
#381=DRAUGHTING_PRE_DEFINED_CURVE_FONT('continuous');
#382=COLOUR_RGB('',0.509803950786591,0.509803950786591,0.588235318660736);
#383=AXIS2_PLACEMENT_3D('',#518,#519,#520);
#384=PRE_DEFINED_MARKER('');
#385=COLOUR_RGB('',0.509803950786591,0.509803950786591,0.588235318660736);
#386=DRAUGHTING_PRE_DEFINED_CURVE_FONT('continuous');
#387=COLOUR_RGB('',0.509803950786591,0.509803950786591,0.588235318660736);
#388=CARTESIAN_POINT('',(1.60341762501182E-012,-5.66506350946108,-16.75));
#389=VECTOR('',#521,1.0);
#390=PRE_DEFINED_MARKER('');
#391=COLOUR_RGB('',0.509803950786591,0.509803950786591,0.588235318660736);
#392=PRE_DEFINED_MARKER('');
#393=COLOUR_RGB('',0.509803950786591,0.509803950786591,0.588235318660736);
#394=DRAUGHTING_PRE_DEFINED_CURVE_FONT('continuous');
#395=COLOUR_RGB('',0.509803950786591,0.509803950786591,0.588235318660736);
#396=AXIS2_PLACEMENT_3D('',#522,#523,#524);
#397=DRAUGHTING_PRE_DEFINED_CURVE_FONT('continuous');
#398=COLOUR_RGB('',0.509803950786591,0.509803950786591,0.588235318660736);
#399=CARTESIAN_POINT('',(2.82490081946545E-012,-9.99999999999997,7.99999999999997));
#400=VECTOR('',#525,1.0);
#401=SURFACE_SIDE_STYLE('',(#526));
#402=EDGE_LOOP('',(#527,#528,#529,#530));
#403=AXIS2_PLACEMENT_3D('',#531,#532,#533);
#405=CARTESIAN_POINT('',(7.13590613961699E-015,2.8421709430404E-014,25.0));
#406=DIRECTION('',(0.0,0.0,1.0));
#407=DIRECTION('',(2.81898951967966E-013,-1.0,0.0));
#408=CARTESIAN_POINT('',(7.13590613961699E-015,2.8421709430404E-014,16.0));
#409=DIRECTION('',(0.0,0.0,1.0));
#410=DIRECTION('',(2.81898951967966E-013,-1.0,0.0));
#411=CARTESIAN_POINT('',(7.13590613961699E-015,2.8421709430404E-014,16.0));
#412=DIRECTION('',(0.0,0.0,1.0));
#413=DIRECTION('',(2.81898951967966E-013,-1.0,0.0));
#414=SURFACE_STYLE_FILL_AREA(#534);
#415=SURFACE_STYLE_FILL_AREA(#535);
#416=ORIENTED_EDGE('',*,*,#100,.T.);
#417=ORIENTED_EDGE('',*,*,#90,.F.);
#418=ORIENTED_EDGE('',*,*,#86,.T.);
#419=ORIENTED_EDGE('',*,*,#102,.T.);
#420=CARTESIAN_POINT('',(7.13590613961699E-015,2.8421709430404E-014,-7.75000000000003));
#421=DIRECTION('',(-0.0,-0.0,-1.0));
#422=DIRECTION('',(2.81898951967966E-013,-1.0,0.0));
#423=SURFACE_STYLE_FILL_AREA(#536);
#424=ORIENTED_EDGE('',*,*,#100,.F.);
#425=ORIENTED_EDGE('',*,*,#120,.T.);
#426=ORIENTED_EDGE('',*,*,#86,.F.);
#427=ORIENTED_EDGE('',*,*,#150,.F.);
#428=CARTESIAN_POINT('',(7.13590613961699E-015,2.8421709430404E-014,-7.75000000000003));
#429=DIRECTION('',(-0.0,-0.0,-1.0));
#430=DIRECTION('',(2.81898951967966E-013,-1.0,0.0));
#431=CARTESIAN_POINT('',(7.13590613961699E-015,2.8421709430404E-014,-2.8421709430404E-014));
#432=DIRECTION('',(0.0,0.0,1.0));
#433=DIRECTION('',(2.81898951967966E-013,-1.0,0.0));
#434=DIRECTION('',(-7.29291224190363E-014,0.258819045102515,-0.96592582628907));
#435=DIRECTION('',(-0.0,-0.0,-1.0));
#436=CARTESIAN_POINT('',(7.13590613961699E-015,2.8421709430404E-014,-2.8421709430404E-014));
#437=DIRECTION('',(0.0,0.0,1.0));
#438=DIRECTION('',(2.81898951967966E-013,-1.0,0.0));
#439=SURFACE_STYLE_FILL_AREA(#537);
#440=ORIENTED_EDGE('',*,*,#130,.F.);
#441=ORIENTED_EDGE('',*,*,#108,.F.);
#442=CARTESIAN_POINT('',(6.64635808356305E-015,-2.66506350946108,-18.0));
#443=DIRECTION('',(0.0,0.0,-1.0));
#444=DIRECTION('',(1.83690953073357E-016,1.0,0.0));
#445=SURFACE_STYLE_FILL_AREA(#538);
#446=ORIENTED_EDGE('',*,*,#144,.T.);
#447=ORIENTED_EDGE('',*,*,#102,.F.);
#448=ORIENTED_EDGE('',*,*,#134,.T.);
#449=ORIENTED_EDGE('',*,*,#108,.T.);
#450=CARTESIAN_POINT('',(7.13590613961699E-015,2.8421709430404E-014,-16.75));
#451=DIRECTION('',(-0.0,0.0,1.0));
#452=DIRECTION('',(2.81898951967966E-013,-1.0,0.0));
#453=CARTESIAN_POINT('',(7.13590613961699E-015,2.8421709430404E-014,-2.8421709430404E-014));
#454=DIRECTION('',(0.0,0.0,1.0));
#455=DIRECTION('',(2.81898951967966E-013,-1.0,0.0));
#456=SURFACE_STYLE_FILL_AREA(#539);
#457=ORIENTED_EDGE('',*,*,#144,.F.);
#458=ORIENTED_EDGE('',*,*,#130,.T.);
#459=ORIENTED_EDGE('',*,*,#134,.F.);
#460=ORIENTED_EDGE('',*,*,#120,.F.);
#461=CARTESIAN_POINT('',(7.13590613961699E-015,2.8421709430404E-014,-16.75));
#462=DIRECTION('',(-0.0,0.0,1.0));
#463=DIRECTION('',(2.81898951967966E-013,-1.0,0.0));
#464=DIRECTION('',(0.0,0.0,1.0));
#465=CARTESIAN_POINT('',(7.13590613961699E-015,2.8421709430404E-014,-15.5));
#466=DIRECTION('',(0.0,0.0,1.0));
#467=DIRECTION('',(2.81898951967966E-013,-1.0,0.0));
#468=SURFACE_STYLE_FILL_AREA(#540);
#469=ORIENTED_EDGE('',*,*,#152,.F.);
#470=ORIENTED_EDGE('',*,*,#96,.T.);
#471=ORIENTED_EDGE('',*,*,#114,.F.);
#472=ORIENTED_EDGE('',*,*,#70,.F.);
#473=CARTESIAN_POINT('',(7.13590613961699E-015,2.8421709430404E-014,7.99999999999997));
#474=DIRECTION('',(-0.0,-0.0,-1.0));
#475=DIRECTION('',(2.81898951967966E-013,-1.0,0.0));
#476=CARTESIAN_POINT('',(7.13590613961699E-015,2.8421709430404E-014,-18.0));
#477=DIRECTION('',(0.0,0.0,1.0));
#478=DIRECTION('',(2.81898951967966E-013,-1.0,0.0));
#479=SURFACE_STYLE_FILL_AREA(#541);
#480=ORIENTED_EDGE('',*,*,#112,.F.);
#481=ORIENTED_EDGE('',*,*,#70,.T.);
#482=ORIENTED_EDGE('',*,*,#82,.F.);
#483=ORIENTED_EDGE('',*,*,#140,.F.);
#484=CARTESIAN_POINT('',(7.13590613961699E-015,2.8421709430404E-014,20.5));
#485=DIRECTION('',(-0.0,-0.0,-1.0));
#486=DIRECTION('',(2.81898951967966E-013,-1.0,0.0));
#487=DIRECTION('',(-7.29291224190363E-014,0.258819045102515,0.96592582628907));
#488=DIRECTION('',(-0.0,-0.0,-1.0));
#489=CARTESIAN_POINT('',(7.13590613961699E-015,2.8421709430404E-014,-15.5));
#490=DIRECTION('',(0.0,0.0,1.0));
#491=DIRECTION('',(2.81898951967966E-013,-1.0,0.0));
#492=SURFACE_STYLE_FILL_AREA(#542);
#493=ORIENTED_EDGE('',*,*,#112,.T.);
#494=ORIENTED_EDGE('',*,*,#68,.F.);
#495=ORIENTED_EDGE('',*,*,#82,.T.);
#496=ORIENTED_EDGE('',*,*,#72,.T.);
#497=CARTESIAN_POINT('',(7.13590613961699E-015,2.8421709430404E-014,20.5));
#498=DIRECTION('',(-0.0,-0.0,-1.0));
#499=DIRECTION('',(2.81898951967966E-013,-1.0,0.0));
#500=SURFACE_STYLE_FILL_AREA(#543);
#501=ORIENTED_EDGE('',*,*,#96,.F.);
#502=ORIENTED_EDGE('',*,*,#80,.F.);
#503=ORIENTED_EDGE('',*,*,#150,.T.);
#504=ORIENTED_EDGE('',*,*,#90,.T.);
#505=CARTESIAN_POINT('',(6.76852423347028E-015,-7.99999999999997,-2.8421709430404E-014));
#506=DIRECTION('',(0.0,0.0,-1.0));
#507=DIRECTION('',(1.83690953073357E-016,1.0,0.0));
#508=SURFACE_STYLE_FILL_AREA(#544);
#509=ORIENTED_EDGE('',*,*,#140,.T.);
#510=ORIENTED_EDGE('',*,*,#68,.T.);
#511=CARTESIAN_POINT('',(9.0718443263664E-015,-3.79422863405995,25.0));
#512=DIRECTION('',(0.0,0.0,1.0));
#513=DIRECTION('',(-1.83690953073357E-016,-1.0,0.0));
#514=CARTESIAN_POINT('',(7.13590613961699E-015,2.8421709430404E-014,-18.0));
#515=DIRECTION('',(0.0,0.0,1.0));
#516=DIRECTION('',(2.81898951967966E-013,-1.0,0.0));
#517=DIRECTION('',(7.2929122419036E-014,-0.258819045102514,-0.96592582628907));
#518=CARTESIAN_POINT('',(7.13590613961699E-015,2.8421709430404E-014,25.0));
#519=DIRECTION('',(0.0,0.0,1.0));
#520=DIRECTION('',(2.81898951967966E-013,-1.0,0.0));
#521=DIRECTION('',(7.2929122419036E-014,-0.258819045102514,0.96592582628907));
#522=CARTESIAN_POINT('',(7.13590613961699E-015,2.8421709430404E-014,-2.8421709430404E-014));
#523=DIRECTION('',(0.0,0.0,1.0));
#524=DIRECTION('',(2.81898951967966E-013,-1.0,0.0));
#525=DIRECTION('',(0.0,0.0,1.0));
#526=SURFACE_STYLE_FILL_AREA(#545);
#527=ORIENTED_EDGE('',*,*,#152,.T.);
#528=ORIENTED_EDGE('',*,*,#72,.F.);
#529=ORIENTED_EDGE('',*,*,#114,.T.);
#530=ORIENTED_EDGE('',*,*,#80,.T.);
#531=CARTESIAN_POINT('',(7.13590613961699E-015,2.8421709430404E-014,7.99999999999997));
#532=DIRECTION('',(-0.0,-0.0,-1.0));
#533=DIRECTION('',(2.81898951967966E-013,-1.0,0.0));
#534=FILL_AREA_STYLE('',(#546));
#535=FILL_AREA_STYLE('',(#547));
#536=FILL_AREA_STYLE('',(#548));
#537=FILL_AREA_STYLE('',(#549));
#538=FILL_AREA_STYLE('',(#550));
#539=FILL_AREA_STYLE('',(#551));
#540=FILL_AREA_STYLE('',(#552));
#541=FILL_AREA_STYLE('',(#553));
#542=FILL_AREA_STYLE('',(#554));
#543=FILL_AREA_STYLE('',(#555));
#544=FILL_AREA_STYLE('',(#556));
#545=FILL_AREA_STYLE('',(#557));
#546=FILL_AREA_STYLE_COLOUR('',#558);
#547=FILL_AREA_STYLE_COLOUR('',#559);
#548=FILL_AREA_STYLE_COLOUR('',#560);
#549=FILL_AREA_STYLE_COLOUR('',#561);
#550=FILL_AREA_STYLE_COLOUR('',#562);
#551=FILL_AREA_STYLE_COLOUR('',#563);
#552=FILL_AREA_STYLE_COLOUR('',#564);
#553=FILL_AREA_STYLE_COLOUR('',#565);
#554=FILL_AREA_STYLE_COLOUR('',#566);
#555=FILL_AREA_STYLE_COLOUR('',#567);
#556=FILL_AREA_STYLE_COLOUR('',#568);
#557=FILL_AREA_STYLE_COLOUR('',#569);
#558=COLOUR_RGB('',0.509803950786591,0.509803950786591,0.588235318660736);
#559=COLOUR_RGB('',0.509803950786591,0.509803950786591,0.588235318660736);
#560=COLOUR_RGB('',0.509803950786591,0.509803950786591,0.588235318660736);
#561=COLOUR_RGB('',0.509803950786591,0.509803950786591,0.588235318660736);
#562=COLOUR_RGB('',0.509803950786591,0.509803950786591,0.588235318660736);
#563=COLOUR_RGB('',0.509803950786591,0.509803950786591,0.588235318660736);
#564=COLOUR_RGB('',0.509803950786591,0.509803950786591,0.588235318660736);
#565=COLOUR_RGB('',0.509803950786591,0.509803950786591,0.588235318660736);
#566=COLOUR_RGB('',0.509803950786591,0.509803950786591,0.588235318660736);
#567=COLOUR_RGB('',0.509803950786591,0.509803950786591,0.588235318660736);
#568=COLOUR_RGB('',0.509803950786591,0.509803950786591,0.588235318660736);
#569=COLOUR_RGB('',0.509803950786591,0.509803950786591,0.588235318660736);
ENDSEC;
END-ISO-10303-21;
