ISO-10303-21;
HEADER;
FILE_DESCRIPTION(('STEP AP214'),'1');
FILE_NAME(' ','  ',('TraceParts'),('TraceParts S.A.'),'XStep 1.0',' ',' ');
FILE_SCHEMA(('automotive_design'));
ENDSEC;
DATA;
#1=MECHANICAL_DESIGN_GEOMETRIC_PRESENTATION_REPRESENTATION(' ',(#10,#11,#12,#13,#14,#15,#16,#17,#18,#19,#20,#21,#22,#23,#24,#25,#26,#27,#28,#29,#30,#31,#32,#33,#34,#35,#36,#37,#38,#39,#40,#41,#42,#43,#44,#45,#46,#47,#48,#49,#50,#51,#52,#53),#6);
#2=PRODUCT_DEFINITION_CONTEXT('',#54,'design');
#3=APPLICATION_PROTOCOL_DEFINITION('INTERNATIONAL STANDARD','automotive_design',1994,#54);
#4=PRODUCT_CATEGORY_RELATIONSHIP('NONE','NONE',#55,#56);
#5=SHAPE_DEFINITION_REPRESENTATION(#57,#58);
#6= (GEOMETRIC_REPRESENTATION_CONTEXT(3)GLOBAL_UNCERTAINTY_ASSIGNED_CONTEXT((#61))GLOBAL_UNIT_ASSIGNED_CONTEXT((#63,#64,#65))REPRESENTATION_CONTEXT('NONE','WORKSPACE'));
#10=STYLED_ITEM('',(#67),#68);
#11=STYLED_ITEM('',(#69),#70);
#12=STYLED_ITEM('',(#71),#72);
#13=STYLED_ITEM('',(#73),#74);
#14=STYLED_ITEM('',(#75),#76);
#15=STYLED_ITEM('',(#77),#78);
#16=STYLED_ITEM('',(#79),#80);
#17=STYLED_ITEM('',(#81),#82);
#18=STYLED_ITEM('',(#83),#84);
#19=STYLED_ITEM('',(#85),#86);
#20=STYLED_ITEM('',(#87),#88);
#21=STYLED_ITEM('',(#89),#90);
#22=STYLED_ITEM('',(#91),#92);
#23=STYLED_ITEM('',(#93),#94);
#24=STYLED_ITEM('',(#95),#96);
#25=STYLED_ITEM('',(#97),#98);
#26=STYLED_ITEM('',(#99),#100);
#27=STYLED_ITEM('',(#101),#102);
#28=STYLED_ITEM('',(#103),#104);
#29=STYLED_ITEM('',(#105),#106);
#30=STYLED_ITEM('',(#107),#108);
#31=STYLED_ITEM('',(#109),#110);
#32=STYLED_ITEM('',(#111),#112);
#33=STYLED_ITEM('',(#113),#114);
#34=STYLED_ITEM('',(#115),#116);
#35=STYLED_ITEM('',(#117),#118);
#36=STYLED_ITEM('',(#119),#120);
#37=STYLED_ITEM('',(#121),#122);
#38=STYLED_ITEM('',(#123),#124);
#39=STYLED_ITEM('',(#125),#126);
#40=STYLED_ITEM('',(#127),#128);
#41=STYLED_ITEM('',(#129),#130);
#42=STYLED_ITEM('',(#131),#132);
#43=STYLED_ITEM('',(#133),#134);
#44=STYLED_ITEM('',(#135),#136);
#45=STYLED_ITEM('',(#137),#138);
#46=STYLED_ITEM('',(#139),#140);
#47=STYLED_ITEM('',(#141),#142);
#48=STYLED_ITEM('',(#143),#144);
#49=STYLED_ITEM('',(#145),#146);
#50=STYLED_ITEM('',(#147),#148);
#51=STYLED_ITEM('',(#149),#150);
#52=STYLED_ITEM('',(#151),#152);
#53=STYLED_ITEM('',(#153),#154);
#54=APPLICATION_CONTEXT(' ');
#55=PRODUCT_CATEGORY('part','NONE');
#56=PRODUCT_RELATED_PRODUCT_CATEGORY('detail',' ',(#155));
#57=PRODUCT_DEFINITION_SHAPE('NONE','NONE',#156);
#58=ADVANCED_BREP_SHAPE_REPRESENTATION('1',(#100,#157),#6);
#61=UNCERTAINTY_MEASURE_WITH_UNIT(LENGTH_MEASURE(1.0E-006),#63,'','');
#63= (CONVERSION_BASED_UNIT('MILLIMETRE',#160)LENGTH_UNIT()NAMED_UNIT(#163));
#64= (NAMED_UNIT(#165)PLANE_ANGLE_UNIT()SI_UNIT($,.RADIAN.));
#65= (NAMED_UNIT(#165)SOLID_ANGLE_UNIT()SI_UNIT($,.STERADIAN.));
#67=PRESENTATION_STYLE_ASSIGNMENT((#171));
#68=ADVANCED_FACE('',(#172),#173,.T.);
#69=PRESENTATION_STYLE_ASSIGNMENT((#174));
#70=EDGE_CURVE('',#144,#84,#175,.T.);
#71=PRESENTATION_STYLE_ASSIGNMENT((#176));
#72=ADVANCED_FACE('',(#177),#178,.T.);
#73=PRESENTATION_STYLE_ASSIGNMENT((#179));
#74=EDGE_CURVE('',#124,#126,#180,.T.);
#75=PRESENTATION_STYLE_ASSIGNMENT((#181));
#76=ADVANCED_FACE('',(#182),#183,.T.);
#77=PRESENTATION_STYLE_ASSIGNMENT((#184));
#78=ADVANCED_FACE('',(#185),#186,.T.);
#79=PRESENTATION_STYLE_ASSIGNMENT((#187));
#80=ADVANCED_FACE('',(#188),#189,.T.);
#81=PRESENTATION_STYLE_ASSIGNMENT((#190));
#82=VERTEX_POINT('',#191);
#83=PRESENTATION_STYLE_ASSIGNMENT((#192));
#84=VERTEX_POINT('',#193);
#85=PRESENTATION_STYLE_ASSIGNMENT((#194));
#86=EDGE_CURVE('',#126,#124,#195,.T.);
#87=PRESENTATION_STYLE_ASSIGNMENT((#196));
#88=EDGE_CURVE('',#122,#82,#197,.T.);
#89=PRESENTATION_STYLE_ASSIGNMENT((#198));
#90=EDGE_CURVE('',#82,#122,#199,.T.);
#91=PRESENTATION_STYLE_ASSIGNMENT((#200));
#92=EDGE_CURVE('',#138,#94,#201,.T.);
#93=PRESENTATION_STYLE_ASSIGNMENT((#202));
#94=VERTEX_POINT('',#203);
#95=PRESENTATION_STYLE_ASSIGNMENT((#204));
#96=ADVANCED_FACE('',(#205),#206,.T.);
#97=PRESENTATION_STYLE_ASSIGNMENT((#207));
#98=EDGE_CURVE('',#110,#150,#208,.T.);
#99=PRESENTATION_STYLE_ASSIGNMENT((#209));
#100=MANIFOLD_SOLID_BREP('1',#210);
#101=PRESENTATION_STYLE_ASSIGNMENT((#211));
#102=ADVANCED_FACE('',(#212),#213,.T.);
#103=PRESENTATION_STYLE_ASSIGNMENT((#214));
#104=ADVANCED_FACE('',(#215),#216,.T.);
#105=PRESENTATION_STYLE_ASSIGNMENT((#217));
#106=EDGE_CURVE('',#150,#110,#218,.T.);
#107=PRESENTATION_STYLE_ASSIGNMENT((#219));
#108=EDGE_CURVE('',#128,#140,#220,.T.);
#109=PRESENTATION_STYLE_ASSIGNMENT((#221));
#110=VERTEX_POINT('',#222);
#111=PRESENTATION_STYLE_ASSIGNMENT((#223));
#112=EDGE_CURVE('',#84,#144,#224,.T.);
#113=PRESENTATION_STYLE_ASSIGNMENT((#225));
#114=EDGE_CURVE('',#82,#84,#226,.T.);
#115=PRESENTATION_STYLE_ASSIGNMENT((#227));
#116=ADVANCED_FACE('',(#228),#229,.T.);
#117=PRESENTATION_STYLE_ASSIGNMENT((#230));
#118=EDGE_CURVE('',#110,#128,#231,.T.);
#119=PRESENTATION_STYLE_ASSIGNMENT((#232));
#120=EDGE_CURVE('',#140,#128,#233,.T.);
#121=PRESENTATION_STYLE_ASSIGNMENT((#234));
#122=VERTEX_POINT('',#235);
#123=PRESENTATION_STYLE_ASSIGNMENT((#236));
#124=VERTEX_POINT('',#237);
#125=PRESENTATION_STYLE_ASSIGNMENT((#238));
#126=VERTEX_POINT('',#239);
#127=PRESENTATION_STYLE_ASSIGNMENT((#240));
#128=VERTEX_POINT('',#241);
#129=PRESENTATION_STYLE_ASSIGNMENT((#242));
#130=EDGE_CURVE('',#150,#94,#243,.T.);
#131=PRESENTATION_STYLE_ASSIGNMENT((#244));
#132=EDGE_CURVE('',#140,#150,#245,.T.);
#133=PRESENTATION_STYLE_ASSIGNMENT((#246));
#134=ADVANCED_FACE('',(#247,#248),#249,.T.);
#135=PRESENTATION_STYLE_ASSIGNMENT((#250));
#136=EDGE_CURVE('',#124,#82,#251,.T.);
#137=PRESENTATION_STYLE_ASSIGNMENT((#252));
#138=VERTEX_POINT('',#253);
#139=PRESENTATION_STYLE_ASSIGNMENT((#254));
#140=VERTEX_POINT('',#255);
#141=PRESENTATION_STYLE_ASSIGNMENT((#256));
#142=EDGE_CURVE('',#138,#110,#257,.T.);
#143=PRESENTATION_STYLE_ASSIGNMENT((#258));
#144=VERTEX_POINT('',#259);
#145=PRESENTATION_STYLE_ASSIGNMENT((#260));
#146=ADVANCED_FACE('',(#261),#262,.T.);
#147=PRESENTATION_STYLE_ASSIGNMENT((#263));
#148=EDGE_CURVE('',#122,#126,#264,.T.);
#149=PRESENTATION_STYLE_ASSIGNMENT((#265));
#150=VERTEX_POINT('',#266);
#151=PRESENTATION_STYLE_ASSIGNMENT((#267));
#152=EDGE_CURVE('',#94,#138,#268,.T.);
#153=PRESENTATION_STYLE_ASSIGNMENT((#269));
#154=EDGE_CURVE('',#144,#122,#270,.T.);
#155=PRODUCT('1','1','PART-1-DESC',(#271));
#156=PRODUCT_DEFINITION('NONE','NONE',#272,#2);
#157=AXIS2_PLACEMENT_3D('',#273,#274,#275);
#160=LENGTH_MEASURE_WITH_UNIT(LENGTH_MEASURE(1.0),#276);
#163=DIMENSIONAL_EXPONENTS(1.0,0.0,0.0,0.0,0.0,0.0,0.0);
#165=DIMENSIONAL_EXPONENTS(0.0,0.0,0.0,0.0,0.0,0.0,0.0);
#171=SURFACE_STYLE_USAGE(.BOTH.,#277);
#172=FACE_OUTER_BOUND('',#278,.T.);
#173=PLANE('',#279);
#174=CURVE_STYLE('',#280,POSITIVE_LENGTH_MEASURE(1.0E-006),#281);
#175=CIRCLE('',#282,5.856406460551);
#176=SURFACE_STYLE_USAGE(.BOTH.,#283);
#177=FACE_OUTER_BOUND('',#284,.T.);
#178=PLANE('',#285);
#179=CURVE_STYLE('',#286,POSITIVE_LENGTH_MEASURE(1.0E-006),#287);
#180=CIRCLE('',#288,8.0);
#181=SURFACE_STYLE_USAGE(.BOTH.,#289);
#182=FACE_OUTER_BOUND('',#290,.T.);
#183=CYLINDRICAL_SURFACE('',#291,4.0);
#184=SURFACE_STYLE_USAGE(.BOTH.,#292);
#185=FACE_OUTER_BOUND('',#293,.T.);
#186=CONICAL_SURFACE('',#294,6.9282032302755,0.261799387799151);
#187=SURFACE_STYLE_USAGE(.BOTH.,#295);
#188=FACE_OUTER_BOUND('',#296,.T.);
#189=CYLINDRICAL_SURFACE('',#297,4.0);
#190=POINT_STYLE(' ',#298,POSITIVE_LENGTH_MEASURE(1.0E-006),#299);
#191=CARTESIAN_POINT('',(7.25836677499923E-015,-7.99999999999997,13.9999999999999));
#192=POINT_STYLE(' ',#300,POSITIVE_LENGTH_MEASURE(1.0E-006),#301);
#193=CARTESIAN_POINT('',(8.14196805679145E-015,-5.85640646055097,22.0));
#194=CURVE_STYLE('',#302,POSITIVE_LENGTH_MEASURE(1.0E-006),#303);
#195=CIRCLE('',#304,8.0);
#196=CURVE_STYLE('',#305,POSITIVE_LENGTH_MEASURE(1.0E-006),#306);
#197=CIRCLE('',#307,8.0);
#198=CURVE_STYLE('',#308,POSITIVE_LENGTH_MEASURE(1.0E-006),#309);
#199=CIRCLE('',#310,8.0);
#200=CURVE_STYLE('',#311,POSITIVE_LENGTH_MEASURE(1.0E-006),#312);
#201=CIRCLE('',#313,4.0);
#202=POINT_STYLE(' ',#314,POSITIVE_LENGTH_MEASURE(1.0E-006),#315);
#203=CARTESIAN_POINT('',(7.13590613961699E-015,-3.99999999999997,-5.6843418860808E-014));
#204=SURFACE_STYLE_USAGE(.BOTH.,#316);
#205=FACE_OUTER_BOUND('',#317,.T.);
#206=CYLINDRICAL_SURFACE('',#318,8.0);
#207=CURVE_STYLE('',#319,POSITIVE_LENGTH_MEASURE(1.0E-006),#320);
#208=CIRCLE('',#321,4.0);
#209=SURFACE_STYLE_USAGE(.BOTH.,#322);
#210=CLOSED_SHELL('',(#78,#96,#76,#146,#68,#102,#80,#134,#116,#104,#72));
#211=SURFACE_STYLE_USAGE(.BOTH.,#323);
#212=FACE_OUTER_BOUND('',#324,.T.);
#213=CONICAL_SURFACE('',#325,3.7320508075689,0.261799387799132);
#214=SURFACE_STYLE_USAGE(.BOTH.,#326);
#215=FACE_OUTER_BOUND('',#327,.T.);
#216=CONICAL_SURFACE('',#328,6.9282032302755,0.261799387799151);
#217=CURVE_STYLE('',#329,POSITIVE_LENGTH_MEASURE(1.0E-006),#330);
#218=CIRCLE('',#331,4.0);
#219=CURVE_STYLE('',#332,POSITIVE_LENGTH_MEASURE(1.0E-006),#333);
#220=CIRCLE('',#334,3.46410161513779);
#221=POINT_STYLE(' ',#335,POSITIVE_LENGTH_MEASURE(1.0E-006),#336);
#222=CARTESIAN_POINT('',(-1.14766947174528E-012,4.00000000000003,-10.0000000000001));
#223=CURVE_STYLE('',#337,POSITIVE_LENGTH_MEASURE(1.0E-006),#338);
#224=CIRCLE('',#339,5.856406460551);
#225=CURVE_STYLE('',#340,POSITIVE_LENGTH_MEASURE(1.0E-006),#341);
#226=LINE('',#342,#343);
#227=SURFACE_STYLE_USAGE(.BOTH.,#344);
#228=FACE_OUTER_BOUND('',#345,.T.);
#229=CYLINDRICAL_SURFACE('',#346,8.0);
#230=CURVE_STYLE('',#347,POSITIVE_LENGTH_MEASURE(1.0E-006),#348);
#231=LINE('',#349,#350);
#232=CURVE_STYLE('',#351,POSITIVE_LENGTH_MEASURE(1.0E-006),#352);
#233=CIRCLE('',#353,3.46410161513779);
#234=POINT_STYLE(' ',#354,POSITIVE_LENGTH_MEASURE(1.0E-006),#355);
#235=CARTESIAN_POINT('',(-2.30247484963018E-012,8.00000000000003,13.9999999999999));
#236=POINT_STYLE(' ',#356,POSITIVE_LENGTH_MEASURE(1.0E-006),#357);
#237=CARTESIAN_POINT('',(6.40114232732356E-015,-7.99999999999997,-5.6843418860808E-014));
#238=POINT_STYLE(' ',#358,POSITIVE_LENGTH_MEASURE(1.0E-006),#359);
#239=CARTESIAN_POINT('',(-2.30247484963018E-012,8.00000000000003,-5.6843418860808E-014));
#240=POINT_STYLE(' ',#360,POSITIVE_LENGTH_MEASURE(1.0E-006),#361);
#241=CARTESIAN_POINT('',(-9.92954887535604E-013,3.46410161513782,-12.0000000000001));
#242=CURVE_STYLE('',#362,POSITIVE_LENGTH_MEASURE(1.0E-006),#363);
#243=LINE('',#364,#365);
#244=CURVE_STYLE('',#366,POSITIVE_LENGTH_MEASURE(1.0E-006),#367);
#245=LINE('',#368,#369);
#246=SURFACE_STYLE_USAGE(.BOTH.,#370);
#247=FACE_OUTER_BOUND('',#371,.T.);
#248=FACE_BOUND('',#372,.T.);
#249=PLANE('',#373);
#250=CURVE_STYLE('',#374,POSITIVE_LENGTH_MEASURE(1.0E-006),#375);
#251=LINE('',#376,#377);
#252=POINT_STYLE(' ',#378,POSITIVE_LENGTH_MEASURE(1.0E-006),#379);
#253=CARTESIAN_POINT('',(-1.14766947174528E-012,4.00000000000003,-5.6843418860808E-014));
#254=POINT_STYLE(' ',#380,POSITIVE_LENGTH_MEASURE(1.0E-006),#381);
#255=CARTESIAN_POINT('',(6.49958201238937E-015,-3.46410161513776,-12.0000000000001));
#256=CURVE_STYLE('',#382,POSITIVE_LENGTH_MEASURE(1.0E-006),#383);
#257=LINE('',#384,#385);
#258=POINT_STYLE(' ',#386,POSITIVE_LENGTH_MEASURE(1.0E-006),#387);
#259=CARTESIAN_POINT('',(-1.68361651279142E-012,5.85640646055103,22.0));
#260=SURFACE_STYLE_USAGE(.BOTH.,#388);
#261=FACE_OUTER_BOUND('',#389,.T.);
#262=CONICAL_SURFACE('',#390,3.7320508075689,0.261799387799132);
#263=CURVE_STYLE('',#391,POSITIVE_LENGTH_MEASURE(1.0E-006),#392);
#264=LINE('',#393,#394);
#265=POINT_STYLE(' ',#395,POSITIVE_LENGTH_MEASURE(1.0E-006),#396);
#266=CARTESIAN_POINT('',(6.5236029627058E-015,-3.99999999999997,-10.0000000000001));
#267=CURVE_STYLE('',#397,POSITIVE_LENGTH_MEASURE(1.0E-006),#398);
#268=CIRCLE('',#399,4.0);
#269=CURVE_STYLE('',#400,POSITIVE_LENGTH_MEASURE(1.0E-006),#401);
#270=LINE('',#402,#403);
#271=PRODUCT_CONTEXT('',#54,'mechanical');
#272=PRODUCT_DEFINITION_FORMATION_WITH_SPECIFIED_SOURCE(' ','NONE',#155,.NOT_KNOWN.);
#273=CARTESIAN_POINT('',(0.0,0.0,0.0));
#274=DIRECTION('',(0.0,0.0,1.0));
#275=DIRECTION('',(1.0,0.0,0.0));
#276= (NAMED_UNIT(#163)LENGTH_UNIT()SI_UNIT(.MILLI.,.METRE.));
#277=SURFACE_SIDE_STYLE('',(#405));
#278=EDGE_LOOP('',(#406,#407));
#279=AXIS2_PLACEMENT_3D('',#408,#409,#410);
#280=DRAUGHTING_PRE_DEFINED_CURVE_FONT('continuous');
#281=COLOUR_RGB('',0.509803950786591,0.509803950786591,0.588235318660736);
#282=AXIS2_PLACEMENT_3D('',#411,#412,#413);
#283=SURFACE_SIDE_STYLE('',(#414));
#284=EDGE_LOOP('',(#415,#416));
#285=AXIS2_PLACEMENT_3D('',#417,#418,#419);
#286=DRAUGHTING_PRE_DEFINED_CURVE_FONT('continuous');
#287=COLOUR_RGB('',0.509803950786591,0.509803950786591,0.588235318660736);
#288=AXIS2_PLACEMENT_3D('',#420,#421,#422);
#289=SURFACE_SIDE_STYLE('',(#423));
#290=EDGE_LOOP('',(#424,#425,#426,#427));
#291=AXIS2_PLACEMENT_3D('',#428,#429,#430);
#292=SURFACE_SIDE_STYLE('',(#431));
#293=EDGE_LOOP('',(#432,#433,#434,#435));
#294=AXIS2_PLACEMENT_3D('',#436,#437,#438);
#295=SURFACE_SIDE_STYLE('',(#439));
#296=EDGE_LOOP('',(#440,#441,#442,#443));
#297=AXIS2_PLACEMENT_3D('',#444,#445,#446);
#298=PRE_DEFINED_MARKER('');
#299=COLOUR_RGB('',0.509803950786591,0.509803950786591,0.588235318660736);
#300=PRE_DEFINED_MARKER('');
#301=COLOUR_RGB('',0.509803950786591,0.509803950786591,0.588235318660736);
#302=DRAUGHTING_PRE_DEFINED_CURVE_FONT('continuous');
#303=COLOUR_RGB('',0.509803950786591,0.509803950786591,0.588235318660736);
#304=AXIS2_PLACEMENT_3D('',#447,#448,#449);
#305=DRAUGHTING_PRE_DEFINED_CURVE_FONT('continuous');
#306=COLOUR_RGB('',0.509803950786591,0.509803950786591,0.588235318660736);
#307=AXIS2_PLACEMENT_3D('',#450,#451,#452);
#308=DRAUGHTING_PRE_DEFINED_CURVE_FONT('continuous');
#309=COLOUR_RGB('',0.509803950786591,0.509803950786591,0.588235318660736);
#310=AXIS2_PLACEMENT_3D('',#453,#454,#455);
#311=DRAUGHTING_PRE_DEFINED_CURVE_FONT('continuous');
#312=COLOUR_RGB('',0.509803950786591,0.509803950786591,0.588235318660736);
#313=AXIS2_PLACEMENT_3D('',#456,#457,#458);
#314=PRE_DEFINED_MARKER('');
#315=COLOUR_RGB('',0.509803950786591,0.509803950786591,0.588235318660736);
#316=SURFACE_SIDE_STYLE('',(#459));
#317=EDGE_LOOP('',(#460,#461,#462,#463));
#318=AXIS2_PLACEMENT_3D('',#464,#465,#466);
#319=DRAUGHTING_PRE_DEFINED_CURVE_FONT('continuous');
#320=COLOUR_RGB('',0.509803950786591,0.509803950786591,0.588235318660736);
#321=AXIS2_PLACEMENT_3D('',#467,#468,#469);
#322=SURFACE_SIDE_STYLE('',(#470));
#323=SURFACE_SIDE_STYLE('',(#471));
#324=EDGE_LOOP('',(#472,#473,#474,#475));
#325=AXIS2_PLACEMENT_3D('',#476,#477,#478);
#326=SURFACE_SIDE_STYLE('',(#479));
#327=EDGE_LOOP('',(#480,#481,#482,#483));
#328=AXIS2_PLACEMENT_3D('',#484,#485,#486);
#329=DRAUGHTING_PRE_DEFINED_CURVE_FONT('continuous');
#330=COLOUR_RGB('',0.509803950786591,0.509803950786591,0.588235318660736);
#331=AXIS2_PLACEMENT_3D('',#487,#488,#489);
#332=DRAUGHTING_PRE_DEFINED_CURVE_FONT('continuous');
#333=COLOUR_RGB('',0.509803950786591,0.509803950786591,0.588235318660736);
#334=AXIS2_PLACEMENT_3D('',#490,#491,#492);
#335=PRE_DEFINED_MARKER('');
#336=COLOUR_RGB('',0.509803950786591,0.509803950786591,0.588235318660736);
#337=DRAUGHTING_PRE_DEFINED_CURVE_FONT('continuous');
#338=COLOUR_RGB('',0.509803950786591,0.509803950786591,0.588235318660736);
#339=AXIS2_PLACEMENT_3D('',#493,#494,#495);
#340=DRAUGHTING_PRE_DEFINED_CURVE_FONT('continuous');
#341=COLOUR_RGB('',0.509803950786591,0.509803950786591,0.588235318660736);
#342=CARTESIAN_POINT('',(2.00731749349004E-012,-6.92820323027547,18.0));
#343=VECTOR('',#496,1.0);
#344=SURFACE_SIDE_STYLE('',(#497));
#345=EDGE_LOOP('',(#498,#499,#500,#501));
#346=AXIS2_PLACEMENT_3D('',#502,#503,#504);
#347=DRAUGHTING_PRE_DEFINED_CURVE_FONT('continuous');
#348=COLOUR_RGB('',0.509803950786591,0.509803950786591,0.588235318660736);
#349=CARTESIAN_POINT('',(-1.07031217964044E-012,3.73205080756892,-11.0000000000001));
#350=VECTOR('',#505,1.0);
#351=DRAUGHTING_PRE_DEFINED_CURVE_FONT('continuous');
#352=COLOUR_RGB('',0.509803950786591,0.509803950786591,0.588235318660736);
#353=AXIS2_PLACEMENT_3D('',#506,#507,#508);
#354=PRE_DEFINED_MARKER('');
#355=COLOUR_RGB('',0.509803950786591,0.509803950786591,0.588235318660736);
#356=PRE_DEFINED_MARKER('');
#357=COLOUR_RGB('',0.509803950786591,0.509803950786591,0.588235318660736);
#358=PRE_DEFINED_MARKER('');
#359=COLOUR_RGB('',0.509803950786591,0.509803950786591,0.588235318660736);
#360=PRE_DEFINED_MARKER('');
#361=COLOUR_RGB('',0.509803950786591,0.509803950786591,0.588235318660736);
#362=DRAUGHTING_PRE_DEFINED_CURVE_FONT('continuous');
#363=COLOUR_RGB('',0.509803950786591,0.509803950786591,0.588235318660736);
#364=CARTESIAN_POINT('',(1.16194128402452E-012,-3.99999999999997,-5.00000000000006));
#365=VECTOR('',#509,1.0);
#366=DRAUGHTING_PRE_DEFINED_CURVE_FONT('continuous');
#367=COLOUR_RGB('',0.509803950786591,0.509803950786591,0.588235318660736);
#368=CARTESIAN_POINT('',(1.08458399191968E-012,-3.73205080756887,-11.0000000000001));
#369=VECTOR('',#510,1.0);
#370=SURFACE_SIDE_STYLE('',(#511));
#371=EDGE_LOOP('',(#512,#513));
#372=EDGE_LOOP('',(#514,#515));
#373=AXIS2_PLACEMENT_3D('',#516,#517,#518);
#374=DRAUGHTING_PRE_DEFINED_CURVE_FONT('continuous');
#375=COLOUR_RGB('',0.509803950786591,0.509803950786591,0.588235318660736);
#376=CARTESIAN_POINT('',(2.31674666190941E-012,-7.99999999999997,6.99999999999994));
#377=VECTOR('',#519,1.0);
#378=PRE_DEFINED_MARKER('');
#379=COLOUR_RGB('',0.509803950786591,0.509803950786591,0.588235318660736);
#380=PRE_DEFINED_MARKER('');
#381=COLOUR_RGB('',0.509803950786591,0.509803950786591,0.588235318660736);
#382=DRAUGHTING_PRE_DEFINED_CURVE_FONT('continuous');
#383=COLOUR_RGB('',0.509803950786591,0.509803950786591,0.588235318660736);
#384=CARTESIAN_POINT('',(-1.14766947174528E-012,4.00000000000003,-5.00000000000006));
#385=VECTOR('',#520,1.0);
#386=PRE_DEFINED_MARKER('');
#387=COLOUR_RGB('',0.509803950786591,0.509803950786591,0.588235318660736);
#388=SURFACE_SIDE_STYLE('',(#521));
#389=EDGE_LOOP('',(#522,#523,#524,#525));
#390=AXIS2_PLACEMENT_3D('',#526,#527,#528);
#391=DRAUGHTING_PRE_DEFINED_CURVE_FONT('continuous');
#392=COLOUR_RGB('',0.509803950786591,0.509803950786591,0.588235318660736);
#393=CARTESIAN_POINT('',(-2.30247484963018E-012,8.00000000000003,6.99999999999994));
#394=VECTOR('',#529,1.0);
#395=PRE_DEFINED_MARKER('');
#396=COLOUR_RGB('',0.509803950786591,0.509803950786591,0.588235318660736);
#397=DRAUGHTING_PRE_DEFINED_CURVE_FONT('continuous');
#398=COLOUR_RGB('',0.509803950786591,0.509803950786591,0.588235318660736);
#399=AXIS2_PLACEMENT_3D('',#530,#531,#532);
#400=DRAUGHTING_PRE_DEFINED_CURVE_FONT('continuous');
#401=COLOUR_RGB('',0.509803950786591,0.509803950786591,0.588235318660736);
#402=CARTESIAN_POINT('',(-1.9930456812108E-012,6.92820323027553,18.0));
#403=VECTOR('',#533,1.0);
#405=SURFACE_STYLE_FILL_AREA(#534);
#406=ORIENTED_EDGE('',*,*,#120,.F.);
#407=ORIENTED_EDGE('',*,*,#108,.F.);
#408=CARTESIAN_POINT('',(6.81774407600318E-015,-1.73205080756887,-12.0));
#409=DIRECTION('',(0.0,0.0,-1.0));
#410=DIRECTION('',(1.83690953073357E-016,1.0,0.0));
#411=CARTESIAN_POINT('',(7.13590613961699E-015,2.8421709430404E-014,22.0));
#412=DIRECTION('',(0.0,0.0,1.0));
#413=DIRECTION('',(2.88823805106607E-013,-1.0,0.0));
#414=SURFACE_STYLE_FILL_AREA(#535);
#415=ORIENTED_EDGE('',*,*,#112,.T.);
#416=ORIENTED_EDGE('',*,*,#70,.T.);
#417=CARTESIAN_POINT('',(8.67985249895324E-015,-2.92820323027547,22.0));
#418=DIRECTION('',(0.0,0.0,1.0));
#419=DIRECTION('',(-1.83690953073357E-016,-1.0,0.0));
#420=CARTESIAN_POINT('',(7.13590613961699E-015,2.8421709430404E-014,-5.6843418860808E-014));
#421=DIRECTION('',(0.0,0.0,1.0));
#422=DIRECTION('',(2.88823805106607E-013,-1.0,0.0));
#423=SURFACE_STYLE_FILL_AREA(#536);
#424=ORIENTED_EDGE('',*,*,#130,.F.);
#425=ORIENTED_EDGE('',*,*,#106,.T.);
#426=ORIENTED_EDGE('',*,*,#142,.F.);
#427=ORIENTED_EDGE('',*,*,#152,.F.);
#428=CARTESIAN_POINT('',(7.13590613961699E-015,2.8421709430404E-014,-5.00000000000006));
#429=DIRECTION('',(-0.0,-0.0,-1.0));
#430=DIRECTION('',(2.88823805106607E-013,-1.0,0.0));
#431=SURFACE_STYLE_FILL_AREA(#537);
#432=ORIENTED_EDGE('',*,*,#114,.F.);
#433=ORIENTED_EDGE('',*,*,#90,.T.);
#434=ORIENTED_EDGE('',*,*,#154,.F.);
#435=ORIENTED_EDGE('',*,*,#112,.F.);
#436=CARTESIAN_POINT('',(7.13590613961699E-015,2.8421709430404E-014,18.0));
#437=DIRECTION('',(-0.0,-0.0,-1.0));
#438=DIRECTION('',(2.88823805106607E-013,-1.0,0.0));
#439=SURFACE_STYLE_FILL_AREA(#538);
#440=ORIENTED_EDGE('',*,*,#130,.T.);
#441=ORIENTED_EDGE('',*,*,#92,.F.);
#442=ORIENTED_EDGE('',*,*,#142,.T.);
#443=ORIENTED_EDGE('',*,*,#98,.T.);
#444=CARTESIAN_POINT('',(7.13590613961699E-015,2.8421709430404E-014,-5.00000000000006));
#445=DIRECTION('',(-0.0,-0.0,-1.0));
#446=DIRECTION('',(2.88823805106607E-013,-1.0,0.0));
#447=CARTESIAN_POINT('',(7.13590613961699E-015,2.8421709430404E-014,-5.6843418860808E-014));
#448=DIRECTION('',(0.0,0.0,1.0));
#449=DIRECTION('',(2.88823805106607E-013,-1.0,0.0));
#450=CARTESIAN_POINT('',(7.13590613961699E-015,2.8421709430404E-014,13.9999999999999));
#451=DIRECTION('',(0.0,0.0,1.0));
#452=DIRECTION('',(2.88823805106607E-013,-1.0,0.0));
#453=CARTESIAN_POINT('',(7.13590613961699E-015,2.8421709430404E-014,13.9999999999999));
#454=DIRECTION('',(0.0,0.0,1.0));
#455=DIRECTION('',(2.88823805106607E-013,-1.0,0.0));
#456=CARTESIAN_POINT('',(7.13590613961699E-015,2.8421709430404E-014,-5.6843418860808E-014));
#457=DIRECTION('',(0.0,0.0,1.0));
#458=DIRECTION('',(2.88823805106607E-013,-1.0,0.0));
#459=SURFACE_STYLE_FILL_AREA(#539);
#460=ORIENTED_EDGE('',*,*,#136,.F.);
#461=ORIENTED_EDGE('',*,*,#74,.T.);
#462=ORIENTED_EDGE('',*,*,#148,.F.);
#463=ORIENTED_EDGE('',*,*,#90,.F.);
#464=CARTESIAN_POINT('',(7.13590613961699E-015,2.8421709430404E-014,6.99999999999994));
#465=DIRECTION('',(-0.0,-0.0,-1.0));
#466=DIRECTION('',(2.88823805106607E-013,-1.0,0.0));
#467=CARTESIAN_POINT('',(7.13590613961699E-015,2.8421709430404E-014,-10.0000000000001));
#468=DIRECTION('',(0.0,0.0,1.0));
#469=DIRECTION('',(2.88823805106607E-013,-1.0,0.0));
#470=SURFACE_STYLE_FILL_AREA(#540);
#471=SURFACE_STYLE_FILL_AREA(#541);
#472=ORIENTED_EDGE('',*,*,#132,.T.);
#473=ORIENTED_EDGE('',*,*,#98,.F.);
#474=ORIENTED_EDGE('',*,*,#118,.T.);
#475=ORIENTED_EDGE('',*,*,#108,.T.);
#476=CARTESIAN_POINT('',(7.13590613961699E-015,2.8421709430404E-014,-11.0000000000001));
#477=DIRECTION('',(-0.0,0.0,1.0));
#478=DIRECTION('',(2.88823805106607E-013,-1.0,0.0));
#479=SURFACE_STYLE_FILL_AREA(#542);
#480=ORIENTED_EDGE('',*,*,#114,.T.);
#481=ORIENTED_EDGE('',*,*,#70,.F.);
#482=ORIENTED_EDGE('',*,*,#154,.T.);
#483=ORIENTED_EDGE('',*,*,#88,.T.);
#484=CARTESIAN_POINT('',(7.13590613961699E-015,2.8421709430404E-014,18.0));
#485=DIRECTION('',(-0.0,-0.0,-1.0));
#486=DIRECTION('',(2.88823805106607E-013,-1.0,0.0));
#487=CARTESIAN_POINT('',(7.13590613961699E-015,2.8421709430404E-014,-10.0000000000001));
#488=DIRECTION('',(0.0,0.0,1.0));
#489=DIRECTION('',(2.88823805106607E-013,-1.0,0.0));
#490=CARTESIAN_POINT('',(7.13590613961699E-015,2.8421709430404E-014,-12.0000000000001));
#491=DIRECTION('',(0.0,0.0,1.0));
#492=DIRECTION('',(2.88823805106607E-013,-1.0,0.0));
#493=CARTESIAN_POINT('',(7.13590613961699E-015,2.8421709430404E-014,22.0));
#494=DIRECTION('',(0.0,0.0,1.0));
#495=DIRECTION('',(2.88823805106607E-013,-1.0,0.0));
#496=DIRECTION('',(-7.47214062958566E-014,0.258819045102522,0.965925826289068));
#497=SURFACE_STYLE_FILL_AREA(#543);
#498=ORIENTED_EDGE('',*,*,#136,.T.);
#499=ORIENTED_EDGE('',*,*,#88,.F.);
#500=ORIENTED_EDGE('',*,*,#148,.T.);
#501=ORIENTED_EDGE('',*,*,#86,.T.);
#502=CARTESIAN_POINT('',(7.13590613961699E-015,2.8421709430404E-014,6.99999999999994));
#503=DIRECTION('',(-0.0,-0.0,-1.0));
#504=DIRECTION('',(2.88823805106607E-013,-1.0,0.0));
#505=DIRECTION('',(7.47214062958513E-014,-0.258819045102504,-0.965925826289073));
#506=CARTESIAN_POINT('',(7.13590613961699E-015,2.8421709430404E-014,-12.0000000000001));
#507=DIRECTION('',(0.0,0.0,1.0));
#508=DIRECTION('',(2.88823805106607E-013,-1.0,0.0));
#509=DIRECTION('',(0.0,0.0,1.0));
#510=DIRECTION('',(7.47214062958513E-014,-0.258819045102504,0.965925826289073));
#511=SURFACE_STYLE_FILL_AREA(#544);
#512=ORIENTED_EDGE('',*,*,#74,.F.);
#513=ORIENTED_EDGE('',*,*,#86,.F.);
#514=ORIENTED_EDGE('',*,*,#152,.T.);
#515=ORIENTED_EDGE('',*,*,#92,.T.);
#516=CARTESIAN_POINT('',(6.76852423347027E-015,-5.99999999999997,-5.6843418860808E-014));
#517=DIRECTION('',(0.0,0.0,-1.0));
#518=DIRECTION('',(1.83690953073357E-016,1.0,0.0));
#519=DIRECTION('',(0.0,0.0,1.0));
#520=DIRECTION('',(-0.0,-0.0,-1.0));
#521=SURFACE_STYLE_FILL_AREA(#545);
#522=ORIENTED_EDGE('',*,*,#132,.F.);
#523=ORIENTED_EDGE('',*,*,#120,.T.);
#524=ORIENTED_EDGE('',*,*,#118,.F.);
#525=ORIENTED_EDGE('',*,*,#106,.F.);
#526=CARTESIAN_POINT('',(7.13590613961699E-015,2.8421709430404E-014,-11.0000000000001));
#527=DIRECTION('',(-0.0,0.0,1.0));
#528=DIRECTION('',(2.88823805106607E-013,-1.0,0.0));
#529=DIRECTION('',(-0.0,-0.0,-1.0));
#530=CARTESIAN_POINT('',(7.13590613961699E-015,2.8421709430404E-014,-5.6843418860808E-014));
#531=DIRECTION('',(0.0,0.0,1.0));
#532=DIRECTION('',(2.88823805106607E-013,-1.0,0.0));
#533=DIRECTION('',(-7.47214062958566E-014,0.258819045102522,-0.965925826289068));
#534=FILL_AREA_STYLE('',(#546));
#535=FILL_AREA_STYLE('',(#547));
#536=FILL_AREA_STYLE('',(#548));
#537=FILL_AREA_STYLE('',(#549));
#538=FILL_AREA_STYLE('',(#550));
#539=FILL_AREA_STYLE('',(#551));
#540=FILL_AREA_STYLE('',(#552));
#541=FILL_AREA_STYLE('',(#553));
#542=FILL_AREA_STYLE('',(#554));
#543=FILL_AREA_STYLE('',(#555));
#544=FILL_AREA_STYLE('',(#556));
#545=FILL_AREA_STYLE('',(#557));
#546=FILL_AREA_STYLE_COLOUR('',#558);
#547=FILL_AREA_STYLE_COLOUR('',#559);
#548=FILL_AREA_STYLE_COLOUR('',#560);
#549=FILL_AREA_STYLE_COLOUR('',#561);
#550=FILL_AREA_STYLE_COLOUR('',#562);
#551=FILL_AREA_STYLE_COLOUR('',#563);
#552=FILL_AREA_STYLE_COLOUR('',#564);
#553=FILL_AREA_STYLE_COLOUR('',#565);
#554=FILL_AREA_STYLE_COLOUR('',#566);
#555=FILL_AREA_STYLE_COLOUR('',#567);
#556=FILL_AREA_STYLE_COLOUR('',#568);
#557=FILL_AREA_STYLE_COLOUR('',#569);
#558=COLOUR_RGB('',0.509803950786591,0.509803950786591,0.588235318660736);
#559=COLOUR_RGB('',0.509803950786591,0.509803950786591,0.588235318660736);
#560=COLOUR_RGB('',0.509803950786591,0.509803950786591,0.588235318660736);
#561=COLOUR_RGB('',0.509803950786591,0.509803950786591,0.588235318660736);
#562=COLOUR_RGB('',0.509803950786591,0.509803950786591,0.588235318660736);
#563=COLOUR_RGB('',0.509803950786591,0.509803950786591,0.588235318660736);
#564=COLOUR_RGB('',0.509803950786591,0.509803950786591,0.588235318660736);
#565=COLOUR_RGB('',0.509803950786591,0.509803950786591,0.588235318660736);
#566=COLOUR_RGB('',0.509803950786591,0.509803950786591,0.588235318660736);
#567=COLOUR_RGB('',0.509803950786591,0.509803950786591,0.588235318660736);
#568=COLOUR_RGB('',0.509803950786591,0.509803950786591,0.588235318660736);
#569=COLOUR_RGB('',0.509803950786591,0.509803950786591,0.588235318660736);
ENDSEC;
END-ISO-10303-21;
