ISO-10303-21;
HEADER;
FILE_DESCRIPTION(('STEP AP214'),'1');
FILE_NAME(' ','  ',('TraceParts'),('TraceParts S.A.'),'XStep 1.0',' ',' ');
FILE_SCHEMA(('automotive_design'));
ENDSEC;
DATA;
#1=MECHANICAL_DESIGN_GEOMETRIC_PRESENTATION_REPRESENTATION(' ',(#10,#11,#12,#13,#14,#15,#16,#17,#18,#19,#20,#21,#22,#23,#24,#25,#26,#27,#28,#29,#30,#31,#32,#33,#34,#35,#36,#37,#38,#39,#40,#41,#42,#43,#44,#45,#46,#47,#48,#49,#50,#51,#52,#53),#6);
#2=PRODUCT_DEFINITION_CONTEXT('',#54,'design');
#3=APPLICATION_PROTOCOL_DEFINITION('INTERNATIONAL STANDARD','automotive_design',1994,#54);
#4=PRODUCT_CATEGORY_RELATIONSHIP('NONE','NONE',#55,#56);
#5=SHAPE_DEFINITION_REPRESENTATION(#57,#58);
#6= (GEOMETRIC_REPRESENTATION_CONTEXT(3)GLOBAL_UNCERTAINTY_ASSIGNED_CONTEXT((#61))GLOBAL_UNIT_ASSIGNED_CONTEXT((#63,#64,#65))REPRESENTATION_CONTEXT('NONE','WORKSPACE'));
#10=STYLED_ITEM('',(#67),#68);
#11=STYLED_ITEM('',(#69),#70);
#12=STYLED_ITEM('',(#71),#72);
#13=STYLED_ITEM('',(#73),#74);
#14=STYLED_ITEM('',(#75),#76);
#15=STYLED_ITEM('',(#77),#78);
#16=STYLED_ITEM('',(#79),#80);
#17=STYLED_ITEM('',(#81),#82);
#18=STYLED_ITEM('',(#83),#84);
#19=STYLED_ITEM('',(#85),#86);
#20=STYLED_ITEM('',(#87),#88);
#21=STYLED_ITEM('',(#89),#90);
#22=STYLED_ITEM('',(#91),#92);
#23=STYLED_ITEM('',(#93),#94);
#24=STYLED_ITEM('',(#95),#96);
#25=STYLED_ITEM('',(#97),#98);
#26=STYLED_ITEM('',(#99),#100);
#27=STYLED_ITEM('',(#101),#102);
#28=STYLED_ITEM('',(#103),#104);
#29=STYLED_ITEM('',(#105),#106);
#30=STYLED_ITEM('',(#107),#108);
#31=STYLED_ITEM('',(#109),#110);
#32=STYLED_ITEM('',(#111),#112);
#33=STYLED_ITEM('',(#113),#114);
#34=STYLED_ITEM('',(#115),#116);
#35=STYLED_ITEM('',(#117),#118);
#36=STYLED_ITEM('',(#119),#120);
#37=STYLED_ITEM('',(#121),#122);
#38=STYLED_ITEM('',(#123),#124);
#39=STYLED_ITEM('',(#125),#126);
#40=STYLED_ITEM('',(#127),#128);
#41=STYLED_ITEM('',(#129),#130);
#42=STYLED_ITEM('',(#131),#132);
#43=STYLED_ITEM('',(#133),#134);
#44=STYLED_ITEM('',(#135),#136);
#45=STYLED_ITEM('',(#137),#138);
#46=STYLED_ITEM('',(#139),#140);
#47=STYLED_ITEM('',(#141),#142);
#48=STYLED_ITEM('',(#143),#144);
#49=STYLED_ITEM('',(#145),#146);
#50=STYLED_ITEM('',(#147),#148);
#51=STYLED_ITEM('',(#149),#150);
#52=STYLED_ITEM('',(#151),#152);
#53=STYLED_ITEM('',(#153),#154);
#54=APPLICATION_CONTEXT(' ');
#55=PRODUCT_CATEGORY('part','NONE');
#56=PRODUCT_RELATED_PRODUCT_CATEGORY('detail',' ',(#155));
#57=PRODUCT_DEFINITION_SHAPE('NONE','NONE',#156);
#58=ADVANCED_BREP_SHAPE_REPRESENTATION('1',(#80,#157),#6);
#61=UNCERTAINTY_MEASURE_WITH_UNIT(LENGTH_MEASURE(1.0E-006),#63,'','');
#63= (CONVERSION_BASED_UNIT('MILLIMETRE',#160)LENGTH_UNIT()NAMED_UNIT(#163));
#64= (NAMED_UNIT(#165)PLANE_ANGLE_UNIT()SI_UNIT($,.RADIAN.));
#65= (NAMED_UNIT(#165)SOLID_ANGLE_UNIT()SI_UNIT($,.STERADIAN.));
#67=PRESENTATION_STYLE_ASSIGNMENT((#171));
#68=ADVANCED_FACE('',(#172),#173,.T.);
#69=PRESENTATION_STYLE_ASSIGNMENT((#174));
#70=ADVANCED_FACE('',(#175),#176,.T.);
#71=PRESENTATION_STYLE_ASSIGNMENT((#177));
#72=EDGE_CURVE('',#136,#142,#178,.T.);
#73=PRESENTATION_STYLE_ASSIGNMENT((#179));
#74=EDGE_CURVE('',#88,#84,#180,.T.);
#75=PRESENTATION_STYLE_ASSIGNMENT((#181));
#76=EDGE_CURVE('',#124,#150,#182,.T.);
#77=PRESENTATION_STYLE_ASSIGNMENT((#183));
#78=EDGE_CURVE('',#152,#136,#184,.T.);
#79=PRESENTATION_STYLE_ASSIGNMENT((#185));
#80=MANIFOLD_SOLID_BREP('1',#186);
#81=PRESENTATION_STYLE_ASSIGNMENT((#187));
#82=EDGE_CURVE('',#90,#148,#188,.T.);
#83=PRESENTATION_STYLE_ASSIGNMENT((#189));
#84=VERTEX_POINT('',#190);
#85=PRESENTATION_STYLE_ASSIGNMENT((#191));
#86=EDGE_CURVE('',#150,#124,#192,.T.);
#87=PRESENTATION_STYLE_ASSIGNMENT((#193));
#88=VERTEX_POINT('',#194);
#89=PRESENTATION_STYLE_ASSIGNMENT((#195));
#90=VERTEX_POINT('',#196);
#91=PRESENTATION_STYLE_ASSIGNMENT((#197));
#92=EDGE_CURVE('',#142,#136,#198,.T.);
#93=PRESENTATION_STYLE_ASSIGNMENT((#199));
#94=ADVANCED_FACE('',(#200),#201,.T.);
#95=PRESENTATION_STYLE_ASSIGNMENT((#202));
#96=EDGE_CURVE('',#152,#110,#203,.T.);
#97=PRESENTATION_STYLE_ASSIGNMENT((#204));
#98=EDGE_CURVE('',#110,#152,#205,.T.);
#99=PRESENTATION_STYLE_ASSIGNMENT((#206));
#100=EDGE_CURVE('',#132,#138,#207,.T.);
#101=PRESENTATION_STYLE_ASSIGNMENT((#208));
#102=ADVANCED_FACE('',(#209,#210),#211,.T.);
#103=PRESENTATION_STYLE_ASSIGNMENT((#212));
#104=EDGE_CURVE('',#110,#132,#213,.T.);
#105=PRESENTATION_STYLE_ASSIGNMENT((#214));
#106=EDGE_CURVE('',#90,#150,#215,.T.);
#107=PRESENTATION_STYLE_ASSIGNMENT((#216));
#108=ADVANCED_FACE('',(#217),#218,.T.);
#109=PRESENTATION_STYLE_ASSIGNMENT((#219));
#110=VERTEX_POINT('',#220);
#111=PRESENTATION_STYLE_ASSIGNMENT((#221));
#112=EDGE_CURVE('',#138,#132,#222,.T.);
#113=PRESENTATION_STYLE_ASSIGNMENT((#223));
#114=ADVANCED_FACE('',(#224),#225,.T.);
#115=PRESENTATION_STYLE_ASSIGNMENT((#226));
#116=EDGE_CURVE('',#148,#84,#227,.T.);
#117=PRESENTATION_STYLE_ASSIGNMENT((#228));
#118=ADVANCED_FACE('',(#229),#230,.T.);
#119=PRESENTATION_STYLE_ASSIGNMENT((#231));
#120=EDGE_CURVE('',#88,#90,#232,.T.);
#121=PRESENTATION_STYLE_ASSIGNMENT((#233));
#122=EDGE_CURVE('',#124,#148,#234,.T.);
#123=PRESENTATION_STYLE_ASSIGNMENT((#235));
#124=VERTEX_POINT('',#236);
#125=PRESENTATION_STYLE_ASSIGNMENT((#237));
#126=EDGE_CURVE('',#142,#110,#238,.T.);
#127=PRESENTATION_STYLE_ASSIGNMENT((#239));
#128=EDGE_CURVE('',#84,#88,#240,.T.);
#129=PRESENTATION_STYLE_ASSIGNMENT((#241));
#130=EDGE_CURVE('',#138,#152,#242,.T.);
#131=PRESENTATION_STYLE_ASSIGNMENT((#243));
#132=VERTEX_POINT('',#244);
#133=PRESENTATION_STYLE_ASSIGNMENT((#245));
#134=ADVANCED_FACE('',(#246),#247,.T.);
#135=PRESENTATION_STYLE_ASSIGNMENT((#248));
#136=VERTEX_POINT('',#249);
#137=PRESENTATION_STYLE_ASSIGNMENT((#250));
#138=VERTEX_POINT('',#251);
#139=PRESENTATION_STYLE_ASSIGNMENT((#252));
#140=EDGE_CURVE('',#148,#90,#253,.T.);
#141=PRESENTATION_STYLE_ASSIGNMENT((#254));
#142=VERTEX_POINT('',#255);
#143=PRESENTATION_STYLE_ASSIGNMENT((#256));
#144=ADVANCED_FACE('',(#257),#258,.T.);
#145=PRESENTATION_STYLE_ASSIGNMENT((#259));
#146=ADVANCED_FACE('',(#260),#261,.T.);
#147=PRESENTATION_STYLE_ASSIGNMENT((#262));
#148=VERTEX_POINT('',#263);
#149=PRESENTATION_STYLE_ASSIGNMENT((#264));
#150=VERTEX_POINT('',#265);
#151=PRESENTATION_STYLE_ASSIGNMENT((#266));
#152=VERTEX_POINT('',#267);
#153=PRESENTATION_STYLE_ASSIGNMENT((#268));
#154=ADVANCED_FACE('',(#269),#270,.T.);
#155=PRODUCT('1','1','PART-1-DESC',(#271));
#156=PRODUCT_DEFINITION('NONE','NONE',#272,#2);
#157=AXIS2_PLACEMENT_3D('',#273,#274,#275);
#160=LENGTH_MEASURE_WITH_UNIT(LENGTH_MEASURE(1.0),#276);
#163=DIMENSIONAL_EXPONENTS(1.0,0.0,0.0,0.0,0.0,0.0,0.0);
#165=DIMENSIONAL_EXPONENTS(0.0,0.0,0.0,0.0,0.0,0.0,0.0);
#171=SURFACE_STYLE_USAGE(.BOTH.,#277);
#172=FACE_OUTER_BOUND('',#278,.T.);
#173=CYLINDRICAL_SURFACE('',#279,3.0);
#174=SURFACE_STYLE_USAGE(.BOTH.,#280);
#175=FACE_OUTER_BOUND('',#281,.T.);
#176=CONICAL_SURFACE('',#282,5.19615242270663,0.261799387799149);
#177=CURVE_STYLE('',#283,POSITIVE_LENGTH_MEASURE(1.0E-006),#284);
#178=CIRCLE('',#285,3.0);
#179=CURVE_STYLE('',#286,POSITIVE_LENGTH_MEASURE(1.0E-006),#287);
#180=CIRCLE('',#288,4.39230484541326);
#181=CURVE_STYLE('',#289,POSITIVE_LENGTH_MEASURE(1.0E-006),#290);
#182=CIRCLE('',#291,6.0);
#183=CURVE_STYLE('',#292,POSITIVE_LENGTH_MEASURE(1.0E-006),#293);
#184=LINE('',#294,#295);
#185=SURFACE_STYLE_USAGE(.BOTH.,#296);
#186=CLOSED_SHELL('',(#118,#144,#68,#146,#114,#94,#108,#102,#154,#70,#134));
#187=CURVE_STYLE('',#297,POSITIVE_LENGTH_MEASURE(1.0E-006),#298);
#188=CIRCLE('',#299,6.0);
#189=POINT_STYLE(' ',#300,POSITIVE_LENGTH_MEASURE(1.0E-006),#301);
#190=CARTESIAN_POINT('',(7.49245551250556E-015,-4.39230484541324,9.99999999999997));
#191=CURVE_STYLE('',#302,POSITIVE_LENGTH_MEASURE(1.0E-006),#303);
#192=CIRCLE('',#304,6.0);
#193=POINT_STYLE(' ',#305,POSITIVE_LENGTH_MEASURE(1.0E-006),#306);
#194=CARTESIAN_POINT('',(-9.37353558471449E-013,4.39230484541329,9.99999999999997));
#195=POINT_STYLE(' ',#307,POSITIVE_LENGTH_MEASURE(1.0E-006),#308);
#196=CARTESIAN_POINT('',(-1.28306069612586E-012,6.00000000000003,3.99999999999997));
#197=CURVE_STYLE('',#309,POSITIVE_LENGTH_MEASURE(1.0E-006),#310);
#198=CIRCLE('',#311,3.0);
#199=SURFACE_STYLE_USAGE(.BOTH.,#312);
#200=FACE_OUTER_BOUND('',#313,.T.);
#201=CONICAL_SURFACE('',#314,2.78564064605511,0.26179938779914);
#202=CURVE_STYLE('',#315,POSITIVE_LENGTH_MEASURE(1.0E-006),#316);
#203=CIRCLE('',#317,3.0);
#204=CURVE_STYLE('',#318,POSITIVE_LENGTH_MEASURE(1.0E-006),#319);
#205=CIRCLE('',#320,3.0);
#206=CURVE_STYLE('',#321,POSITIVE_LENGTH_MEASURE(1.0E-006),#322);
#207=CIRCLE('',#323,2.57128129211023);
#208=SURFACE_STYLE_USAGE(.BOTH.,#324);
#209=FACE_OUTER_BOUND('',#325,.T.);
#210=FACE_BOUND('',#326,.T.);
#211=PLANE('',#327);
#212=CURVE_STYLE('',#328,POSITIVE_LENGTH_MEASURE(1.0E-006),#329);
#213=LINE('',#330,#331);
#214=CURVE_STYLE('',#332,POSITIVE_LENGTH_MEASURE(1.0E-006),#333);
#215=LINE('',#334,#335);
#216=SURFACE_STYLE_USAGE(.BOTH.,#336);
#217=FACE_OUTER_BOUND('',#337,.T.);
#218=CYLINDRICAL_SURFACE('',#338,3.0);
#219=POINT_STYLE(' ',#339,POSITIVE_LENGTH_MEASURE(1.0E-006),#340);
#220=CARTESIAN_POINT('',(-6.37962394993123E-013,3.00000000000003,-7.40000000000006));
#221=CURVE_STYLE('',#341,POSITIVE_LENGTH_MEASURE(1.0E-006),#342);
#222=CIRCLE('',#343,2.57128129211023);
#223=SURFACE_STYLE_USAGE(.BOTH.,#344);
#224=FACE_OUTER_BOUND('',#345,.T.);
#225=PLANE('',#346);
#226=CURVE_STYLE('',#347,POSITIVE_LENGTH_MEASURE(1.0E-006),#348);
#227=LINE('',#349,#350);
#228=SURFACE_STYLE_USAGE(.BOTH.,#351);
#229=FACE_OUTER_BOUND('',#352,.T.);
#230=CONICAL_SURFACE('',#353,5.19615242270663,0.261799387799149);
#231=CURVE_STYLE('',#354,POSITIVE_LENGTH_MEASURE(1.0E-006),#355);
#232=LINE('',#356,#357);
#233=CURVE_STYLE('',#358,POSITIVE_LENGTH_MEASURE(1.0E-006),#359);
#234=LINE('',#360,#361);
#235=POINT_STYLE(' ',#362,POSITIVE_LENGTH_MEASURE(1.0E-006),#363);
#236=CARTESIAN_POINT('',(6.58483328039692E-015,-5.99999999999997,-2.8421709430404E-014));
#237=CURVE_STYLE('',#364,POSITIVE_LENGTH_MEASURE(1.0E-006),#365);
#238=LINE('',#366,#367);
#239=CURVE_STYLE('',#368,POSITIVE_LENGTH_MEASURE(1.0E-006),#369);
#240=CIRCLE('',#370,4.39230484541326);
#241=CURVE_STYLE('',#371,POSITIVE_LENGTH_MEASURE(1.0E-006),#372);
#242=LINE('',#373,#374);
#243=POINT_STYLE(' ',#375,POSITIVE_LENGTH_MEASURE(1.0E-006),#376);
#244=CARTESIAN_POINT('',(-5.45773824951951E-013,2.57128129211026,-9.00000000000003));
#245=SURFACE_STYLE_USAGE(.BOTH.,#377);
#246=FACE_OUTER_BOUND('',#378,.T.);
#247=PLANE('',#379);
#248=POINT_STYLE(' ',#380,POSITIVE_LENGTH_MEASURE(1.0E-006),#381);
#249=CARTESIAN_POINT('',(7.13590613961699E-015,-2.99999999999997,-2.8421709430404E-014));
#250=POINT_STYLE(' ',#382,POSITIVE_LENGTH_MEASURE(1.0E-006),#383);
#251=CARTESIAN_POINT('',(6.66358502844957E-015,-2.5712812921102,-9.00000000000003));
#252=CURVE_STYLE('',#384,POSITIVE_LENGTH_MEASURE(1.0E-006),#385);
#253=CIRCLE('',#386,6.0);
#254=POINT_STYLE(' ',#387,POSITIVE_LENGTH_MEASURE(1.0E-006),#388);
#255=CARTESIAN_POINT('',(-6.37962394993123E-013,3.00000000000003,-2.8421709430404E-014));
#256=SURFACE_STYLE_USAGE(.BOTH.,#389);
#257=FACE_OUTER_BOUND('',#390,.T.);
#258=CYLINDRICAL_SURFACE('',#391,6.0);
#259=SURFACE_STYLE_USAGE(.BOTH.,#392);
#260=FACE_OUTER_BOUND('',#393,.T.);
#261=CONICAL_SURFACE('',#394,2.78564064605511,0.26179938779914);
#262=POINT_STYLE(' ',#395,POSITIVE_LENGTH_MEASURE(1.0E-006),#396);
#263=CARTESIAN_POINT('',(6.8297545511614E-015,-5.99999999999997,3.99999999999997));
#264=POINT_STYLE(' ',#397,POSITIVE_LENGTH_MEASURE(1.0E-006),#398);
#265=CARTESIAN_POINT('',(-1.28306069612586E-012,6.00000000000003,-2.8421709430404E-014));
#266=POINT_STYLE(' ',#399,POSITIVE_LENGTH_MEASURE(1.0E-006),#400);
#267=CARTESIAN_POINT('',(6.68280178870271E-015,-2.99999999999997,-7.40000000000006));
#268=SURFACE_STYLE_USAGE(.BOTH.,#401);
#269=FACE_OUTER_BOUND('',#402,.T.);
#270=CYLINDRICAL_SURFACE('',#403,6.0);
#271=PRODUCT_CONTEXT('',#54,'mechanical');
#272=PRODUCT_DEFINITION_FORMATION_WITH_SPECIFIED_SOURCE(' ','NONE',#155,.NOT_KNOWN.);
#273=CARTESIAN_POINT('',(0.0,0.0,0.0));
#274=DIRECTION('',(0.0,0.0,1.0));
#275=DIRECTION('',(1.0,0.0,0.0));
#276= (NAMED_UNIT(#163)LENGTH_UNIT()SI_UNIT(.MILLI.,.METRE.));
#277=SURFACE_SIDE_STYLE('',(#405));
#278=EDGE_LOOP('',(#406,#407,#408,#409));
#279=AXIS2_PLACEMENT_3D('',#410,#411,#412);
#280=SURFACE_SIDE_STYLE('',(#413));
#281=EDGE_LOOP('',(#414,#415,#416,#417));
#282=AXIS2_PLACEMENT_3D('',#418,#419,#420);
#283=DRAUGHTING_PRE_DEFINED_CURVE_FONT('continuous');
#284=COLOUR_RGB('',0.509803950786591,0.509803950786591,0.588235318660736);
#285=AXIS2_PLACEMENT_3D('',#421,#422,#423);
#286=DRAUGHTING_PRE_DEFINED_CURVE_FONT('continuous');
#287=COLOUR_RGB('',0.509803950786591,0.509803950786591,0.588235318660736);
#288=AXIS2_PLACEMENT_3D('',#424,#425,#426);
#289=DRAUGHTING_PRE_DEFINED_CURVE_FONT('continuous');
#290=COLOUR_RGB('',0.509803950786591,0.509803950786591,0.588235318660736);
#291=AXIS2_PLACEMENT_3D('',#427,#428,#429);
#292=DRAUGHTING_PRE_DEFINED_CURVE_FONT('continuous');
#293=COLOUR_RGB('',0.509803950786591,0.509803950786591,0.588235318660736);
#294=CARTESIAN_POINT('',(6.52234207272357E-013,-2.99999999999997,-3.70000000000005));
#295=VECTOR('',#430,1.0);
#296=SURFACE_SIDE_STYLE('',(#431));
#297=DRAUGHTING_PRE_DEFINED_CURVE_FONT('continuous');
#298=COLOUR_RGB('',0.509803950786591,0.509803950786591,0.588235318660736);
#299=AXIS2_PLACEMENT_3D('',#432,#433,#434);
#300=PRE_DEFINED_MARKER('');
#301=COLOUR_RGB('',0.509803950786591,0.509803950786591,0.588235318660736);
#302=DRAUGHTING_PRE_DEFINED_CURVE_FONT('continuous');
#303=COLOUR_RGB('',0.509803950786591,0.509803950786591,0.588235318660736);
#304=AXIS2_PLACEMENT_3D('',#435,#436,#437);
#305=PRE_DEFINED_MARKER('');
#306=COLOUR_RGB('',0.509803950786591,0.509803950786591,0.588235318660736);
#307=PRE_DEFINED_MARKER('');
#308=COLOUR_RGB('',0.509803950786591,0.509803950786591,0.588235318660736);
#309=DRAUGHTING_PRE_DEFINED_CURVE_FONT('continuous');
#310=COLOUR_RGB('',0.509803950786591,0.509803950786591,0.588235318660736);
#311=AXIS2_PLACEMENT_3D('',#438,#439,#440);
#312=SURFACE_SIDE_STYLE('',(#441));
#313=EDGE_LOOP('',(#442,#443,#444,#445));
#314=AXIS2_PLACEMENT_3D('',#446,#447,#448);
#315=DRAUGHTING_PRE_DEFINED_CURVE_FONT('continuous');
#316=COLOUR_RGB('',0.509803950786591,0.509803950786591,0.588235318660736);
#317=AXIS2_PLACEMENT_3D('',#449,#450,#451);
#318=DRAUGHTING_PRE_DEFINED_CURVE_FONT('continuous');
#319=COLOUR_RGB('',0.509803950786591,0.509803950786591,0.588235318660736);
#320=AXIS2_PLACEMENT_3D('',#452,#453,#454);
#321=DRAUGHTING_PRE_DEFINED_CURVE_FONT('continuous');
#322=COLOUR_RGB('',0.509803950786591,0.509803950786591,0.588235318660736);
#323=AXIS2_PLACEMENT_3D('',#455,#456,#457);
#324=SURFACE_SIDE_STYLE('',(#458));
#325=EDGE_LOOP('',(#459,#460));
#326=EDGE_LOOP('',(#461,#462));
#327=AXIS2_PLACEMENT_3D('',#463,#464,#465);
#328=DRAUGHTING_PRE_DEFINED_CURVE_FONT('continuous');
#329=COLOUR_RGB('',0.509803950786591,0.509803950786591,0.588235318660736);
#330=CARTESIAN_POINT('',(-5.91868109972537E-013,2.78564064605514,-8.20000000000005));
#331=VECTOR('',#466,1.0);
#332=DRAUGHTING_PRE_DEFINED_CURVE_FONT('continuous');
#333=COLOUR_RGB('',0.509803950786591,0.509803950786591,0.588235318660736);
#334=CARTESIAN_POINT('',(-1.28306069612586E-012,6.00000000000003,1.99999999999997));
#335=VECTOR('',#467,1.0);
#336=SURFACE_SIDE_STYLE('',(#468));
#337=EDGE_LOOP('',(#469,#470,#471,#472));
#338=AXIS2_PLACEMENT_3D('',#473,#474,#475);
#339=PRE_DEFINED_MARKER('');
#340=COLOUR_RGB('',0.509803950786591,0.509803950786591,0.588235318660736);
#341=DRAUGHTING_PRE_DEFINED_CURVE_FONT('continuous');
#342=COLOUR_RGB('',0.509803950786591,0.509803950786591,0.588235318660736);
#343=AXIS2_PLACEMENT_3D('',#476,#477,#478);
#344=SURFACE_SIDE_STYLE('',(#479));
#345=EDGE_LOOP('',(#480,#481));
#346=AXIS2_PLACEMENT_3D('',#482,#483,#484);
#347=DRAUGHTING_PRE_DEFINED_CURVE_FONT('continuous');
#348=COLOUR_RGB('',0.509803950786591,0.509803950786591,0.588235318660736);
#349=CARTESIAN_POINT('',(1.12447893957789E-012,-5.1961524227066,6.99999999999997));
#350=VECTOR('',#485,1.0);
#351=SURFACE_SIDE_STYLE('',(#486));
#352=EDGE_LOOP('',(#487,#488,#489,#490));
#353=AXIS2_PLACEMENT_3D('',#491,#492,#493);
#354=DRAUGHTING_PRE_DEFINED_CURVE_FONT('continuous');
#355=COLOUR_RGB('',0.509803950786591,0.509803950786591,0.588235318660736);
#356=CARTESIAN_POINT('',(-1.11020712729866E-012,5.19615242270666,6.99999999999997));
#357=VECTOR('',#494,1.0);
#358=DRAUGHTING_PRE_DEFINED_CURVE_FONT('continuous');
#359=COLOUR_RGB('',0.509803950786591,0.509803950786591,0.588235318660736);
#360=CARTESIAN_POINT('',(1.2973325084051E-012,-5.99999999999997,1.99999999999997));
#361=VECTOR('',#495,1.0);
#362=PRE_DEFINED_MARKER('');
#363=COLOUR_RGB('',0.509803950786591,0.509803950786591,0.588235318660736);
#364=DRAUGHTING_PRE_DEFINED_CURVE_FONT('continuous');
#365=COLOUR_RGB('',0.509803950786591,0.509803950786591,0.588235318660736);
#366=CARTESIAN_POINT('',(-6.37962394993123E-013,3.00000000000003,-3.70000000000005));
#367=VECTOR('',#496,1.0);
#368=DRAUGHTING_PRE_DEFINED_CURVE_FONT('continuous');
#369=COLOUR_RGB('',0.509803950786591,0.509803950786591,0.588235318660736);
#370=AXIS2_PLACEMENT_3D('',#497,#498,#499);
#371=DRAUGHTING_PRE_DEFINED_CURVE_FONT('continuous');
#372=COLOUR_RGB('',0.509803950786591,0.509803950786591,0.588235318660736);
#373=CARTESIAN_POINT('',(6.06139922251771E-013,-2.78564064605509,-8.20000000000005));
#374=VECTOR('',#500,1.0);
#375=PRE_DEFINED_MARKER('');
#376=COLOUR_RGB('',0.509803950786591,0.509803950786591,0.588235318660736);
#377=SURFACE_SIDE_STYLE('',(#501));
#378=EDGE_LOOP('',(#502,#503));
#379=AXIS2_PLACEMENT_3D('',#504,#505,#506);
#380=PRE_DEFINED_MARKER('');
#381=COLOUR_RGB('',0.509803950786591,0.509803950786591,0.588235318660736);
#382=PRE_DEFINED_MARKER('');
#383=COLOUR_RGB('',0.509803950786591,0.509803950786591,0.588235318660736);
#384=DRAUGHTING_PRE_DEFINED_CURVE_FONT('continuous');
#385=COLOUR_RGB('',0.509803950786591,0.509803950786591,0.588235318660736);
#386=AXIS2_PLACEMENT_3D('',#507,#508,#509);
#387=PRE_DEFINED_MARKER('');
#388=COLOUR_RGB('',0.509803950786591,0.509803950786591,0.588235318660736);
#389=SURFACE_SIDE_STYLE('',(#510));
#390=EDGE_LOOP('',(#511,#512,#513,#514));
#391=AXIS2_PLACEMENT_3D('',#515,#516,#517);
#392=SURFACE_SIDE_STYLE('',(#518));
#393=EDGE_LOOP('',(#519,#520,#521,#522));
#394=AXIS2_PLACEMENT_3D('',#523,#524,#525);
#395=PRE_DEFINED_MARKER('');
#396=COLOUR_RGB('',0.509803950786591,0.509803950786591,0.588235318660736);
#397=PRE_DEFINED_MARKER('');
#398=COLOUR_RGB('',0.509803950786591,0.509803950786591,0.588235318660736);
#399=PRE_DEFINED_MARKER('');
#400=COLOUR_RGB('',0.509803950786591,0.509803950786591,0.588235318660736);
#401=SURFACE_SIDE_STYLE('',(#526));
#402=EDGE_LOOP('',(#527,#528,#529,#530));
#403=AXIS2_PLACEMENT_3D('',#531,#532,#533);
#405=SURFACE_STYLE_FILL_AREA(#534);
#406=ORIENTED_EDGE('',*,*,#78,.F.);
#407=ORIENTED_EDGE('',*,*,#96,.T.);
#408=ORIENTED_EDGE('',*,*,#126,.F.);
#409=ORIENTED_EDGE('',*,*,#72,.F.);
#410=CARTESIAN_POINT('',(7.13590613961699E-015,2.8421709430404E-014,-3.70000000000005));
#411=DIRECTION('',(-0.0,-0.0,-1.0));
#412=DIRECTION('',(2.15155227679629E-013,-1.0,0.0));
#413=SURFACE_STYLE_FILL_AREA(#535);
#414=ORIENTED_EDGE('',*,*,#116,.T.);
#415=ORIENTED_EDGE('',*,*,#74,.F.);
#416=ORIENTED_EDGE('',*,*,#120,.T.);
#417=ORIENTED_EDGE('',*,*,#82,.T.);
#418=CARTESIAN_POINT('',(7.13590613961699E-015,2.8421709430404E-014,6.99999999999997));
#419=DIRECTION('',(-0.0,-0.0,-1.0));
#420=DIRECTION('',(2.15155227679629E-013,-1.0,0.0));
#421=CARTESIAN_POINT('',(7.13590613961699E-015,2.8421709430404E-014,-2.8421709430404E-014));
#422=DIRECTION('',(0.0,0.0,1.0));
#423=DIRECTION('',(2.15155227679629E-013,-1.0,0.0));
#424=CARTESIAN_POINT('',(7.13590613961699E-015,2.8421709430404E-014,9.99999999999997));
#425=DIRECTION('',(0.0,0.0,1.0));
#426=DIRECTION('',(2.15155227679629E-013,-1.0,0.0));
#427=CARTESIAN_POINT('',(7.13590613961699E-015,2.8421709430404E-014,-2.8421709430404E-014));
#428=DIRECTION('',(0.0,0.0,1.0));
#429=DIRECTION('',(2.15155227679629E-013,-1.0,0.0));
#430=DIRECTION('',(0.0,0.0,1.0));
#431=SURFACE_STYLE_FILL_AREA(#536);
#432=CARTESIAN_POINT('',(7.13590613961699E-015,2.8421709430404E-014,3.99999999999997));
#433=DIRECTION('',(0.0,0.0,1.0));
#434=DIRECTION('',(2.15155227679629E-013,-1.0,0.0));
#435=CARTESIAN_POINT('',(7.13590613961699E-015,2.8421709430404E-014,-2.8421709430404E-014));
#436=DIRECTION('',(0.0,0.0,1.0));
#437=DIRECTION('',(2.15155227679629E-013,-1.0,0.0));
#438=CARTESIAN_POINT('',(7.13590613961699E-015,2.8421709430404E-014,-2.8421709430404E-014));
#439=DIRECTION('',(0.0,0.0,1.0));
#440=DIRECTION('',(2.15155227679629E-013,-1.0,0.0));
#441=SURFACE_STYLE_FILL_AREA(#537);
#442=ORIENTED_EDGE('',*,*,#130,.T.);
#443=ORIENTED_EDGE('',*,*,#98,.F.);
#444=ORIENTED_EDGE('',*,*,#104,.T.);
#445=ORIENTED_EDGE('',*,*,#100,.T.);
#446=CARTESIAN_POINT('',(7.13590613961699E-015,2.8421709430404E-014,-8.20000000000005));
#447=DIRECTION('',(-0.0,0.0,1.0));
#448=DIRECTION('',(2.15155227679629E-013,-1.0,0.0));
#449=CARTESIAN_POINT('',(7.13590613961699E-015,2.8421709430404E-014,-7.40000000000006));
#450=DIRECTION('',(0.0,0.0,1.0));
#451=DIRECTION('',(2.15155227679629E-013,-1.0,0.0));
#452=CARTESIAN_POINT('',(7.13590613961699E-015,2.8421709430404E-014,-7.40000000000006));
#453=DIRECTION('',(0.0,0.0,1.0));
#454=DIRECTION('',(2.15155227679629E-013,-1.0,0.0));
#455=CARTESIAN_POINT('',(7.13590613961699E-015,2.8421709430404E-014,-9.00000000000003));
#456=DIRECTION('',(0.0,0.0,1.0));
#457=DIRECTION('',(2.15155227679629E-013,-1.0,0.0));
#458=SURFACE_STYLE_FILL_AREA(#538);
#459=ORIENTED_EDGE('',*,*,#76,.F.);
#460=ORIENTED_EDGE('',*,*,#86,.F.);
#461=ORIENTED_EDGE('',*,*,#72,.T.);
#462=ORIENTED_EDGE('',*,*,#92,.T.);
#463=CARTESIAN_POINT('',(6.86036971000695E-015,-4.49999999999997,-2.8421709430404E-014));
#464=DIRECTION('',(0.0,0.0,-1.0));
#465=DIRECTION('',(1.83690953073357E-016,1.0,0.0));
#466=DIRECTION('',(5.56545754321428E-014,-0.258819045102512,-0.965925826289071));
#467=DIRECTION('',(-0.0,-0.0,-1.0));
#468=SURFACE_STYLE_FILL_AREA(#539);
#469=ORIENTED_EDGE('',*,*,#78,.T.);
#470=ORIENTED_EDGE('',*,*,#92,.F.);
#471=ORIENTED_EDGE('',*,*,#126,.T.);
#472=ORIENTED_EDGE('',*,*,#98,.T.);
#473=CARTESIAN_POINT('',(7.13590613961699E-015,2.8421709430404E-014,-3.70000000000005));
#474=DIRECTION('',(-0.0,-0.0,-1.0));
#475=DIRECTION('',(2.15155227679629E-013,-1.0,0.0));
#476=CARTESIAN_POINT('',(7.13590613961699E-015,2.8421709430404E-014,-9.00000000000003));
#477=DIRECTION('',(0.0,0.0,1.0));
#478=DIRECTION('',(2.15155227679629E-013,-1.0,0.0));
#479=SURFACE_STYLE_FILL_AREA(#540);
#480=ORIENTED_EDGE('',*,*,#112,.F.);
#481=ORIENTED_EDGE('',*,*,#100,.F.);
#482=CARTESIAN_POINT('',(6.89974558403328E-015,-1.28564064605509,-9.00000000000003));
#483=DIRECTION('',(0.0,0.0,-1.0));
#484=DIRECTION('',(1.83690953073357E-016,1.0,0.0));
#485=DIRECTION('',(-5.56545754321447E-014,0.258819045102521,0.965925826289068));
#486=SURFACE_STYLE_FILL_AREA(#541);
#487=ORIENTED_EDGE('',*,*,#116,.F.);
#488=ORIENTED_EDGE('',*,*,#140,.T.);
#489=ORIENTED_EDGE('',*,*,#120,.F.);
#490=ORIENTED_EDGE('',*,*,#128,.F.);
#491=CARTESIAN_POINT('',(7.13590613961699E-015,2.8421709430404E-014,6.99999999999997));
#492=DIRECTION('',(-0.0,-0.0,-1.0));
#493=DIRECTION('',(2.15155227679629E-013,-1.0,0.0));
#494=DIRECTION('',(-5.56545754321447E-014,0.258819045102521,-0.965925826289068));
#495=DIRECTION('',(0.0,0.0,1.0));
#496=DIRECTION('',(-0.0,-0.0,-1.0));
#497=CARTESIAN_POINT('',(7.13590613961699E-015,2.8421709430404E-014,9.99999999999997));
#498=DIRECTION('',(0.0,0.0,1.0));
#499=DIRECTION('',(2.15155227679629E-013,-1.0,0.0));
#500=DIRECTION('',(5.56545754321428E-014,-0.258819045102512,0.965925826289071));
#501=SURFACE_STYLE_FILL_AREA(#542);
#502=ORIENTED_EDGE('',*,*,#128,.T.);
#503=ORIENTED_EDGE('',*,*,#74,.T.);
#504=CARTESIAN_POINT('',(7.89586884412691E-015,-2.1961524227066,9.99999999999997));
#505=DIRECTION('',(0.0,0.0,1.0));
#506=DIRECTION('',(-1.83690953073357E-016,-1.0,0.0));
#507=CARTESIAN_POINT('',(7.13590613961699E-015,2.8421709430404E-014,3.99999999999997));
#508=DIRECTION('',(0.0,0.0,1.0));
#509=DIRECTION('',(2.15155227679629E-013,-1.0,0.0));
#510=SURFACE_STYLE_FILL_AREA(#543);
#511=ORIENTED_EDGE('',*,*,#122,.F.);
#512=ORIENTED_EDGE('',*,*,#76,.T.);
#513=ORIENTED_EDGE('',*,*,#106,.F.);
#514=ORIENTED_EDGE('',*,*,#140,.F.);
#515=CARTESIAN_POINT('',(7.13590613961699E-015,2.8421709430404E-014,1.99999999999997));
#516=DIRECTION('',(-0.0,-0.0,-1.0));
#517=DIRECTION('',(2.15155227679629E-013,-1.0,0.0));
#518=SURFACE_STYLE_FILL_AREA(#544);
#519=ORIENTED_EDGE('',*,*,#130,.F.);
#520=ORIENTED_EDGE('',*,*,#112,.T.);
#521=ORIENTED_EDGE('',*,*,#104,.F.);
#522=ORIENTED_EDGE('',*,*,#96,.F.);
#523=CARTESIAN_POINT('',(7.13590613961699E-015,2.8421709430404E-014,-8.20000000000005));
#524=DIRECTION('',(-0.0,0.0,1.0));
#525=DIRECTION('',(2.15155227679629E-013,-1.0,0.0));
#526=SURFACE_STYLE_FILL_AREA(#545);
#527=ORIENTED_EDGE('',*,*,#122,.T.);
#528=ORIENTED_EDGE('',*,*,#82,.F.);
#529=ORIENTED_EDGE('',*,*,#106,.T.);
#530=ORIENTED_EDGE('',*,*,#86,.T.);
#531=CARTESIAN_POINT('',(7.13590613961699E-015,2.8421709430404E-014,1.99999999999997));
#532=DIRECTION('',(-0.0,-0.0,-1.0));
#533=DIRECTION('',(2.15155227679629E-013,-1.0,0.0));
#534=FILL_AREA_STYLE('',(#546));
#535=FILL_AREA_STYLE('',(#547));
#536=FILL_AREA_STYLE('',(#548));
#537=FILL_AREA_STYLE('',(#549));
#538=FILL_AREA_STYLE('',(#550));
#539=FILL_AREA_STYLE('',(#551));
#540=FILL_AREA_STYLE('',(#552));
#541=FILL_AREA_STYLE('',(#553));
#542=FILL_AREA_STYLE('',(#554));
#543=FILL_AREA_STYLE('',(#555));
#544=FILL_AREA_STYLE('',(#556));
#545=FILL_AREA_STYLE('',(#557));
#546=FILL_AREA_STYLE_COLOUR('',#558);
#547=FILL_AREA_STYLE_COLOUR('',#559);
#548=FILL_AREA_STYLE_COLOUR('',#560);
#549=FILL_AREA_STYLE_COLOUR('',#561);
#550=FILL_AREA_STYLE_COLOUR('',#562);
#551=FILL_AREA_STYLE_COLOUR('',#563);
#552=FILL_AREA_STYLE_COLOUR('',#564);
#553=FILL_AREA_STYLE_COLOUR('',#565);
#554=FILL_AREA_STYLE_COLOUR('',#566);
#555=FILL_AREA_STYLE_COLOUR('',#567);
#556=FILL_AREA_STYLE_COLOUR('',#568);
#557=FILL_AREA_STYLE_COLOUR('',#569);
#558=COLOUR_RGB('',0.509803950786591,0.509803950786591,0.588235318660736);
#559=COLOUR_RGB('',0.509803950786591,0.509803950786591,0.588235318660736);
#560=COLOUR_RGB('',0.509803950786591,0.509803950786591,0.588235318660736);
#561=COLOUR_RGB('',0.509803950786591,0.509803950786591,0.588235318660736);
#562=COLOUR_RGB('',0.509803950786591,0.509803950786591,0.588235318660736);
#563=COLOUR_RGB('',0.509803950786591,0.509803950786591,0.588235318660736);
#564=COLOUR_RGB('',0.509803950786591,0.509803950786591,0.588235318660736);
#565=COLOUR_RGB('',0.509803950786591,0.509803950786591,0.588235318660736);
#566=COLOUR_RGB('',0.509803950786591,0.509803950786591,0.588235318660736);
#567=COLOUR_RGB('',0.509803950786591,0.509803950786591,0.588235318660736);
#568=COLOUR_RGB('',0.509803950786591,0.509803950786591,0.588235318660736);
#569=COLOUR_RGB('',0.509803950786591,0.509803950786591,0.588235318660736);
ENDSEC;
END-ISO-10303-21;
