ISO-10303-21;
HEADER;
FILE_DESCRIPTION(('STEP AP214'),'1');
FILE_NAME(' ','  ',('TraceParts'),('TraceParts S.A.'),'XStep 1.0',' ',' ');
FILE_SCHEMA(('automotive_design'));
ENDSEC;
DATA;
#1=MECHANICAL_DESIGN_GEOMETRIC_PRESENTATION_REPRESENTATION(' ',(#10,#11,#12,#13,#14,#15,#16,#17,#18,#19,#20,#21,#22,#23,#24,#25,#26,#27,#28,#29,#30,#31,#32,#33,#34,#35,#36,#37,#38,#39,#40,#41,#42,#43,#44,#45,#46,#47,#48,#49,#50,#51,#52,#53),#6);
#2=PRODUCT_DEFINITION_CONTEXT('',#54,'design');
#3=APPLICATION_PROTOCOL_DEFINITION('INTERNATIONAL STANDARD','automotive_design',1994,#54);
#4=PRODUCT_CATEGORY_RELATIONSHIP('NONE','NONE',#55,#56);
#5=SHAPE_DEFINITION_REPRESENTATION(#57,#58);
#6= (GEOMETRIC_REPRESENTATION_CONTEXT(3)GLOBAL_UNCERTAINTY_ASSIGNED_CONTEXT((#61))GLOBAL_UNIT_ASSIGNED_CONTEXT((#63,#64,#65))REPRESENTATION_CONTEXT('NONE','WORKSPACE'));
#10=STYLED_ITEM('',(#67),#68);
#11=STYLED_ITEM('',(#69),#70);
#12=STYLED_ITEM('',(#71),#72);
#13=STYLED_ITEM('',(#73),#74);
#14=STYLED_ITEM('',(#75),#76);
#15=STYLED_ITEM('',(#77),#78);
#16=STYLED_ITEM('',(#79),#80);
#17=STYLED_ITEM('',(#81),#82);
#18=STYLED_ITEM('',(#83),#84);
#19=STYLED_ITEM('',(#85),#86);
#20=STYLED_ITEM('',(#87),#88);
#21=STYLED_ITEM('',(#89),#90);
#22=STYLED_ITEM('',(#91),#92);
#23=STYLED_ITEM('',(#93),#94);
#24=STYLED_ITEM('',(#95),#96);
#25=STYLED_ITEM('',(#97),#98);
#26=STYLED_ITEM('',(#99),#100);
#27=STYLED_ITEM('',(#101),#102);
#28=STYLED_ITEM('',(#103),#104);
#29=STYLED_ITEM('',(#105),#106);
#30=STYLED_ITEM('',(#107),#108);
#31=STYLED_ITEM('',(#109),#110);
#32=STYLED_ITEM('',(#111),#112);
#33=STYLED_ITEM('',(#113),#114);
#34=STYLED_ITEM('',(#115),#116);
#35=STYLED_ITEM('',(#117),#118);
#36=STYLED_ITEM('',(#119),#120);
#37=STYLED_ITEM('',(#121),#122);
#38=STYLED_ITEM('',(#123),#124);
#39=STYLED_ITEM('',(#125),#126);
#40=STYLED_ITEM('',(#127),#128);
#41=STYLED_ITEM('',(#129),#130);
#42=STYLED_ITEM('',(#131),#132);
#43=STYLED_ITEM('',(#133),#134);
#44=STYLED_ITEM('',(#135),#136);
#45=STYLED_ITEM('',(#137),#138);
#46=STYLED_ITEM('',(#139),#140);
#47=STYLED_ITEM('',(#141),#142);
#48=STYLED_ITEM('',(#143),#144);
#49=STYLED_ITEM('',(#145),#146);
#50=STYLED_ITEM('',(#147),#148);
#51=STYLED_ITEM('',(#149),#150);
#52=STYLED_ITEM('',(#151),#152);
#53=STYLED_ITEM('',(#153),#154);
#54=APPLICATION_CONTEXT(' ');
#55=PRODUCT_CATEGORY('part','NONE');
#56=PRODUCT_RELATED_PRODUCT_CATEGORY('detail',' ',(#155));
#57=PRODUCT_DEFINITION_SHAPE('NONE','NONE',#156);
#58=ADVANCED_BREP_SHAPE_REPRESENTATION('1',(#72,#157),#6);
#61=UNCERTAINTY_MEASURE_WITH_UNIT(LENGTH_MEASURE(1.0E-006),#63,'','');
#63= (CONVERSION_BASED_UNIT('MILLIMETRE',#160)LENGTH_UNIT()NAMED_UNIT(#163));
#64= (NAMED_UNIT(#165)PLANE_ANGLE_UNIT()SI_UNIT($,.RADIAN.));
#65= (NAMED_UNIT(#165)SOLID_ANGLE_UNIT()SI_UNIT($,.STERADIAN.));
#67=PRESENTATION_STYLE_ASSIGNMENT((#171));
#68=ADVANCED_FACE('',(#172),#173,.T.);
#69=PRESENTATION_STYLE_ASSIGNMENT((#174));
#70=EDGE_CURVE('',#88,#114,#175,.T.);
#71=PRESENTATION_STYLE_ASSIGNMENT((#176));
#72=MANIFOLD_SOLID_BREP('1',#177);
#73=PRESENTATION_STYLE_ASSIGNMENT((#178));
#74=EDGE_CURVE('',#104,#84,#179,.T.);
#75=PRESENTATION_STYLE_ASSIGNMENT((#180));
#76=EDGE_CURVE('',#116,#82,#181,.T.);
#77=PRESENTATION_STYLE_ASSIGNMENT((#182));
#78=ADVANCED_FACE('',(#183),#184,.T.);
#79=PRESENTATION_STYLE_ASSIGNMENT((#185));
#80=EDGE_CURVE('',#90,#112,#186,.T.);
#81=PRESENTATION_STYLE_ASSIGNMENT((#187));
#82=VERTEX_POINT('',#188);
#83=PRESENTATION_STYLE_ASSIGNMENT((#189));
#84=VERTEX_POINT('',#190);
#85=PRESENTATION_STYLE_ASSIGNMENT((#191));
#86=EDGE_CURVE('',#150,#112,#192,.T.);
#87=PRESENTATION_STYLE_ASSIGNMENT((#193));
#88=VERTEX_POINT('',#194);
#89=PRESENTATION_STYLE_ASSIGNMENT((#195));
#90=VERTEX_POINT('',#196);
#91=PRESENTATION_STYLE_ASSIGNMENT((#197));
#92=EDGE_CURVE('',#84,#104,#198,.T.);
#93=PRESENTATION_STYLE_ASSIGNMENT((#199));
#94=ADVANCED_FACE('',(#200),#201,.T.);
#95=PRESENTATION_STYLE_ASSIGNMENT((#202));
#96=ADVANCED_FACE('',(#203),#204,.T.);
#97=PRESENTATION_STYLE_ASSIGNMENT((#205));
#98=ADVANCED_FACE('',(#206),#207,.T.);
#99=PRESENTATION_STYLE_ASSIGNMENT((#208));
#100=EDGE_CURVE('',#82,#116,#209,.T.);
#101=PRESENTATION_STYLE_ASSIGNMENT((#210));
#102=EDGE_CURVE('',#90,#136,#211,.T.);
#103=PRESENTATION_STYLE_ASSIGNMENT((#212));
#104=VERTEX_POINT('',#213);
#105=PRESENTATION_STYLE_ASSIGNMENT((#214));
#106=ADVANCED_FACE('',(#215),#216,.T.);
#107=PRESENTATION_STYLE_ASSIGNMENT((#217));
#108=EDGE_CURVE('',#112,#150,#218,.T.);
#109=PRESENTATION_STYLE_ASSIGNMENT((#219));
#110=ADVANCED_FACE('',(#220),#221,.T.);
#111=PRESENTATION_STYLE_ASSIGNMENT((#222));
#112=VERTEX_POINT('',#223);
#113=PRESENTATION_STYLE_ASSIGNMENT((#224));
#114=VERTEX_POINT('',#225);
#115=PRESENTATION_STYLE_ASSIGNMENT((#226));
#116=VERTEX_POINT('',#227);
#117=PRESENTATION_STYLE_ASSIGNMENT((#228));
#118=EDGE_CURVE('',#134,#140,#229,.T.);
#119=PRESENTATION_STYLE_ASSIGNMENT((#230));
#120=ADVANCED_FACE('',(#231,#232),#233,.T.);
#121=PRESENTATION_STYLE_ASSIGNMENT((#234));
#122=ADVANCED_FACE('',(#235),#236,.T.);
#123=PRESENTATION_STYLE_ASSIGNMENT((#237));
#124=EDGE_CURVE('',#116,#84,#238,.T.);
#125=PRESENTATION_STYLE_ASSIGNMENT((#239));
#126=ADVANCED_FACE('',(#240),#241,.T.);
#127=PRESENTATION_STYLE_ASSIGNMENT((#242));
#128=EDGE_CURVE('',#112,#134,#243,.T.);
#129=PRESENTATION_STYLE_ASSIGNMENT((#244));
#130=EDGE_CURVE('',#140,#134,#245,.T.);
#131=PRESENTATION_STYLE_ASSIGNMENT((#246));
#132=EDGE_CURVE('',#114,#88,#247,.T.);
#133=PRESENTATION_STYLE_ASSIGNMENT((#248));
#134=VERTEX_POINT('',#249);
#135=PRESENTATION_STYLE_ASSIGNMENT((#250));
#136=VERTEX_POINT('',#251);
#137=PRESENTATION_STYLE_ASSIGNMENT((#252));
#138=ADVANCED_FACE('',(#253),#254,.T.);
#139=PRESENTATION_STYLE_ASSIGNMENT((#255));
#140=VERTEX_POINT('',#256);
#141=PRESENTATION_STYLE_ASSIGNMENT((#257));
#142=EDGE_CURVE('',#140,#150,#258,.T.);
#143=PRESENTATION_STYLE_ASSIGNMENT((#259));
#144=EDGE_CURVE('',#82,#114,#260,.T.);
#145=PRESENTATION_STYLE_ASSIGNMENT((#261));
#146=EDGE_CURVE('',#88,#116,#262,.T.);
#147=PRESENTATION_STYLE_ASSIGNMENT((#263));
#148=EDGE_CURVE('',#104,#82,#264,.T.);
#149=PRESENTATION_STYLE_ASSIGNMENT((#265));
#150=VERTEX_POINT('',#266);
#151=PRESENTATION_STYLE_ASSIGNMENT((#267));
#152=EDGE_CURVE('',#150,#136,#268,.T.);
#153=PRESENTATION_STYLE_ASSIGNMENT((#269));
#154=EDGE_CURVE('',#136,#90,#270,.T.);
#155=PRODUCT('1','1','PART-1-DESC',(#271));
#156=PRODUCT_DEFINITION('NONE','NONE',#272,#2);
#157=AXIS2_PLACEMENT_3D('',#273,#274,#275);
#160=LENGTH_MEASURE_WITH_UNIT(LENGTH_MEASURE(1.0),#276);
#163=DIMENSIONAL_EXPONENTS(1.0,0.0,0.0,0.0,0.0,0.0,0.0);
#165=DIMENSIONAL_EXPONENTS(0.0,0.0,0.0,0.0,0.0,0.0,0.0);
#171=SURFACE_STYLE_USAGE(.BOTH.,#277);
#172=FACE_OUTER_BOUND('',#278,.T.);
#173=CONICAL_SURFACE('',#279,4.19615242270666,0.261799387799141);
#174=CURVE_STYLE('',#280,POSITIVE_LENGTH_MEASURE(1.0E-006),#281);
#175=CIRCLE('',#282,3.39230484541332);
#176=SURFACE_STYLE_USAGE(.BOTH.,#283);
#177=CLOSED_SHELL('',(#68,#138,#94,#106,#110,#122,#78,#120,#96,#98,#126));
#178=CURVE_STYLE('',#284,POSITIVE_LENGTH_MEASURE(1.0E-006),#285);
#179=CIRCLE('',#286,5.0);
#180=CURVE_STYLE('',#287,POSITIVE_LENGTH_MEASURE(1.0E-006),#288);
#181=CIRCLE('',#289,5.0);
#182=SURFACE_STYLE_USAGE(.BOTH.,#290);
#183=FACE_OUTER_BOUND('',#291,.T.);
#184=CYLINDRICAL_SURFACE('',#292,3.0);
#185=CURVE_STYLE('',#293,POSITIVE_LENGTH_MEASURE(1.0E-006),#294);
#186=LINE('',#295,#296);
#187=POINT_STYLE(' ',#297,POSITIVE_LENGTH_MEASURE(1.0E-006),#298);
#188=CARTESIAN_POINT('',(7.5032880457637E-015,-4.99999999999997,12.0));
#189=POINT_STYLE(' ',#299,POSITIVE_LENGTH_MEASURE(1.0E-006),#300);
#190=CARTESIAN_POINT('',(-1.97240550615142E-012,5.00000000000003,-2.8421709430404E-014));
#191=CURVE_STYLE('',#301,POSITIVE_LENGTH_MEASURE(1.0E-006),#302);
#192=CIRCLE('',#303,3.0);
#193=POINT_STYLE(' ',#304,POSITIVE_LENGTH_MEASURE(1.0E-006),#305);
#194=CARTESIAN_POINT('',(-1.33590567878263E-012,3.39230484541335,18.0));
#195=POINT_STYLE(' ',#306,POSITIVE_LENGTH_MEASURE(1.0E-006),#307);
#196=CARTESIAN_POINT('',(-1.18058894123501E-012,3.00000000000003,-2.8421709430404E-014));
#197=CURVE_STYLE('',#308,POSITIVE_LENGTH_MEASURE(1.0E-006),#309);
#198=CIRCLE('',#310,5.0);
#199=SURFACE_STYLE_USAGE(.BOTH.,#311);
#200=FACE_OUTER_BOUND('',#312,.T.);
#201=CYLINDRICAL_SURFACE('',#313,3.0);
#202=SURFACE_STYLE_USAGE(.BOTH.,#314);
#203=FACE_OUTER_BOUND('',#315,.T.);
#204=CYLINDRICAL_SURFACE('',#316,5.0);
#205=SURFACE_STYLE_USAGE(.BOTH.,#317);
#206=FACE_OUTER_BOUND('',#318,.T.);
#207=CONICAL_SURFACE('',#319,4.19615242270666,0.261799387799141);
#208=CURVE_STYLE('',#320,POSITIVE_LENGTH_MEASURE(1.0E-006),#321);
#209=CIRCLE('',#322,5.0);
#210=CURVE_STYLE('',#323,POSITIVE_LENGTH_MEASURE(1.0E-006),#324);
#211=CIRCLE('',#325,3.0);
#212=POINT_STYLE(' ',#326,POSITIVE_LENGTH_MEASURE(1.0E-006),#327);
#213=CARTESIAN_POINT('',(6.76852423347028E-015,-4.99999999999997,-2.8421709430404E-014));
#214=SURFACE_STYLE_USAGE(.BOTH.,#328);
#215=FACE_OUTER_BOUND('',#329,.T.);
#216=CONICAL_SURFACE('',#330,2.78564064605511,0.26179938779914);
#217=CURVE_STYLE('',#331,POSITIVE_LENGTH_MEASURE(1.0E-006),#332);
#218=CIRCLE('',#333,3.0);
#219=SURFACE_STYLE_USAGE(.BOTH.,#334);
#220=FACE_OUTER_BOUND('',#335,.T.);
#221=PLANE('',#336);
#222=POINT_STYLE(' ',#337,POSITIVE_LENGTH_MEASURE(1.0E-006),#338);
#223=CARTESIAN_POINT('',(-1.18058894123501E-012,3.00000000000003,-7.40000000000006));
#224=POINT_STYLE(' ',#339,POSITIVE_LENGTH_MEASURE(1.0E-006),#340);
#225=CARTESIAN_POINT('',(8.16598900710786E-015,-3.39230484541329,18.0));
#226=POINT_STYLE(' ',#341,POSITIVE_LENGTH_MEASURE(1.0E-006),#342);
#227=CARTESIAN_POINT('',(-1.97240550615142E-012,5.00000000000003,12.0));
#228=CURVE_STYLE('',#343,POSITIVE_LENGTH_MEASURE(1.0E-006),#344);
#229=CIRCLE('',#345,2.57128129211023);
#230=SURFACE_STYLE_USAGE(.BOTH.,#346);
#231=FACE_OUTER_BOUND('',#347,.T.);
#232=FACE_BOUND('',#348,.T.);
#233=PLANE('',#349);
#234=SURFACE_STYLE_USAGE(.BOTH.,#350);
#235=FACE_OUTER_BOUND('',#351,.T.);
#236=CONICAL_SURFACE('',#352,2.78564064605511,0.26179938779914);
#237=CURVE_STYLE('',#353,POSITIVE_LENGTH_MEASURE(1.0E-006),#354);
#238=LINE('',#355,#356);
#239=SURFACE_STYLE_USAGE(.BOTH.,#357);
#240=FACE_OUTER_BOUND('',#358,.T.);
#241=PLANE('',#359);
#242=CURVE_STYLE('',#360,POSITIVE_LENGTH_MEASURE(1.0E-006),#361);
#243=LINE('',#362,#363);
#244=CURVE_STYLE('',#364,POSITIVE_LENGTH_MEASURE(1.0E-006),#365);
#245=CIRCLE('',#366,2.57128129211023);
#246=CURVE_STYLE('',#367,POSITIVE_LENGTH_MEASURE(1.0E-006),#368);
#247=CIRCLE('',#369,3.39230484541332);
#248=POINT_STYLE(' ',#370,POSITIVE_LENGTH_MEASURE(1.0E-006),#371);
#249=CARTESIAN_POINT('',(-1.01085565393667E-012,2.57128129211026,-9.00000000000003));
#250=POINT_STYLE(' ',#372,POSITIVE_LENGTH_MEASURE(1.0E-006),#373);
#251=CARTESIAN_POINT('',(7.13590613961699E-015,-2.99999999999997,-2.8421709430404E-014));
#252=SURFACE_STYLE_USAGE(.BOTH.,#374);
#253=FACE_OUTER_BOUND('',#375,.T.);
#254=CYLINDRICAL_SURFACE('',#376,5.0);
#255=POINT_STYLE(' ',#377,POSITIVE_LENGTH_MEASURE(1.0E-006),#378);
#256=CARTESIAN_POINT('',(6.66358502844957E-015,-2.5712812921102,-9.00000000000003));
#257=CURVE_STYLE('',#379,POSITIVE_LENGTH_MEASURE(1.0E-006),#380);
#258=LINE('',#381,#382);
#259=CURVE_STYLE('',#383,POSITIVE_LENGTH_MEASURE(1.0E-006),#384);
#260=LINE('',#385,#386);
#261=CURVE_STYLE('',#387,POSITIVE_LENGTH_MEASURE(1.0E-006),#388);
#262=LINE('',#389,#390);
#263=CURVE_STYLE('',#391,POSITIVE_LENGTH_MEASURE(1.0E-006),#392);
#264=LINE('',#393,#394);
#265=POINT_STYLE(' ',#395,POSITIVE_LENGTH_MEASURE(1.0E-006),#396);
#266=CARTESIAN_POINT('',(6.68280178870271E-015,-2.99999999999997,-7.40000000000006));
#267=CURVE_STYLE('',#397,POSITIVE_LENGTH_MEASURE(1.0E-006),#398);
#268=LINE('',#399,#400);
#269=CURVE_STYLE('',#401,POSITIVE_LENGTH_MEASURE(1.0E-006),#402);
#270=CIRCLE('',#403,3.0);
#271=PRODUCT_CONTEXT('',#54,'mechanical');
#272=PRODUCT_DEFINITION_FORMATION_WITH_SPECIFIED_SOURCE(' ','NONE',#155,.NOT_KNOWN.);
#273=CARTESIAN_POINT('',(0.0,0.0,0.0));
#274=DIRECTION('',(0.0,0.0,1.0));
#275=DIRECTION('',(1.0,0.0,0.0));
#276= (NAMED_UNIT(#163)LENGTH_UNIT()SI_UNIT(.MILLI.,.METRE.));
#277=SURFACE_SIDE_STYLE('',(#405));
#278=EDGE_LOOP('',(#406,#407,#408,#409));
#279=AXIS2_PLACEMENT_3D('',#410,#411,#412);
#280=DRAUGHTING_PRE_DEFINED_CURVE_FONT('continuous');
#281=COLOUR_RGB('',0.509803950786591,0.509803950786591,0.588235318660736);
#282=AXIS2_PLACEMENT_3D('',#413,#414,#415);
#283=SURFACE_SIDE_STYLE('',(#416));
#284=DRAUGHTING_PRE_DEFINED_CURVE_FONT('continuous');
#285=COLOUR_RGB('',0.509803950786591,0.509803950786591,0.588235318660736);
#286=AXIS2_PLACEMENT_3D('',#417,#418,#419);
#287=DRAUGHTING_PRE_DEFINED_CURVE_FONT('continuous');
#288=COLOUR_RGB('',0.509803950786591,0.509803950786591,0.588235318660736);
#289=AXIS2_PLACEMENT_3D('',#420,#421,#422);
#290=SURFACE_SIDE_STYLE('',(#423));
#291=EDGE_LOOP('',(#424,#425,#426,#427));
#292=AXIS2_PLACEMENT_3D('',#428,#429,#430);
#293=DRAUGHTING_PRE_DEFINED_CURVE_FONT('continuous');
#294=COLOUR_RGB('',0.509803950786591,0.509803950786591,0.588235318660736);
#295=CARTESIAN_POINT('',(-1.18058894123501E-012,3.00000000000003,-3.70000000000005));
#296=VECTOR('',#431,1.0);
#297=PRE_DEFINED_MARKER('');
#298=COLOUR_RGB('',0.509803950786591,0.509803950786591,0.588235318660736);
#299=PRE_DEFINED_MARKER('');
#300=COLOUR_RGB('',0.509803950786591,0.509803950786591,0.588235318660736);
#301=DRAUGHTING_PRE_DEFINED_CURVE_FONT('continuous');
#302=COLOUR_RGB('',0.509803950786591,0.509803950786591,0.588235318660736);
#303=AXIS2_PLACEMENT_3D('',#432,#433,#434);
#304=PRE_DEFINED_MARKER('');
#305=COLOUR_RGB('',0.509803950786591,0.509803950786591,0.588235318660736);
#306=PRE_DEFINED_MARKER('');
#307=COLOUR_RGB('',0.509803950786591,0.509803950786591,0.588235318660736);
#308=DRAUGHTING_PRE_DEFINED_CURVE_FONT('continuous');
#309=COLOUR_RGB('',0.509803950786591,0.509803950786591,0.588235318660736);
#310=AXIS2_PLACEMENT_3D('',#435,#436,#437);
#311=SURFACE_SIDE_STYLE('',(#438));
#312=EDGE_LOOP('',(#439,#440,#441,#442));
#313=AXIS2_PLACEMENT_3D('',#443,#444,#445);
#314=SURFACE_SIDE_STYLE('',(#446));
#315=EDGE_LOOP('',(#447,#448,#449,#450));
#316=AXIS2_PLACEMENT_3D('',#451,#452,#453);
#317=SURFACE_SIDE_STYLE('',(#454));
#318=EDGE_LOOP('',(#455,#456,#457,#458));
#319=AXIS2_PLACEMENT_3D('',#459,#460,#461);
#320=DRAUGHTING_PRE_DEFINED_CURVE_FONT('continuous');
#321=COLOUR_RGB('',0.509803950786591,0.509803950786591,0.588235318660736);
#322=AXIS2_PLACEMENT_3D('',#462,#463,#464);
#323=DRAUGHTING_PRE_DEFINED_CURVE_FONT('continuous');
#324=COLOUR_RGB('',0.509803950786591,0.509803950786591,0.588235318660736);
#325=AXIS2_PLACEMENT_3D('',#465,#466,#467);
#326=PRE_DEFINED_MARKER('');
#327=COLOUR_RGB('',0.509803950786591,0.509803950786591,0.588235318660736);
#328=SURFACE_SIDE_STYLE('',(#468));
#329=EDGE_LOOP('',(#469,#470,#471,#472));
#330=AXIS2_PLACEMENT_3D('',#473,#474,#475);
#331=DRAUGHTING_PRE_DEFINED_CURVE_FONT('continuous');
#332=COLOUR_RGB('',0.509803950786591,0.509803950786591,0.588235318660736);
#333=AXIS2_PLACEMENT_3D('',#476,#477,#478);
#334=SURFACE_SIDE_STYLE('',(#479));
#335=EDGE_LOOP('',(#480,#481));
#336=AXIS2_PLACEMENT_3D('',#482,#483,#484);
#337=PRE_DEFINED_MARKER('');
#338=COLOUR_RGB('',0.509803950786591,0.509803950786591,0.588235318660736);
#339=PRE_DEFINED_MARKER('');
#340=COLOUR_RGB('',0.509803950786591,0.509803950786591,0.588235318660736);
#341=PRE_DEFINED_MARKER('');
#342=COLOUR_RGB('',0.509803950786591,0.509803950786591,0.588235318660736);
#343=DRAUGHTING_PRE_DEFINED_CURVE_FONT('continuous');
#344=COLOUR_RGB('',0.509803950786591,0.509803950786591,0.588235318660736);
#345=AXIS2_PLACEMENT_3D('',#485,#486,#487);
#346=SURFACE_SIDE_STYLE('',(#488));
#347=EDGE_LOOP('',(#489,#490));
#348=EDGE_LOOP('',(#491,#492));
#349=AXIS2_PLACEMENT_3D('',#493,#494,#495);
#350=SURFACE_SIDE_STYLE('',(#496));
#351=EDGE_LOOP('',(#497,#498,#499,#500));
#352=AXIS2_PLACEMENT_3D('',#501,#502,#503);
#353=DRAUGHTING_PRE_DEFINED_CURVE_FONT('continuous');
#354=COLOUR_RGB('',0.509803950786591,0.509803950786591,0.588235318660736);
#355=CARTESIAN_POINT('',(-1.97240550615142E-012,5.00000000000003,5.99999999999997));
#356=VECTOR('',#504,1.0);
#357=SURFACE_SIDE_STYLE('',(#505));
#358=EDGE_LOOP('',(#506,#507));
#359=AXIS2_PLACEMENT_3D('',#508,#509,#510);
#360=DRAUGHTING_PRE_DEFINED_CURVE_FONT('continuous');
#361=COLOUR_RGB('',0.509803950786591,0.509803950786591,0.588235318660736);
#362=CARTESIAN_POINT('',(-1.09572229758584E-012,2.78564064605514,-8.20000000000005));
#363=VECTOR('',#511,1.0);
#364=DRAUGHTING_PRE_DEFINED_CURVE_FONT('continuous');
#365=COLOUR_RGB('',0.509803950786591,0.509803950786591,0.588235318660736);
#366=AXIS2_PLACEMENT_3D('',#512,#513,#514);
#367=DRAUGHTING_PRE_DEFINED_CURVE_FONT('continuous');
#368=COLOUR_RGB('',0.509803950786591,0.509803950786591,0.588235318660736);
#369=AXIS2_PLACEMENT_3D('',#515,#516,#517);
#370=PRE_DEFINED_MARKER('');
#371=COLOUR_RGB('',0.509803950786591,0.509803950786591,0.588235318660736);
#372=PRE_DEFINED_MARKER('');
#373=COLOUR_RGB('',0.509803950786591,0.509803950786591,0.588235318660736);
#374=SURFACE_SIDE_STYLE('',(#518));
#375=EDGE_LOOP('',(#519,#520,#521,#522));
#376=AXIS2_PLACEMENT_3D('',#523,#524,#525);
#377=PRE_DEFINED_MARKER('');
#378=COLOUR_RGB('',0.509803950786591,0.509803950786591,0.588235318660736);
#379=DRAUGHTING_PRE_DEFINED_CURVE_FONT('continuous');
#380=COLOUR_RGB('',0.509803950786591,0.509803950786591,0.588235318660736);
#381=CARTESIAN_POINT('',(1.10999410986507E-012,-2.78564064605509,-8.20000000000005));
#382=VECTOR('',#526,1.0);
#383=DRAUGHTING_PRE_DEFINED_CURVE_FONT('continuous');
#384=COLOUR_RGB('',0.509803950786591,0.509803950786591,0.588235318660736);
#385=CARTESIAN_POINT('',(1.66842740474626E-012,-4.19615242270663,15.0));
#386=VECTOR('',#527,1.0);
#387=DRAUGHTING_PRE_DEFINED_CURVE_FONT('continuous');
#388=COLOUR_RGB('',0.509803950786591,0.509803950786591,0.588235318660736);
#389=CARTESIAN_POINT('',(-1.65415559246703E-012,4.19615242270669,15.0));
#390=VECTOR('',#528,1.0);
#391=DRAUGHTING_PRE_DEFINED_CURVE_FONT('continuous');
#392=COLOUR_RGB('',0.509803950786591,0.509803950786591,0.588235318660736);
#393=CARTESIAN_POINT('',(1.98667731843066E-012,-4.99999999999997,5.99999999999997));
#394=VECTOR('',#529,1.0);
#395=PRE_DEFINED_MARKER('');
#396=COLOUR_RGB('',0.509803950786591,0.509803950786591,0.588235318660736);
#397=DRAUGHTING_PRE_DEFINED_CURVE_FONT('continuous');
#398=COLOUR_RGB('',0.509803950786591,0.509803950786591,0.588235318660736);
#399=CARTESIAN_POINT('',(1.19486075351424E-012,-2.99999999999997,-3.70000000000005));
#400=VECTOR('',#530,1.0);
#401=DRAUGHTING_PRE_DEFINED_CURVE_FONT('continuous');
#402=COLOUR_RGB('',0.509803950786591,0.509803950786591,0.588235318660736);
#403=AXIS2_PLACEMENT_3D('',#531,#532,#533);
#405=SURFACE_STYLE_FILL_AREA(#534);
#406=ORIENTED_EDGE('',*,*,#144,.F.);
#407=ORIENTED_EDGE('',*,*,#100,.T.);
#408=ORIENTED_EDGE('',*,*,#146,.F.);
#409=ORIENTED_EDGE('',*,*,#132,.F.);
#410=CARTESIAN_POINT('',(7.13590613961699E-015,2.8421709430404E-014,15.0));
#411=DIRECTION('',(-0.0,-0.0,-1.0));
#412=DIRECTION('',(3.9603074309359E-013,-1.0,0.0));
#413=CARTESIAN_POINT('',(7.13590613961699E-015,2.8421709430404E-014,18.0));
#414=DIRECTION('',(0.0,0.0,1.0));
#415=DIRECTION('',(3.9603074309359E-013,-1.0,0.0));
#416=SURFACE_STYLE_FILL_AREA(#535);
#417=CARTESIAN_POINT('',(7.13590613961699E-015,2.8421709430404E-014,-2.8421709430404E-014));
#418=DIRECTION('',(0.0,0.0,1.0));
#419=DIRECTION('',(3.96030743093591E-013,-1.0,0.0));
#420=CARTESIAN_POINT('',(7.13590613961699E-015,2.8421709430404E-014,12.0));
#421=DIRECTION('',(0.0,0.0,1.0));
#422=DIRECTION('',(3.96030743093591E-013,-1.0,0.0));
#423=SURFACE_STYLE_FILL_AREA(#536);
#424=ORIENTED_EDGE('',*,*,#152,.T.);
#425=ORIENTED_EDGE('',*,*,#102,.F.);
#426=ORIENTED_EDGE('',*,*,#80,.T.);
#427=ORIENTED_EDGE('',*,*,#108,.T.);
#428=CARTESIAN_POINT('',(7.13590613961699E-015,2.8421709430404E-014,-3.70000000000005));
#429=DIRECTION('',(-0.0,-0.0,-1.0));
#430=DIRECTION('',(3.9603074309359E-013,-1.0,0.0));
#431=DIRECTION('',(-0.0,-0.0,-1.0));
#432=CARTESIAN_POINT('',(7.13590613961699E-015,2.8421709430404E-014,-7.40000000000006));
#433=DIRECTION('',(0.0,0.0,1.0));
#434=DIRECTION('',(3.9603074309359E-013,-1.0,0.0));
#435=CARTESIAN_POINT('',(7.13590613961699E-015,2.8421709430404E-014,-2.8421709430404E-014));
#436=DIRECTION('',(0.0,0.0,1.0));
#437=DIRECTION('',(3.96030743093591E-013,-1.0,0.0));
#438=SURFACE_STYLE_FILL_AREA(#537);
#439=ORIENTED_EDGE('',*,*,#152,.F.);
#440=ORIENTED_EDGE('',*,*,#86,.T.);
#441=ORIENTED_EDGE('',*,*,#80,.F.);
#442=ORIENTED_EDGE('',*,*,#154,.F.);
#443=CARTESIAN_POINT('',(7.13590613961699E-015,2.8421709430404E-014,-3.70000000000005));
#444=DIRECTION('',(-0.0,-0.0,-1.0));
#445=DIRECTION('',(3.9603074309359E-013,-1.0,0.0));
#446=SURFACE_STYLE_FILL_AREA(#538);
#447=ORIENTED_EDGE('',*,*,#148,.T.);
#448=ORIENTED_EDGE('',*,*,#76,.F.);
#449=ORIENTED_EDGE('',*,*,#124,.T.);
#450=ORIENTED_EDGE('',*,*,#92,.T.);
#451=CARTESIAN_POINT('',(7.13590613961699E-015,2.8421709430404E-014,5.99999999999997));
#452=DIRECTION('',(-0.0,-0.0,-1.0));
#453=DIRECTION('',(3.96030743093591E-013,-1.0,0.0));
#454=SURFACE_STYLE_FILL_AREA(#539);
#455=ORIENTED_EDGE('',*,*,#144,.T.);
#456=ORIENTED_EDGE('',*,*,#70,.F.);
#457=ORIENTED_EDGE('',*,*,#146,.T.);
#458=ORIENTED_EDGE('',*,*,#76,.T.);
#459=CARTESIAN_POINT('',(7.13590613961699E-015,2.8421709430404E-014,15.0));
#460=DIRECTION('',(-0.0,-0.0,-1.0));
#461=DIRECTION('',(3.9603074309359E-013,-1.0,0.0));
#462=CARTESIAN_POINT('',(7.13590613961699E-015,2.8421709430404E-014,12.0));
#463=DIRECTION('',(0.0,0.0,1.0));
#464=DIRECTION('',(3.96030743093591E-013,-1.0,0.0));
#465=CARTESIAN_POINT('',(7.13590613961699E-015,2.8421709430404E-014,-2.8421709430404E-014));
#466=DIRECTION('',(0.0,0.0,1.0));
#467=DIRECTION('',(3.9603074309359E-013,-1.0,0.0));
#468=SURFACE_STYLE_FILL_AREA(#540);
#469=ORIENTED_EDGE('',*,*,#142,.F.);
#470=ORIENTED_EDGE('',*,*,#130,.T.);
#471=ORIENTED_EDGE('',*,*,#128,.F.);
#472=ORIENTED_EDGE('',*,*,#86,.F.);
#473=CARTESIAN_POINT('',(7.13590613961699E-015,2.8421709430404E-014,-8.20000000000005));
#474=DIRECTION('',(-0.0,0.0,1.0));
#475=DIRECTION('',(3.9603074309359E-013,-1.0,0.0));
#476=CARTESIAN_POINT('',(7.13590613961699E-015,2.8421709430404E-014,-7.40000000000006));
#477=DIRECTION('',(0.0,0.0,1.0));
#478=DIRECTION('',(3.9603074309359E-013,-1.0,0.0));
#479=SURFACE_STYLE_FILL_AREA(#541);
#480=ORIENTED_EDGE('',*,*,#130,.F.);
#481=ORIENTED_EDGE('',*,*,#118,.F.);
#482=CARTESIAN_POINT('',(6.89974558403328E-015,-1.28564064605509,-9.00000000000003));
#483=DIRECTION('',(0.0,0.0,-1.0));
#484=DIRECTION('',(1.83690953073357E-016,1.0,0.0));
#485=CARTESIAN_POINT('',(7.13590613961699E-015,2.8421709430404E-014,-9.00000000000003));
#486=DIRECTION('',(0.0,0.0,1.0));
#487=DIRECTION('',(3.9603074309359E-013,-1.0,0.0));
#488=SURFACE_STYLE_FILL_AREA(#542);
#489=ORIENTED_EDGE('',*,*,#74,.F.);
#490=ORIENTED_EDGE('',*,*,#92,.F.);
#491=ORIENTED_EDGE('',*,*,#154,.T.);
#492=ORIENTED_EDGE('',*,*,#102,.T.);
#493=CARTESIAN_POINT('',(6.95221518654363E-015,-3.99999999999997,-2.8421709430404E-014));
#494=DIRECTION('',(0.0,0.0,-1.0));
#495=DIRECTION('',(1.83690953073357E-016,1.0,0.0));
#496=SURFACE_STYLE_FILL_AREA(#543);
#497=ORIENTED_EDGE('',*,*,#142,.T.);
#498=ORIENTED_EDGE('',*,*,#108,.F.);
#499=ORIENTED_EDGE('',*,*,#128,.T.);
#500=ORIENTED_EDGE('',*,*,#118,.T.);
#501=CARTESIAN_POINT('',(7.13590613961699E-015,2.8421709430404E-014,-8.20000000000005));
#502=DIRECTION('',(-0.0,0.0,1.0));
#503=DIRECTION('',(3.9603074309359E-013,-1.0,0.0));
#504=DIRECTION('',(-0.0,-0.0,-1.0));
#505=SURFACE_STYLE_FILL_AREA(#544);
#506=ORIENTED_EDGE('',*,*,#132,.T.);
#507=ORIENTED_EDGE('',*,*,#70,.T.);
#508=CARTESIAN_POINT('',(8.47755686219253E-015,-1.69615242270663,18.0));
#509=DIRECTION('',(0.0,0.0,1.0));
#510=DIRECTION('',(-1.83690953073357E-016,-1.0,0.0));
#511=DIRECTION('',(1.02468603614009E-013,-0.258819045102512,-0.965925826289071));
#512=CARTESIAN_POINT('',(7.13590613961699E-015,2.8421709430404E-014,-9.00000000000003));
#513=DIRECTION('',(0.0,0.0,1.0));
#514=DIRECTION('',(3.9603074309359E-013,-1.0,0.0));
#515=CARTESIAN_POINT('',(7.13590613961699E-015,2.8421709430404E-014,18.0));
#516=DIRECTION('',(0.0,0.0,1.0));
#517=DIRECTION('',(3.9603074309359E-013,-1.0,0.0));
#518=SURFACE_STYLE_FILL_AREA(#545);
#519=ORIENTED_EDGE('',*,*,#148,.F.);
#520=ORIENTED_EDGE('',*,*,#74,.T.);
#521=ORIENTED_EDGE('',*,*,#124,.F.);
#522=ORIENTED_EDGE('',*,*,#100,.F.);
#523=CARTESIAN_POINT('',(7.13590613961699E-015,2.8421709430404E-014,5.99999999999997));
#524=DIRECTION('',(-0.0,-0.0,-1.0));
#525=DIRECTION('',(3.96030743093591E-013,-1.0,0.0));
#526=DIRECTION('',(1.02468603614009E-013,-0.258819045102512,0.965925826289071));
#527=DIRECTION('',(-1.02468603614009E-013,0.258819045102512,0.965925826289071));
#528=DIRECTION('',(-1.02468603614009E-013,0.258819045102512,-0.965925826289071));
#529=DIRECTION('',(0.0,0.0,1.0));
#530=DIRECTION('',(0.0,0.0,1.0));
#531=CARTESIAN_POINT('',(7.13590613961699E-015,2.8421709430404E-014,-2.8421709430404E-014));
#532=DIRECTION('',(0.0,0.0,1.0));
#533=DIRECTION('',(3.9603074309359E-013,-1.0,0.0));
#534=FILL_AREA_STYLE('',(#546));
#535=FILL_AREA_STYLE('',(#547));
#536=FILL_AREA_STYLE('',(#548));
#537=FILL_AREA_STYLE('',(#549));
#538=FILL_AREA_STYLE('',(#550));
#539=FILL_AREA_STYLE('',(#551));
#540=FILL_AREA_STYLE('',(#552));
#541=FILL_AREA_STYLE('',(#553));
#542=FILL_AREA_STYLE('',(#554));
#543=FILL_AREA_STYLE('',(#555));
#544=FILL_AREA_STYLE('',(#556));
#545=FILL_AREA_STYLE('',(#557));
#546=FILL_AREA_STYLE_COLOUR('',#558);
#547=FILL_AREA_STYLE_COLOUR('',#559);
#548=FILL_AREA_STYLE_COLOUR('',#560);
#549=FILL_AREA_STYLE_COLOUR('',#561);
#550=FILL_AREA_STYLE_COLOUR('',#562);
#551=FILL_AREA_STYLE_COLOUR('',#563);
#552=FILL_AREA_STYLE_COLOUR('',#564);
#553=FILL_AREA_STYLE_COLOUR('',#565);
#554=FILL_AREA_STYLE_COLOUR('',#566);
#555=FILL_AREA_STYLE_COLOUR('',#567);
#556=FILL_AREA_STYLE_COLOUR('',#568);
#557=FILL_AREA_STYLE_COLOUR('',#569);
#558=COLOUR_RGB('',0.509803950786591,0.509803950786591,0.588235318660736);
#559=COLOUR_RGB('',0.509803950786591,0.509803950786591,0.588235318660736);
#560=COLOUR_RGB('',0.509803950786591,0.509803950786591,0.588235318660736);
#561=COLOUR_RGB('',0.509803950786591,0.509803950786591,0.588235318660736);
#562=COLOUR_RGB('',0.509803950786591,0.509803950786591,0.588235318660736);
#563=COLOUR_RGB('',0.509803950786591,0.509803950786591,0.588235318660736);
#564=COLOUR_RGB('',0.509803950786591,0.509803950786591,0.588235318660736);
#565=COLOUR_RGB('',0.509803950786591,0.509803950786591,0.588235318660736);
#566=COLOUR_RGB('',0.509803950786591,0.509803950786591,0.588235318660736);
#567=COLOUR_RGB('',0.509803950786591,0.509803950786591,0.588235318660736);
#568=COLOUR_RGB('',0.509803950786591,0.509803950786591,0.588235318660736);
#569=COLOUR_RGB('',0.509803950786591,0.509803950786591,0.588235318660736);
ENDSEC;
END-ISO-10303-21;
