ISO-10303-21;
HEADER;
FILE_DESCRIPTION(('STEP AP214'),'1');
FILE_NAME(' ','  ',('TraceParts'),('TraceParts S.A.'),'XStep 1.0',' ',' ');
FILE_SCHEMA(('automotive_design'));
ENDSEC;
DATA;
#1=MECHANICAL_DESIGN_GEOMETRIC_PRESENTATION_REPRESENTATION(' ',(#10,#11,#12,#13,#14,#15,#16,#17,#18,#19,#20,#21,#22,#23,#24,#25,#26,#27,#28,#29,#30,#31,#32,#33,#34,#35,#36,#37,#38,#39,#40,#41,#42,#43,#44,#45,#46,#47,#48,#49,#50,#51,#52,#53),#6);
#2=PRODUCT_DEFINITION_CONTEXT('',#54,'design');
#3=APPLICATION_PROTOCOL_DEFINITION('INTERNATIONAL STANDARD','automotive_design',1994,#54);
#4=PRODUCT_CATEGORY_RELATIONSHIP('NONE','NONE',#55,#56);
#5=SHAPE_DEFINITION_REPRESENTATION(#57,#58);
#6= (GEOMETRIC_REPRESENTATION_CONTEXT(3)GLOBAL_UNCERTAINTY_ASSIGNED_CONTEXT((#61))GLOBAL_UNIT_ASSIGNED_CONTEXT((#63,#64,#65))REPRESENTATION_CONTEXT('NONE','WORKSPACE'));
#10=STYLED_ITEM('',(#67),#68);
#11=STYLED_ITEM('',(#69),#70);
#12=STYLED_ITEM('',(#71),#72);
#13=STYLED_ITEM('',(#73),#74);
#14=STYLED_ITEM('',(#75),#76);
#15=STYLED_ITEM('',(#77),#78);
#16=STYLED_ITEM('',(#79),#80);
#17=STYLED_ITEM('',(#81),#82);
#18=STYLED_ITEM('',(#83),#84);
#19=STYLED_ITEM('',(#85),#86);
#20=STYLED_ITEM('',(#87),#88);
#21=STYLED_ITEM('',(#89),#90);
#22=STYLED_ITEM('',(#91),#92);
#23=STYLED_ITEM('',(#93),#94);
#24=STYLED_ITEM('',(#95),#96);
#25=STYLED_ITEM('',(#97),#98);
#26=STYLED_ITEM('',(#99),#100);
#27=STYLED_ITEM('',(#101),#102);
#28=STYLED_ITEM('',(#103),#104);
#29=STYLED_ITEM('',(#105),#106);
#30=STYLED_ITEM('',(#107),#108);
#31=STYLED_ITEM('',(#109),#110);
#32=STYLED_ITEM('',(#111),#112);
#33=STYLED_ITEM('',(#113),#114);
#34=STYLED_ITEM('',(#115),#116);
#35=STYLED_ITEM('',(#117),#118);
#36=STYLED_ITEM('',(#119),#120);
#37=STYLED_ITEM('',(#121),#122);
#38=STYLED_ITEM('',(#123),#124);
#39=STYLED_ITEM('',(#125),#126);
#40=STYLED_ITEM('',(#127),#128);
#41=STYLED_ITEM('',(#129),#130);
#42=STYLED_ITEM('',(#131),#132);
#43=STYLED_ITEM('',(#133),#134);
#44=STYLED_ITEM('',(#135),#136);
#45=STYLED_ITEM('',(#137),#138);
#46=STYLED_ITEM('',(#139),#140);
#47=STYLED_ITEM('',(#141),#142);
#48=STYLED_ITEM('',(#143),#144);
#49=STYLED_ITEM('',(#145),#146);
#50=STYLED_ITEM('',(#147),#148);
#51=STYLED_ITEM('',(#149),#150);
#52=STYLED_ITEM('',(#151),#152);
#53=STYLED_ITEM('',(#153),#154);
#54=APPLICATION_CONTEXT(' ');
#55=PRODUCT_CATEGORY('part','NONE');
#56=PRODUCT_RELATED_PRODUCT_CATEGORY('detail',' ',(#155));
#57=PRODUCT_DEFINITION_SHAPE('NONE','NONE',#156);
#58=ADVANCED_BREP_SHAPE_REPRESENTATION('1',(#94,#157),#6);
#61=UNCERTAINTY_MEASURE_WITH_UNIT(LENGTH_MEASURE(1.0E-006),#63,'','');
#63= (CONVERSION_BASED_UNIT('MILLIMETRE',#160)LENGTH_UNIT()NAMED_UNIT(#163));
#64= (NAMED_UNIT(#165)PLANE_ANGLE_UNIT()SI_UNIT($,.RADIAN.));
#65= (NAMED_UNIT(#165)SOLID_ANGLE_UNIT()SI_UNIT($,.STERADIAN.));
#67=PRESENTATION_STYLE_ASSIGNMENT((#171));
#68=EDGE_CURVE('',#136,#72,#172,.T.);
#69=PRESENTATION_STYLE_ASSIGNMENT((#173));
#70=EDGE_CURVE('',#114,#80,#174,.T.);
#71=PRESENTATION_STYLE_ASSIGNMENT((#175));
#72=VERTEX_POINT('',#176);
#73=PRESENTATION_STYLE_ASSIGNMENT((#177));
#74=ADVANCED_FACE('',(#178),#179,.T.);
#75=PRESENTATION_STYLE_ASSIGNMENT((#180));
#76=EDGE_CURVE('',#100,#140,#181,.T.);
#77=PRESENTATION_STYLE_ASSIGNMENT((#182));
#78=ADVANCED_FACE('',(#183),#184,.T.);
#79=PRESENTATION_STYLE_ASSIGNMENT((#185));
#80=VERTEX_POINT('',#186);
#81=PRESENTATION_STYLE_ASSIGNMENT((#187));
#82=EDGE_CURVE('',#136,#114,#188,.T.);
#83=PRESENTATION_STYLE_ASSIGNMENT((#189));
#84=EDGE_CURVE('',#98,#132,#190,.T.);
#85=PRESENTATION_STYLE_ASSIGNMENT((#191));
#86=EDGE_CURVE('',#102,#98,#192,.T.);
#87=PRESENTATION_STYLE_ASSIGNMENT((#193));
#88=EDGE_CURVE('',#104,#132,#194,.T.);
#89=PRESENTATION_STYLE_ASSIGNMENT((#195));
#90=ADVANCED_FACE('',(#196),#197,.T.);
#91=PRESENTATION_STYLE_ASSIGNMENT((#198));
#92=ADVANCED_FACE('',(#199,#200),#201,.T.);
#93=PRESENTATION_STYLE_ASSIGNMENT((#202));
#94=MANIFOLD_SOLID_BREP('1',#203);
#95=PRESENTATION_STYLE_ASSIGNMENT((#204));
#96=EDGE_CURVE('',#72,#136,#205,.T.);
#97=PRESENTATION_STYLE_ASSIGNMENT((#206));
#98=VERTEX_POINT('',#207);
#99=PRESENTATION_STYLE_ASSIGNMENT((#208));
#100=VERTEX_POINT('',#209);
#101=PRESENTATION_STYLE_ASSIGNMENT((#210));
#102=VERTEX_POINT('',#211);
#103=PRESENTATION_STYLE_ASSIGNMENT((#212));
#104=VERTEX_POINT('',#213);
#105=PRESENTATION_STYLE_ASSIGNMENT((#214));
#106=EDGE_CURVE('',#104,#102,#215,.T.);
#107=PRESENTATION_STYLE_ASSIGNMENT((#216));
#108=EDGE_CURVE('',#128,#150,#217,.T.);
#109=PRESENTATION_STYLE_ASSIGNMENT((#218));
#110=ADVANCED_FACE('',(#219),#220,.T.);
#111=PRESENTATION_STYLE_ASSIGNMENT((#221));
#112=EDGE_CURVE('',#80,#72,#222,.T.);
#113=PRESENTATION_STYLE_ASSIGNMENT((#223));
#114=VERTEX_POINT('',#224);
#115=PRESENTATION_STYLE_ASSIGNMENT((#225));
#116=EDGE_CURVE('',#102,#128,#226,.T.);
#117=PRESENTATION_STYLE_ASSIGNMENT((#227));
#118=ADVANCED_FACE('',(#228),#229,.T.);
#119=PRESENTATION_STYLE_ASSIGNMENT((#230));
#120=EDGE_CURVE('',#140,#100,#231,.T.);
#121=PRESENTATION_STYLE_ASSIGNMENT((#232));
#122=ADVANCED_FACE('',(#233),#234,.T.);
#123=PRESENTATION_STYLE_ASSIGNMENT((#235));
#124=EDGE_CURVE('',#72,#100,#236,.T.);
#125=PRESENTATION_STYLE_ASSIGNMENT((#237));
#126=EDGE_CURVE('',#150,#128,#238,.T.);
#127=PRESENTATION_STYLE_ASSIGNMENT((#239));
#128=VERTEX_POINT('',#240);
#129=PRESENTATION_STYLE_ASSIGNMENT((#241));
#130=ADVANCED_FACE('',(#242),#243,.T.);
#131=PRESENTATION_STYLE_ASSIGNMENT((#244));
#132=VERTEX_POINT('',#245);
#133=PRESENTATION_STYLE_ASSIGNMENT((#246));
#134=ADVANCED_FACE('',(#247),#248,.T.);
#135=PRESENTATION_STYLE_ASSIGNMENT((#249));
#136=VERTEX_POINT('',#250);
#137=PRESENTATION_STYLE_ASSIGNMENT((#251));
#138=ADVANCED_FACE('',(#252),#253,.T.);
#139=PRESENTATION_STYLE_ASSIGNMENT((#254));
#140=VERTEX_POINT('',#255);
#141=PRESENTATION_STYLE_ASSIGNMENT((#256));
#142=EDGE_CURVE('',#150,#98,#257,.T.);
#143=PRESENTATION_STYLE_ASSIGNMENT((#258));
#144=EDGE_CURVE('',#140,#136,#259,.T.);
#145=PRESENTATION_STYLE_ASSIGNMENT((#260));
#146=EDGE_CURVE('',#80,#114,#261,.T.);
#147=PRESENTATION_STYLE_ASSIGNMENT((#262));
#148=ADVANCED_FACE('',(#263),#264,.T.);
#149=PRESENTATION_STYLE_ASSIGNMENT((#265));
#150=VERTEX_POINT('',#266);
#151=PRESENTATION_STYLE_ASSIGNMENT((#267));
#152=EDGE_CURVE('',#98,#102,#268,.T.);
#153=PRESENTATION_STYLE_ASSIGNMENT((#269));
#154=EDGE_CURVE('',#132,#104,#270,.T.);
#155=PRODUCT('1','1','PART-1-DESC',(#271));
#156=PRODUCT_DEFINITION('NONE','NONE',#272,#2);
#157=AXIS2_PLACEMENT_3D('',#273,#274,#275);
#160=LENGTH_MEASURE_WITH_UNIT(LENGTH_MEASURE(1.0),#276);
#163=DIMENSIONAL_EXPONENTS(1.0,0.0,0.0,0.0,0.0,0.0,0.0);
#165=DIMENSIONAL_EXPONENTS(0.0,0.0,0.0,0.0,0.0,0.0,0.0);
#171=CURVE_STYLE('',#277,POSITIVE_LENGTH_MEASURE(1.0E-006),#278);
#172=CIRCLE('',#279,5.0);
#173=CURVE_STYLE('',#280,POSITIVE_LENGTH_MEASURE(1.0E-006),#281);
#174=CIRCLE('',#282,5.0);
#175=POINT_STYLE(' ',#283,POSITIVE_LENGTH_MEASURE(1.0E-006),#284);
#176=CARTESIAN_POINT('',(7.01344550423475E-015,-4.99999999999997,3.99999999999997));
#177=SURFACE_STYLE_USAGE(.BOTH.,#285);
#178=FACE_OUTER_BOUND('',#286,.T.);
#179=CYLINDRICAL_SURFACE('',#287,5.0);
#180=CURVE_STYLE('',#288,POSITIVE_LENGTH_MEASURE(1.0E-006),#289);
#181=CIRCLE('',#290,3.39230484541326);
#182=SURFACE_STYLE_USAGE(.BOTH.,#291);
#183=FACE_OUTER_BOUND('',#292,.T.);
#184=CYLINDRICAL_SURFACE('',#293,3.0);
#185=POINT_STYLE(' ',#294,POSITIVE_LENGTH_MEASURE(1.0E-006),#295);
#186=CARTESIAN_POINT('',(6.76852423347028E-015,-4.99999999999997,-2.8421709430404E-014));
#187=CURVE_STYLE('',#296,POSITIVE_LENGTH_MEASURE(1.0E-006),#297);
#188=LINE('',#298,#299);
#189=CURVE_STYLE('',#300,POSITIVE_LENGTH_MEASURE(1.0E-006),#301);
#190=LINE('',#302,#303);
#191=CURVE_STYLE('',#304,POSITIVE_LENGTH_MEASURE(1.0E-006),#305);
#192=CIRCLE('',#306,3.0);
#193=CURVE_STYLE('',#307,POSITIVE_LENGTH_MEASURE(1.0E-006),#308);
#194=CIRCLE('',#309,3.0);
#195=SURFACE_STYLE_USAGE(.BOTH.,#310);
#196=FACE_OUTER_BOUND('',#311,.T.);
#197=CYLINDRICAL_SURFACE('',#312,3.0);
#198=SURFACE_STYLE_USAGE(.BOTH.,#313);
#199=FACE_OUTER_BOUND('',#314,.T.);
#200=FACE_BOUND('',#315,.T.);
#201=PLANE('',#316);
#202=SURFACE_STYLE_USAGE(.BOTH.,#317);
#203=CLOSED_SHELL('',(#118,#110,#78,#148,#138,#134,#90,#92,#74,#130,#122));
#204=CURVE_STYLE('',#318,POSITIVE_LENGTH_MEASURE(1.0E-006),#319);
#205=CIRCLE('',#320,5.0);
#206=POINT_STYLE(' ',#321,POSITIVE_LENGTH_MEASURE(1.0E-006),#322);
#207=CARTESIAN_POINT('',(6.68280178870271E-015,-2.99999999999997,-7.40000000000006));
#208=POINT_STYLE(' ',#323,POSITIVE_LENGTH_MEASURE(1.0E-006),#324);
#209=CARTESIAN_POINT('',(7.67614646557892E-015,-3.39230484541324,9.99999999999997));
#210=POINT_STYLE(' ',#325,POSITIVE_LENGTH_MEASURE(1.0E-006),#326);
#211=CARTESIAN_POINT('',(-8.28398333193543E-013,3.00000000000003,-7.40000000000006));
#212=POINT_STYLE(' ',#327,POSITIVE_LENGTH_MEASURE(1.0E-006),#328);
#213=CARTESIAN_POINT('',(-8.28398333193543E-013,3.00000000000003,-2.8421709430404E-014));
#214=CURVE_STYLE('',#329,POSITIVE_LENGTH_MEASURE(1.0E-006),#330);
#215=LINE('',#331,#332);
#216=CURVE_STYLE('',#333,POSITIVE_LENGTH_MEASURE(1.0E-006),#334);
#217=CIRCLE('',#335,2.57128129211023);
#218=SURFACE_STYLE_USAGE(.BOTH.,#336);
#219=FACE_OUTER_BOUND('',#337,.T.);
#220=CYLINDRICAL_SURFACE('',#338,5.0);
#221=CURVE_STYLE('',#339,POSITIVE_LENGTH_MEASURE(1.0E-006),#340);
#222=LINE('',#341,#342);
#223=POINT_STYLE(' ',#343,POSITIVE_LENGTH_MEASURE(1.0E-006),#344);
#224=CARTESIAN_POINT('',(-1.38542115941565E-012,5.00000000000003,-2.8421709430404E-014));
#225=CURVE_STYLE('',#345,POSITIVE_LENGTH_MEASURE(1.0E-006),#346);
#226=LINE('',#347,#348);
#227=SURFACE_STYLE_USAGE(.BOTH.,#349);
#228=FACE_OUTER_BOUND('',#350,.T.);
#229=CONICAL_SURFACE('',#351,4.19615242270663,0.261799387799149);
#230=CURVE_STYLE('',#352,POSITIVE_LENGTH_MEASURE(1.0E-006),#353);
#231=CIRCLE('',#354,3.39230484541326);
#232=SURFACE_STYLE_USAGE(.BOTH.,#355);
#233=FACE_OUTER_BOUND('',#356,.T.);
#234=PLANE('',#357);
#235=CURVE_STYLE('',#358,POSITIVE_LENGTH_MEASURE(1.0E-006),#359);
#236=LINE('',#360,#361);
#237=CURVE_STYLE('',#362,POSITIVE_LENGTH_MEASURE(1.0E-006),#363);
#238=CIRCLE('',#364,2.57128129211023);
#239=POINT_STYLE(' ',#365,POSITIVE_LENGTH_MEASURE(1.0E-006),#366);
#240=CARTESIAN_POINT('',(-7.08995280032018E-013,2.57128129211026,-9.00000000000003));
#241=SURFACE_STYLE_USAGE(.BOTH.,#367);
#242=FACE_OUTER_BOUND('',#368,.T.);
#243=CONICAL_SURFACE('',#369,4.19615242270663,0.261799387799149);
#244=POINT_STYLE(' ',#370,POSITIVE_LENGTH_MEASURE(1.0E-006),#371);
#245=CARTESIAN_POINT('',(7.13590613961699E-015,-2.99999999999997,-2.8421709430404E-014));
#246=SURFACE_STYLE_USAGE(.BOTH.,#372);
#247=FACE_OUTER_BOUND('',#373,.T.);
#248=CONICAL_SURFACE('',#374,2.78564064605511,0.26179938779914);
#249=POINT_STYLE(' ',#375,POSITIVE_LENGTH_MEASURE(1.0E-006),#376);
#250=CARTESIAN_POINT('',(-1.38542115941565E-012,5.00000000000003,3.99999999999997));
#251=SURFACE_STYLE_USAGE(.BOTH.,#377);
#252=FACE_OUTER_BOUND('',#378,.T.);
#253=PLANE('',#379);
#254=POINT_STYLE(' ',#380,POSITIVE_LENGTH_MEASURE(1.0E-006),#381);
#255=CARTESIAN_POINT('',(-9.37659710059904E-013,3.39230484541329,9.99999999999997));
#256=CURVE_STYLE('',#382,POSITIVE_LENGTH_MEASURE(1.0E-006),#383);
#257=LINE('',#384,#385);
#258=CURVE_STYLE('',#386,POSITIVE_LENGTH_MEASURE(1.0E-006),#387);
#259=LINE('',#388,#389);
#260=CURVE_STYLE('',#390,POSITIVE_LENGTH_MEASURE(1.0E-006),#391);
#261=CIRCLE('',#392,5.0);
#262=SURFACE_STYLE_USAGE(.BOTH.,#393);
#263=FACE_OUTER_BOUND('',#394,.T.);
#264=CONICAL_SURFACE('',#395,2.78564064605511,0.26179938779914);
#265=POINT_STYLE(' ',#396,POSITIVE_LENGTH_MEASURE(1.0E-006),#397);
#266=CARTESIAN_POINT('',(6.66358502844957E-015,-2.5712812921102,-9.00000000000003));
#267=CURVE_STYLE('',#398,POSITIVE_LENGTH_MEASURE(1.0E-006),#399);
#268=CIRCLE('',#400,3.0);
#269=CURVE_STYLE('',#401,POSITIVE_LENGTH_MEASURE(1.0E-006),#402);
#270=CIRCLE('',#403,3.0);
#271=PRODUCT_CONTEXT('',#54,'mechanical');
#272=PRODUCT_DEFINITION_FORMATION_WITH_SPECIFIED_SOURCE(' ','NONE',#155,.NOT_KNOWN.);
#273=CARTESIAN_POINT('',(0.0,0.0,0.0));
#274=DIRECTION('',(0.0,0.0,1.0));
#275=DIRECTION('',(1.0,0.0,0.0));
#276= (NAMED_UNIT(#163)LENGTH_UNIT()SI_UNIT(.MILLI.,.METRE.));
#277=DRAUGHTING_PRE_DEFINED_CURVE_FONT('continuous');
#278=COLOUR_RGB('',0.509803950786591,0.509803950786591,0.588235318660736);
#279=AXIS2_PLACEMENT_3D('',#405,#406,#407);
#280=DRAUGHTING_PRE_DEFINED_CURVE_FONT('continuous');
#281=COLOUR_RGB('',0.509803950786591,0.509803950786591,0.588235318660736);
#282=AXIS2_PLACEMENT_3D('',#408,#409,#410);
#283=PRE_DEFINED_MARKER('');
#284=COLOUR_RGB('',0.509803950786591,0.509803950786591,0.588235318660736);
#285=SURFACE_SIDE_STYLE('',(#411));
#286=EDGE_LOOP('',(#412,#413,#414,#415));
#287=AXIS2_PLACEMENT_3D('',#416,#417,#418);
#288=DRAUGHTING_PRE_DEFINED_CURVE_FONT('continuous');
#289=COLOUR_RGB('',0.509803950786591,0.509803950786591,0.588235318660736);
#290=AXIS2_PLACEMENT_3D('',#419,#420,#421);
#291=SURFACE_SIDE_STYLE('',(#422));
#292=EDGE_LOOP('',(#423,#424,#425,#426));
#293=AXIS2_PLACEMENT_3D('',#427,#428,#429);
#294=PRE_DEFINED_MARKER('');
#295=COLOUR_RGB('',0.509803950786591,0.509803950786591,0.588235318660736);
#296=DRAUGHTING_PRE_DEFINED_CURVE_FONT('continuous');
#297=COLOUR_RGB('',0.509803950786591,0.509803950786591,0.588235318660736);
#298=CARTESIAN_POINT('',(-1.38542115941565E-012,5.00000000000003,1.99999999999997));
#299=VECTOR('',#430,1.0);
#300=DRAUGHTING_PRE_DEFINED_CURVE_FONT('continuous');
#301=COLOUR_RGB('',0.509803950786591,0.509803950786591,0.588235318660736);
#302=CARTESIAN_POINT('',(8.42670145472777E-013,-2.99999999999997,-3.70000000000005));
#303=VECTOR('',#431,1.0);
#304=DRAUGHTING_PRE_DEFINED_CURVE_FONT('continuous');
#305=COLOUR_RGB('',0.509803950786591,0.509803950786591,0.588235318660736);
#306=AXIS2_PLACEMENT_3D('',#432,#433,#434);
#307=DRAUGHTING_PRE_DEFINED_CURVE_FONT('continuous');
#308=COLOUR_RGB('',0.509803950786591,0.509803950786591,0.588235318660736);
#309=AXIS2_PLACEMENT_3D('',#435,#436,#437);
#310=SURFACE_SIDE_STYLE('',(#438));
#311=EDGE_LOOP('',(#439,#440,#441,#442));
#312=AXIS2_PLACEMENT_3D('',#443,#444,#445);
#313=SURFACE_SIDE_STYLE('',(#446));
#314=EDGE_LOOP('',(#447,#448));
#315=EDGE_LOOP('',(#449,#450));
#316=AXIS2_PLACEMENT_3D('',#451,#452,#453);
#317=SURFACE_SIDE_STYLE('',(#454));
#318=DRAUGHTING_PRE_DEFINED_CURVE_FONT('continuous');
#319=COLOUR_RGB('',0.509803950786591,0.509803950786591,0.588235318660736);
#320=AXIS2_PLACEMENT_3D('',#455,#456,#457);
#321=PRE_DEFINED_MARKER('');
#322=COLOUR_RGB('',0.509803950786591,0.509803950786591,0.588235318660736);
#323=PRE_DEFINED_MARKER('');
#324=COLOUR_RGB('',0.509803950786591,0.509803950786591,0.588235318660736);
#325=PRE_DEFINED_MARKER('');
#326=COLOUR_RGB('',0.509803950786591,0.509803950786591,0.588235318660736);
#327=PRE_DEFINED_MARKER('');
#328=COLOUR_RGB('',0.509803950786591,0.509803950786591,0.588235318660736);
#329=DRAUGHTING_PRE_DEFINED_CURVE_FONT('continuous');
#330=COLOUR_RGB('',0.509803950786591,0.509803950786591,0.588235318660736);
#331=CARTESIAN_POINT('',(-8.28398333193543E-013,3.00000000000003,-3.70000000000005));
#332=VECTOR('',#458,1.0);
#333=DRAUGHTING_PRE_DEFINED_CURVE_FONT('continuous');
#334=COLOUR_RGB('',0.509803950786591,0.509803950786591,0.588235318660736);
#335=AXIS2_PLACEMENT_3D('',#459,#460,#461);
#336=SURFACE_SIDE_STYLE('',(#462));
#337=EDGE_LOOP('',(#463,#464,#465,#466));
#338=AXIS2_PLACEMENT_3D('',#467,#468,#469);
#339=DRAUGHTING_PRE_DEFINED_CURVE_FONT('continuous');
#340=COLOUR_RGB('',0.509803950786591,0.509803950786591,0.588235318660736);
#341=CARTESIAN_POINT('',(1.39969297169488E-012,-4.99999999999997,1.99999999999997));
#342=VECTOR('',#470,1.0);
#343=PRE_DEFINED_MARKER('');
#344=COLOUR_RGB('',0.509803950786591,0.509803950786591,0.588235318660736);
#345=DRAUGHTING_PRE_DEFINED_CURVE_FONT('continuous');
#346=COLOUR_RGB('',0.509803950786591,0.509803950786591,0.588235318660736);
#347=CARTESIAN_POINT('',(-7.6869680661278E-013,2.78564064605514,-8.20000000000005));
#348=VECTOR('',#471,1.0);
#349=SURFACE_SIDE_STYLE('',(#472));
#350=EDGE_LOOP('',(#473,#474,#475,#476));
#351=AXIS2_PLACEMENT_3D('',#477,#478,#479);
#352=DRAUGHTING_PRE_DEFINED_CURVE_FONT('continuous');
#353=COLOUR_RGB('',0.509803950786591,0.509803950786591,0.588235318660736);
#354=AXIS2_PLACEMENT_3D('',#480,#481,#482);
#355=SURFACE_SIDE_STYLE('',(#483));
#356=EDGE_LOOP('',(#484,#485));
#357=AXIS2_PLACEMENT_3D('',#486,#487,#488);
#358=DRAUGHTING_PRE_DEFINED_CURVE_FONT('continuous');
#359=COLOUR_RGB('',0.509803950786591,0.509803950786591,0.588235318660736);
#360=CARTESIAN_POINT('',(1.17581224701701E-012,-4.1961524227066,6.99999999999997));
#361=VECTOR('',#489,1.0);
#362=DRAUGHTING_PRE_DEFINED_CURVE_FONT('continuous');
#363=COLOUR_RGB('',0.509803950786591,0.509803950786591,0.588235318660736);
#364=AXIS2_PLACEMENT_3D('',#490,#491,#492);
#365=PRE_DEFINED_MARKER('');
#366=COLOUR_RGB('',0.509803950786591,0.509803950786591,0.588235318660736);
#367=SURFACE_SIDE_STYLE('',(#493));
#368=EDGE_LOOP('',(#494,#495,#496,#497));
#369=AXIS2_PLACEMENT_3D('',#498,#499,#500);
#370=PRE_DEFINED_MARKER('');
#371=COLOUR_RGB('',0.509803950786591,0.509803950786591,0.588235318660736);
#372=SURFACE_SIDE_STYLE('',(#501));
#373=EDGE_LOOP('',(#502,#503,#504,#505));
#374=AXIS2_PLACEMENT_3D('',#506,#507,#508);
#375=PRE_DEFINED_MARKER('');
#376=COLOUR_RGB('',0.509803950786591,0.509803950786591,0.588235318660736);
#377=SURFACE_SIDE_STYLE('',(#509));
#378=EDGE_LOOP('',(#510,#511));
#379=AXIS2_PLACEMENT_3D('',#512,#513,#514);
#380=PRE_DEFINED_MARKER('');
#381=COLOUR_RGB('',0.509803950786591,0.509803950786591,0.588235318660736);
#382=DRAUGHTING_PRE_DEFINED_CURVE_FONT('continuous');
#383=COLOUR_RGB('',0.509803950786591,0.509803950786591,0.588235318660736);
#384=CARTESIAN_POINT('',(7.82968618892015E-013,-2.78564064605509,-8.20000000000005));
#385=VECTOR('',#515,1.0);
#386=DRAUGHTING_PRE_DEFINED_CURVE_FONT('continuous');
#387=COLOUR_RGB('',0.509803950786591,0.509803950786591,0.588235318660736);
#388=CARTESIAN_POINT('',(-1.16154043473778E-012,4.19615242270666,6.99999999999997));
#389=VECTOR('',#516,1.0);
#390=DRAUGHTING_PRE_DEFINED_CURVE_FONT('continuous');
#391=COLOUR_RGB('',0.509803950786591,0.509803950786591,0.588235318660736);
#392=AXIS2_PLACEMENT_3D('',#517,#518,#519);
#393=SURFACE_SIDE_STYLE('',(#520));
#394=EDGE_LOOP('',(#521,#522,#523,#524));
#395=AXIS2_PLACEMENT_3D('',#525,#526,#527);
#396=PRE_DEFINED_MARKER('');
#397=COLOUR_RGB('',0.509803950786591,0.509803950786591,0.588235318660736);
#398=DRAUGHTING_PRE_DEFINED_CURVE_FONT('continuous');
#399=COLOUR_RGB('',0.509803950786591,0.509803950786591,0.588235318660736);
#400=AXIS2_PLACEMENT_3D('',#528,#529,#530);
#401=DRAUGHTING_PRE_DEFINED_CURVE_FONT('continuous');
#402=COLOUR_RGB('',0.509803950786591,0.509803950786591,0.588235318660736);
#403=AXIS2_PLACEMENT_3D('',#531,#532,#533);
#405=CARTESIAN_POINT('',(7.13590613961699E-015,2.8421709430404E-014,3.99999999999997));
#406=DIRECTION('',(0.0,0.0,1.0));
#407=DIRECTION('',(2.78633873746436E-013,-1.0,0.0));
#408=CARTESIAN_POINT('',(7.13590613961699E-015,2.8421709430404E-014,-2.8421709430404E-014));
#409=DIRECTION('',(0.0,0.0,1.0));
#410=DIRECTION('',(2.78633873746436E-013,-1.0,0.0));
#411=SURFACE_STYLE_FILL_AREA(#534);
#412=ORIENTED_EDGE('',*,*,#112,.T.);
#413=ORIENTED_EDGE('',*,*,#68,.F.);
#414=ORIENTED_EDGE('',*,*,#82,.T.);
#415=ORIENTED_EDGE('',*,*,#70,.T.);
#416=CARTESIAN_POINT('',(7.13590613961699E-015,2.8421709430404E-014,1.99999999999997));
#417=DIRECTION('',(-0.0,-0.0,-1.0));
#418=DIRECTION('',(2.78633873746436E-013,-1.0,0.0));
#419=CARTESIAN_POINT('',(7.13590613961699E-015,2.8421709430404E-014,9.99999999999997));
#420=DIRECTION('',(0.0,0.0,1.0));
#421=DIRECTION('',(2.78633873746436E-013,-1.0,0.0));
#422=SURFACE_STYLE_FILL_AREA(#535);
#423=ORIENTED_EDGE('',*,*,#84,.F.);
#424=ORIENTED_EDGE('',*,*,#152,.T.);
#425=ORIENTED_EDGE('',*,*,#106,.F.);
#426=ORIENTED_EDGE('',*,*,#154,.F.);
#427=CARTESIAN_POINT('',(7.13590613961699E-015,2.8421709430404E-014,-3.70000000000005));
#428=DIRECTION('',(-0.0,-0.0,-1.0));
#429=DIRECTION('',(2.78633873746436E-013,-1.0,0.0));
#430=DIRECTION('',(-0.0,-0.0,-1.0));
#431=DIRECTION('',(0.0,0.0,1.0));
#432=CARTESIAN_POINT('',(7.13590613961699E-015,2.8421709430404E-014,-7.40000000000006));
#433=DIRECTION('',(0.0,0.0,1.0));
#434=DIRECTION('',(2.78633873746436E-013,-1.0,0.0));
#435=CARTESIAN_POINT('',(7.13590613961699E-015,2.8421709430404E-014,-2.8421709430404E-014));
#436=DIRECTION('',(0.0,0.0,1.0));
#437=DIRECTION('',(2.78633873746436E-013,-1.0,0.0));
#438=SURFACE_STYLE_FILL_AREA(#536);
#439=ORIENTED_EDGE('',*,*,#84,.T.);
#440=ORIENTED_EDGE('',*,*,#88,.F.);
#441=ORIENTED_EDGE('',*,*,#106,.T.);
#442=ORIENTED_EDGE('',*,*,#86,.T.);
#443=CARTESIAN_POINT('',(7.13590613961699E-015,2.8421709430404E-014,-3.70000000000005));
#444=DIRECTION('',(-0.0,-0.0,-1.0));
#445=DIRECTION('',(2.78633873746436E-013,-1.0,0.0));
#446=SURFACE_STYLE_FILL_AREA(#537);
#447=ORIENTED_EDGE('',*,*,#146,.F.);
#448=ORIENTED_EDGE('',*,*,#70,.F.);
#449=ORIENTED_EDGE('',*,*,#154,.T.);
#450=ORIENTED_EDGE('',*,*,#88,.T.);
#451=CARTESIAN_POINT('',(6.95221518654363E-015,-3.99999999999997,-2.8421709430404E-014));
#452=DIRECTION('',(0.0,0.0,-1.0));
#453=DIRECTION('',(1.83690953073357E-016,1.0,0.0));
#454=SURFACE_STYLE_FILL_AREA(#538);
#455=CARTESIAN_POINT('',(7.13590613961699E-015,2.8421709430404E-014,3.99999999999997));
#456=DIRECTION('',(0.0,0.0,1.0));
#457=DIRECTION('',(2.78633873746436E-013,-1.0,0.0));
#458=DIRECTION('',(-0.0,-0.0,-1.0));
#459=CARTESIAN_POINT('',(7.13590613961699E-015,2.8421709430404E-014,-9.00000000000003));
#460=DIRECTION('',(0.0,0.0,1.0));
#461=DIRECTION('',(2.78633873746436E-013,-1.0,0.0));
#462=SURFACE_STYLE_FILL_AREA(#539);
#463=ORIENTED_EDGE('',*,*,#112,.F.);
#464=ORIENTED_EDGE('',*,*,#146,.T.);
#465=ORIENTED_EDGE('',*,*,#82,.F.);
#466=ORIENTED_EDGE('',*,*,#96,.F.);
#467=CARTESIAN_POINT('',(7.13590613961699E-015,2.8421709430404E-014,1.99999999999997));
#468=DIRECTION('',(-0.0,-0.0,-1.0));
#469=DIRECTION('',(2.78633873746436E-013,-1.0,0.0));
#470=DIRECTION('',(0.0,0.0,1.0));
#471=DIRECTION('',(7.20840579915541E-014,-0.258819045102512,-0.965925826289071));
#472=SURFACE_STYLE_FILL_AREA(#540);
#473=ORIENTED_EDGE('',*,*,#124,.F.);
#474=ORIENTED_EDGE('',*,*,#96,.T.);
#475=ORIENTED_EDGE('',*,*,#144,.F.);
#476=ORIENTED_EDGE('',*,*,#76,.F.);
#477=CARTESIAN_POINT('',(7.13590613961699E-015,2.8421709430404E-014,6.99999999999997));
#478=DIRECTION('',(-0.0,-0.0,-1.0));
#479=DIRECTION('',(2.78633873746436E-013,-1.0,0.0));
#480=CARTESIAN_POINT('',(7.13590613961699E-015,2.8421709430404E-014,9.99999999999997));
#481=DIRECTION('',(0.0,0.0,1.0));
#482=DIRECTION('',(2.78633873746436E-013,-1.0,0.0));
#483=SURFACE_STYLE_FILL_AREA(#541);
#484=ORIENTED_EDGE('',*,*,#76,.T.);
#485=ORIENTED_EDGE('',*,*,#120,.T.);
#486=CARTESIAN_POINT('',(7.98771432066358E-015,-1.6961524227066,9.99999999999997));
#487=DIRECTION('',(0.0,0.0,1.0));
#488=DIRECTION('',(-1.83690953073357E-016,-1.0,0.0));
#489=DIRECTION('',(-7.20840579915565E-014,0.258819045102521,0.965925826289068));
#490=CARTESIAN_POINT('',(7.13590613961699E-015,2.8421709430404E-014,-9.00000000000003));
#491=DIRECTION('',(0.0,0.0,1.0));
#492=DIRECTION('',(2.78633873746436E-013,-1.0,0.0));
#493=SURFACE_STYLE_FILL_AREA(#542);
#494=ORIENTED_EDGE('',*,*,#124,.T.);
#495=ORIENTED_EDGE('',*,*,#120,.F.);
#496=ORIENTED_EDGE('',*,*,#144,.T.);
#497=ORIENTED_EDGE('',*,*,#68,.T.);
#498=CARTESIAN_POINT('',(7.13590613961699E-015,2.8421709430404E-014,6.99999999999997));
#499=DIRECTION('',(-0.0,-0.0,-1.0));
#500=DIRECTION('',(2.78633873746436E-013,-1.0,0.0));
#501=SURFACE_STYLE_FILL_AREA(#543);
#502=ORIENTED_EDGE('',*,*,#142,.T.);
#503=ORIENTED_EDGE('',*,*,#86,.F.);
#504=ORIENTED_EDGE('',*,*,#116,.T.);
#505=ORIENTED_EDGE('',*,*,#108,.T.);
#506=CARTESIAN_POINT('',(7.13590613961699E-015,2.8421709430404E-014,-8.20000000000005));
#507=DIRECTION('',(-0.0,0.0,1.0));
#508=DIRECTION('',(2.78633873746436E-013,-1.0,0.0));
#509=SURFACE_STYLE_FILL_AREA(#544);
#510=ORIENTED_EDGE('',*,*,#126,.F.);
#511=ORIENTED_EDGE('',*,*,#108,.F.);
#512=CARTESIAN_POINT('',(6.89974558403328E-015,-1.28564064605509,-9.00000000000003));
#513=DIRECTION('',(0.0,0.0,-1.0));
#514=DIRECTION('',(1.83690953073357E-016,1.0,0.0));
#515=DIRECTION('',(7.20840579915541E-014,-0.258819045102512,0.965925826289071));
#516=DIRECTION('',(-7.20840579915565E-014,0.258819045102521,-0.965925826289068));
#517=CARTESIAN_POINT('',(7.13590613961699E-015,2.8421709430404E-014,-2.8421709430404E-014));
#518=DIRECTION('',(0.0,0.0,1.0));
#519=DIRECTION('',(2.78633873746436E-013,-1.0,0.0));
#520=SURFACE_STYLE_FILL_AREA(#545);
#521=ORIENTED_EDGE('',*,*,#142,.F.);
#522=ORIENTED_EDGE('',*,*,#126,.T.);
#523=ORIENTED_EDGE('',*,*,#116,.F.);
#524=ORIENTED_EDGE('',*,*,#152,.F.);
#525=CARTESIAN_POINT('',(7.13590613961699E-015,2.8421709430404E-014,-8.20000000000005));
#526=DIRECTION('',(-0.0,0.0,1.0));
#527=DIRECTION('',(2.78633873746436E-013,-1.0,0.0));
#528=CARTESIAN_POINT('',(7.13590613961699E-015,2.8421709430404E-014,-7.40000000000006));
#529=DIRECTION('',(0.0,0.0,1.0));
#530=DIRECTION('',(2.78633873746436E-013,-1.0,0.0));
#531=CARTESIAN_POINT('',(7.13590613961699E-015,2.8421709430404E-014,-2.8421709430404E-014));
#532=DIRECTION('',(0.0,0.0,1.0));
#533=DIRECTION('',(2.78633873746436E-013,-1.0,0.0));
#534=FILL_AREA_STYLE('',(#546));
#535=FILL_AREA_STYLE('',(#547));
#536=FILL_AREA_STYLE('',(#548));
#537=FILL_AREA_STYLE('',(#549));
#538=FILL_AREA_STYLE('',(#550));
#539=FILL_AREA_STYLE('',(#551));
#540=FILL_AREA_STYLE('',(#552));
#541=FILL_AREA_STYLE('',(#553));
#542=FILL_AREA_STYLE('',(#554));
#543=FILL_AREA_STYLE('',(#555));
#544=FILL_AREA_STYLE('',(#556));
#545=FILL_AREA_STYLE('',(#557));
#546=FILL_AREA_STYLE_COLOUR('',#558);
#547=FILL_AREA_STYLE_COLOUR('',#559);
#548=FILL_AREA_STYLE_COLOUR('',#560);
#549=FILL_AREA_STYLE_COLOUR('',#561);
#550=FILL_AREA_STYLE_COLOUR('',#562);
#551=FILL_AREA_STYLE_COLOUR('',#563);
#552=FILL_AREA_STYLE_COLOUR('',#564);
#553=FILL_AREA_STYLE_COLOUR('',#565);
#554=FILL_AREA_STYLE_COLOUR('',#566);
#555=FILL_AREA_STYLE_COLOUR('',#567);
#556=FILL_AREA_STYLE_COLOUR('',#568);
#557=FILL_AREA_STYLE_COLOUR('',#569);
#558=COLOUR_RGB('',0.509803950786591,0.509803950786591,0.588235318660736);
#559=COLOUR_RGB('',0.509803950786591,0.509803950786591,0.588235318660736);
#560=COLOUR_RGB('',0.509803950786591,0.509803950786591,0.588235318660736);
#561=COLOUR_RGB('',0.509803950786591,0.509803950786591,0.588235318660736);
#562=COLOUR_RGB('',0.509803950786591,0.509803950786591,0.588235318660736);
#563=COLOUR_RGB('',0.509803950786591,0.509803950786591,0.588235318660736);
#564=COLOUR_RGB('',0.509803950786591,0.509803950786591,0.588235318660736);
#565=COLOUR_RGB('',0.509803950786591,0.509803950786591,0.588235318660736);
#566=COLOUR_RGB('',0.509803950786591,0.509803950786591,0.588235318660736);
#567=COLOUR_RGB('',0.509803950786591,0.509803950786591,0.588235318660736);
#568=COLOUR_RGB('',0.509803950786591,0.509803950786591,0.588235318660736);
#569=COLOUR_RGB('',0.509803950786591,0.509803950786591,0.588235318660736);
ENDSEC;
END-ISO-10303-21;
