ISO-10303-21;
HEADER;
FILE_DESCRIPTION(('STEP AP214'),'1');
FILE_NAME(' ','  ',('TraceParts'),('TraceParts S.A.'),'XStep 1.0',' ',' ');
FILE_SCHEMA(('automotive_design'));
ENDSEC;
DATA;
#1=MECHANICAL_DESIGN_GEOMETRIC_PRESENTATION_REPRESENTATION(' ',(#10,#11,#12,#13,#14,#15,#16,#17,#18,#19,#20,#21,#22,#23,#24,#25,#26,#27,#28,#29,#30,#31,#32,#33,#34,#35,#36,#37,#38,#39,#40,#41,#42,#43,#44,#45,#46,#47,#48,#49,#50,#51,#52,#53),#6);
#2=PRODUCT_DEFINITION_CONTEXT('',#54,'design');
#3=APPLICATION_PROTOCOL_DEFINITION('INTERNATIONAL STANDARD','automotive_design',1994,#54);
#4=PRODUCT_CATEGORY_RELATIONSHIP('NONE','NONE',#55,#56);
#5=SHAPE_DEFINITION_REPRESENTATION(#57,#58);
#6= (GEOMETRIC_REPRESENTATION_CONTEXT(3)GLOBAL_UNCERTAINTY_ASSIGNED_CONTEXT((#61))GLOBAL_UNIT_ASSIGNED_CONTEXT((#63,#64,#65))REPRESENTATION_CONTEXT('NONE','WORKSPACE'));
#10=STYLED_ITEM('',(#67),#68);
#11=STYLED_ITEM('',(#69),#70);
#12=STYLED_ITEM('',(#71),#72);
#13=STYLED_ITEM('',(#73),#74);
#14=STYLED_ITEM('',(#75),#76);
#15=STYLED_ITEM('',(#77),#78);
#16=STYLED_ITEM('',(#79),#80);
#17=STYLED_ITEM('',(#81),#82);
#18=STYLED_ITEM('',(#83),#84);
#19=STYLED_ITEM('',(#85),#86);
#20=STYLED_ITEM('',(#87),#88);
#21=STYLED_ITEM('',(#89),#90);
#22=STYLED_ITEM('',(#91),#92);
#23=STYLED_ITEM('',(#93),#94);
#24=STYLED_ITEM('',(#95),#96);
#25=STYLED_ITEM('',(#97),#98);
#26=STYLED_ITEM('',(#99),#100);
#27=STYLED_ITEM('',(#101),#102);
#28=STYLED_ITEM('',(#103),#104);
#29=STYLED_ITEM('',(#105),#106);
#30=STYLED_ITEM('',(#107),#108);
#31=STYLED_ITEM('',(#109),#110);
#32=STYLED_ITEM('',(#111),#112);
#33=STYLED_ITEM('',(#113),#114);
#34=STYLED_ITEM('',(#115),#116);
#35=STYLED_ITEM('',(#117),#118);
#36=STYLED_ITEM('',(#119),#120);
#37=STYLED_ITEM('',(#121),#122);
#38=STYLED_ITEM('',(#123),#124);
#39=STYLED_ITEM('',(#125),#126);
#40=STYLED_ITEM('',(#127),#128);
#41=STYLED_ITEM('',(#129),#130);
#42=STYLED_ITEM('',(#131),#132);
#43=STYLED_ITEM('',(#133),#134);
#44=STYLED_ITEM('',(#135),#136);
#45=STYLED_ITEM('',(#137),#138);
#46=STYLED_ITEM('',(#139),#140);
#47=STYLED_ITEM('',(#141),#142);
#48=STYLED_ITEM('',(#143),#144);
#49=STYLED_ITEM('',(#145),#146);
#50=STYLED_ITEM('',(#147),#148);
#51=STYLED_ITEM('',(#149),#150);
#52=STYLED_ITEM('',(#151),#152);
#53=STYLED_ITEM('',(#153),#154);
#54=APPLICATION_CONTEXT(' ');
#55=PRODUCT_CATEGORY('part','NONE');
#56=PRODUCT_RELATED_PRODUCT_CATEGORY('detail',' ',(#155));
#57=PRODUCT_DEFINITION_SHAPE('NONE','NONE',#156);
#58=ADVANCED_BREP_SHAPE_REPRESENTATION('1',(#128,#157),#6);
#61=UNCERTAINTY_MEASURE_WITH_UNIT(LENGTH_MEASURE(1.0E-006),#63,'','');
#63= (CONVERSION_BASED_UNIT('MILLIMETRE',#160)LENGTH_UNIT()NAMED_UNIT(#163));
#64= (NAMED_UNIT(#165)PLANE_ANGLE_UNIT()SI_UNIT($,.RADIAN.));
#65= (NAMED_UNIT(#165)SOLID_ANGLE_UNIT()SI_UNIT($,.STERADIAN.));
#67=PRESENTATION_STYLE_ASSIGNMENT((#171));
#68=VERTEX_POINT('',#172);
#69=PRESENTATION_STYLE_ASSIGNMENT((#173));
#70=EDGE_CURVE('',#68,#86,#174,.T.);
#71=PRESENTATION_STYLE_ASSIGNMENT((#175));
#72=ADVANCED_FACE('',(#176),#177,.T.);
#73=PRESENTATION_STYLE_ASSIGNMENT((#178));
#74=ADVANCED_FACE('',(#179),#180,.T.);
#75=PRESENTATION_STYLE_ASSIGNMENT((#181));
#76=ADVANCED_FACE('',(#182),#183,.T.);
#77=PRESENTATION_STYLE_ASSIGNMENT((#184));
#78=EDGE_CURVE('',#112,#90,#185,.T.);
#79=PRESENTATION_STYLE_ASSIGNMENT((#186));
#80=EDGE_CURVE('',#68,#90,#187,.T.);
#81=PRESENTATION_STYLE_ASSIGNMENT((#188));
#82=ADVANCED_FACE('',(#189),#190,.T.);
#83=PRESENTATION_STYLE_ASSIGNMENT((#191));
#84=ADVANCED_FACE('',(#192),#193,.T.);
#85=PRESENTATION_STYLE_ASSIGNMENT((#194));
#86=VERTEX_POINT('',#195);
#87=PRESENTATION_STYLE_ASSIGNMENT((#196));
#88=EDGE_CURVE('',#86,#112,#197,.T.);
#89=PRESENTATION_STYLE_ASSIGNMENT((#198));
#90=VERTEX_POINT('',#199);
#91=PRESENTATION_STYLE_ASSIGNMENT((#200));
#92=EDGE_CURVE('',#124,#138,#201,.T.);
#93=PRESENTATION_STYLE_ASSIGNMENT((#202));
#94=ADVANCED_FACE('',(#203),#204,.T.);
#95=PRESENTATION_STYLE_ASSIGNMENT((#205));
#96=VERTEX_POINT('',#206);
#97=PRESENTATION_STYLE_ASSIGNMENT((#207));
#98=EDGE_CURVE('',#90,#68,#208,.T.);
#99=PRESENTATION_STYLE_ASSIGNMENT((#209));
#100=EDGE_CURVE('',#104,#148,#210,.T.);
#101=PRESENTATION_STYLE_ASSIGNMENT((#211));
#102=EDGE_CURVE('',#138,#124,#212,.T.);
#103=PRESENTATION_STYLE_ASSIGNMENT((#213));
#104=VERTEX_POINT('',#214);
#105=PRESENTATION_STYLE_ASSIGNMENT((#215));
#106=ADVANCED_FACE('',(#216,#217),#218,.T.);
#107=PRESENTATION_STYLE_ASSIGNMENT((#219));
#108=EDGE_CURVE('',#96,#122,#220,.T.);
#109=PRESENTATION_STYLE_ASSIGNMENT((#221));
#110=EDGE_CURVE('',#90,#96,#222,.T.);
#111=PRESENTATION_STYLE_ASSIGNMENT((#223));
#112=VERTEX_POINT('',#224);
#113=PRESENTATION_STYLE_ASSIGNMENT((#225));
#114=EDGE_CURVE('',#122,#68,#226,.T.);
#115=PRESENTATION_STYLE_ASSIGNMENT((#227));
#116=EDGE_CURVE('',#104,#138,#228,.T.);
#117=PRESENTATION_STYLE_ASSIGNMENT((#229));
#118=EDGE_CURVE('',#138,#132,#230,.T.);
#119=PRESENTATION_STYLE_ASSIGNMENT((#231));
#120=EDGE_CURVE('',#132,#140,#232,.T.);
#121=PRESENTATION_STYLE_ASSIGNMENT((#233));
#122=VERTEX_POINT('',#234);
#123=PRESENTATION_STYLE_ASSIGNMENT((#235));
#124=VERTEX_POINT('',#236);
#125=PRESENTATION_STYLE_ASSIGNMENT((#237));
#126=EDGE_CURVE('',#140,#132,#238,.T.);
#127=PRESENTATION_STYLE_ASSIGNMENT((#239));
#128=MANIFOLD_SOLID_BREP('1',#240);
#129=PRESENTATION_STYLE_ASSIGNMENT((#241));
#130=EDGE_CURVE('',#112,#86,#242,.T.);
#131=PRESENTATION_STYLE_ASSIGNMENT((#243));
#132=VERTEX_POINT('',#244);
#133=PRESENTATION_STYLE_ASSIGNMENT((#245));
#134=ADVANCED_FACE('',(#246),#247,.T.);
#135=PRESENTATION_STYLE_ASSIGNMENT((#248));
#136=EDGE_CURVE('',#124,#148,#249,.T.);
#137=PRESENTATION_STYLE_ASSIGNMENT((#250));
#138=VERTEX_POINT('',#251);
#139=PRESENTATION_STYLE_ASSIGNMENT((#252));
#140=VERTEX_POINT('',#253);
#141=PRESENTATION_STYLE_ASSIGNMENT((#254));
#142=ADVANCED_FACE('',(#255),#256,.T.);
#143=PRESENTATION_STYLE_ASSIGNMENT((#257));
#144=EDGE_CURVE('',#140,#124,#258,.T.);
#145=PRESENTATION_STYLE_ASSIGNMENT((#259));
#146=ADVANCED_FACE('',(#260),#261,.T.);
#147=PRESENTATION_STYLE_ASSIGNMENT((#262));
#148=VERTEX_POINT('',#263);
#149=PRESENTATION_STYLE_ASSIGNMENT((#264));
#150=EDGE_CURVE('',#122,#96,#265,.T.);
#151=PRESENTATION_STYLE_ASSIGNMENT((#266));
#152=ADVANCED_FACE('',(#267),#268,.T.);
#153=PRESENTATION_STYLE_ASSIGNMENT((#269));
#154=EDGE_CURVE('',#148,#104,#270,.T.);
#155=PRODUCT('1','1','PART-1-DESC',(#271));
#156=PRODUCT_DEFINITION('NONE','NONE',#272,#2);
#157=AXIS2_PLACEMENT_3D('',#273,#274,#275);
#160=LENGTH_MEASURE_WITH_UNIT(LENGTH_MEASURE(1.0),#276);
#163=DIMENSIONAL_EXPONENTS(1.0,0.0,0.0,0.0,0.0,0.0,0.0);
#165=DIMENSIONAL_EXPONENTS(0.0,0.0,0.0,0.0,0.0,0.0,0.0);
#171=POINT_STYLE(' ',#277,POSITIVE_LENGTH_MEASURE(1.0E-006),#278);
#172=CARTESIAN_POINT('',(-2.07250916370124E-012,4.00000000000003,9.99999999999997));
#173=CURVE_STYLE('',#279,POSITIVE_LENGTH_MEASURE(1.0E-006),#280);
#174=LINE('',#281,#282);
#175=SURFACE_STYLE_USAGE(.BOTH.,#283);
#176=FACE_OUTER_BOUND('',#284,.T.);
#177=CYLINDRICAL_SURFACE('',#285,3.0);
#178=SURFACE_STYLE_USAGE(.BOTH.,#286);
#179=FACE_OUTER_BOUND('',#287,.T.);
#180=CONICAL_SURFACE('',#288,2.78564064605511,0.26179938779914);
#181=SURFACE_STYLE_USAGE(.BOTH.,#289);
#182=FACE_OUTER_BOUND('',#290,.T.);
#183=CYLINDRICAL_SURFACE('',#291,4.0);
#184=CURVE_STYLE('',#292,POSITIVE_LENGTH_MEASURE(1.0E-006),#293);
#185=LINE('',#294,#295);
#186=CURVE_STYLE('',#296,POSITIVE_LENGTH_MEASURE(1.0E-006),#297);
#187=CIRCLE('',#298,4.0);
#188=SURFACE_STYLE_USAGE(.BOTH.,#299);
#189=FACE_OUTER_BOUND('',#300,.T.);
#190=PLANE('',#301);
#191=SURFACE_STYLE_USAGE(.BOTH.,#302);
#192=FACE_OUTER_BOUND('',#303,.T.);
#193=CONICAL_SURFACE('',#304,2.78564064605511,0.26179938779914);
#194=POINT_STYLE(' ',#305,POSITIVE_LENGTH_MEASURE(1.0E-006),#306);
#195=CARTESIAN_POINT('',(-2.07250916370124E-012,4.00000000000003,-2.8421709430404E-014));
#196=CURVE_STYLE('',#307,POSITIVE_LENGTH_MEASURE(1.0E-006),#308);
#197=CIRCLE('',#309,4.0);
#198=POINT_STYLE(' ',#310,POSITIVE_LENGTH_MEASURE(1.0E-006),#311);
#199=CARTESIAN_POINT('',(7.56451836345482E-015,-3.99999999999997,9.99999999999997));
#200=CURVE_STYLE('',#312,POSITIVE_LENGTH_MEASURE(1.0E-006),#313);
#201=CIRCLE('',#314,3.0);
#202=SURFACE_STYLE_USAGE(.BOTH.,#315);
#203=FACE_OUTER_BOUND('',#316,.T.);
#204=PLANE('',#317);
#205=POINT_STYLE(' ',#318,POSITIVE_LENGTH_MEASURE(1.0E-006),#319);
#206=CARTESIAN_POINT('',(8.22721932479899E-015,-2.39230484541324,16.0));
#207=CURVE_STYLE('',#320,POSITIVE_LENGTH_MEASURE(1.0E-006),#321);
#208=CIRCLE('',#322,4.0);
#209=CURVE_STYLE('',#323,POSITIVE_LENGTH_MEASURE(1.0E-006),#324);
#210=CIRCLE('',#325,3.0);
#211=CURVE_STYLE('',#326,POSITIVE_LENGTH_MEASURE(1.0E-006),#327);
#212=CIRCLE('',#328,3.0);
#213=POINT_STYLE(' ',#329,POSITIVE_LENGTH_MEASURE(1.0E-006),#330);
#214=CARTESIAN_POINT('',(-1.55259789624102E-012,3.00000000000003,-2.8421709430404E-014));
#215=SURFACE_STYLE_USAGE(.BOTH.,#331);
#216=FACE_OUTER_BOUND('',#332,.T.);
#217=FACE_BOUND('',#333,.T.);
#218=PLANE('',#334);
#219=CURVE_STYLE('',#335,POSITIVE_LENGTH_MEASURE(1.0E-006),#336);
#220=CIRCLE('',#337,2.39230484541326);
#221=CURVE_STYLE('',#338,POSITIVE_LENGTH_MEASURE(1.0E-006),#339);
#222=LINE('',#340,#341);
#223=POINT_STYLE(' ',#342,POSITIVE_LENGTH_MEASURE(1.0E-006),#343);
#224=CARTESIAN_POINT('',(6.95221518654363E-015,-3.99999999999997,-2.8421709430404E-014));
#225=CURVE_STYLE('',#344,POSITIVE_LENGTH_MEASURE(1.0E-006),#345);
#226=LINE('',#346,#347);
#227=CURVE_STYLE('',#348,POSITIVE_LENGTH_MEASURE(1.0E-006),#349);
#228=LINE('',#350,#351);
#229=CURVE_STYLE('',#352,POSITIVE_LENGTH_MEASURE(1.0E-006),#353);
#230=LINE('',#354,#355);
#231=CURVE_STYLE('',#356,POSITIVE_LENGTH_MEASURE(1.0E-006),#357);
#232=CIRCLE('',#358,2.57128129211023);
#233=POINT_STYLE(' ',#359,POSITIVE_LENGTH_MEASURE(1.0E-006),#360);
#234=CARTESIAN_POINT('',(-1.2366503381904E-012,2.39230484541329,16.0));
#235=POINT_STYLE(' ',#361,POSITIVE_LENGTH_MEASURE(1.0E-006),#362);
#236=CARTESIAN_POINT('',(6.68280178870271E-015,-2.99999999999997,-7.40000000000006));
#237=CURVE_STYLE('',#363,POSITIVE_LENGTH_MEASURE(1.0E-006),#364);
#238=CIRCLE('',#365,2.57128129211023);
#239=SURFACE_STYLE_USAGE(.BOTH.,#366);
#240=CLOSED_SHELL('',(#152,#134,#146,#74,#94,#84,#72,#106,#76,#142,#82));
#241=CURVE_STYLE('',#367,POSITIVE_LENGTH_MEASURE(1.0E-006),#368);
#242=CIRCLE('',#369,4.0);
#243=POINT_STYLE(' ',#370,POSITIVE_LENGTH_MEASURE(1.0E-006),#371);
#244=CARTESIAN_POINT('',(-1.32970220943815E-012,2.57128129211026,-9.00000000000003));
#245=SURFACE_STYLE_USAGE(.BOTH.,#372);
#246=FACE_OUTER_BOUND('',#373,.T.);
#247=CYLINDRICAL_SURFACE('',#374,4.0);
#248=CURVE_STYLE('',#375,POSITIVE_LENGTH_MEASURE(1.0E-006),#376);
#249=LINE('',#377,#378);
#250=POINT_STYLE(' ',#379,POSITIVE_LENGTH_MEASURE(1.0E-006),#380);
#251=CARTESIAN_POINT('',(-1.55259789624102E-012,3.00000000000003,-7.40000000000006));
#252=POINT_STYLE(' ',#381,POSITIVE_LENGTH_MEASURE(1.0E-006),#382);
#253=CARTESIAN_POINT('',(6.66358502844957E-015,-2.5712812921102,-9.00000000000003));
#254=SURFACE_STYLE_USAGE(.BOTH.,#383);
#255=FACE_OUTER_BOUND('',#384,.T.);
#256=CONICAL_SURFACE('',#385,3.19615242270663,0.261799387799149);
#257=CURVE_STYLE('',#386,POSITIVE_LENGTH_MEASURE(1.0E-006),#387);
#258=LINE('',#388,#389);
#259=SURFACE_STYLE_USAGE(.BOTH.,#390);
#260=FACE_OUTER_BOUND('',#391,.T.);
#261=CYLINDRICAL_SURFACE('',#392,3.0);
#262=POINT_STYLE(' ',#393,POSITIVE_LENGTH_MEASURE(1.0E-006),#394);
#263=CARTESIAN_POINT('',(7.13590613961699E-015,-2.99999999999997,-2.8421709430404E-014));
#264=CURVE_STYLE('',#395,POSITIVE_LENGTH_MEASURE(1.0E-006),#396);
#265=CIRCLE('',#397,2.39230484541326);
#266=SURFACE_STYLE_USAGE(.BOTH.,#398);
#267=FACE_OUTER_BOUND('',#399,.T.);
#268=CONICAL_SURFACE('',#400,3.19615242270663,0.261799387799149);
#269=CURVE_STYLE('',#401,POSITIVE_LENGTH_MEASURE(1.0E-006),#402);
#270=CIRCLE('',#403,3.0);
#271=PRODUCT_CONTEXT('',#54,'mechanical');
#272=PRODUCT_DEFINITION_FORMATION_WITH_SPECIFIED_SOURCE(' ','NONE',#155,.NOT_KNOWN.);
#273=CARTESIAN_POINT('',(0.0,0.0,0.0));
#274=DIRECTION('',(0.0,0.0,1.0));
#275=DIRECTION('',(1.0,0.0,0.0));
#276= (NAMED_UNIT(#163)LENGTH_UNIT()SI_UNIT(.MILLI.,.METRE.));
#277=PRE_DEFINED_MARKER('');
#278=COLOUR_RGB('',0.509803950786591,0.509803950786591,0.588235318660736);
#279=DRAUGHTING_PRE_DEFINED_CURVE_FONT('continuous');
#280=COLOUR_RGB('',0.509803950786591,0.509803950786591,0.588235318660736);
#281=CARTESIAN_POINT('',(-2.07250916370124E-012,4.00000000000003,4.99999999999997));
#282=VECTOR('',#405,1.0);
#283=SURFACE_SIDE_STYLE('',(#406));
#284=EDGE_LOOP('',(#407,#408,#409,#410));
#285=AXIS2_PLACEMENT_3D('',#411,#412,#413);
#286=SURFACE_SIDE_STYLE('',(#414));
#287=EDGE_LOOP('',(#415,#416,#417,#418));
#288=AXIS2_PLACEMENT_3D('',#419,#420,#421);
#289=SURFACE_SIDE_STYLE('',(#422));
#290=EDGE_LOOP('',(#423,#424,#425,#426));
#291=AXIS2_PLACEMENT_3D('',#427,#428,#429);
#292=DRAUGHTING_PRE_DEFINED_CURVE_FONT('continuous');
#293=COLOUR_RGB('',0.509803950786591,0.509803950786591,0.588235318660736);
#294=CARTESIAN_POINT('',(2.08678097598047E-012,-3.99999999999997,4.99999999999997));
#295=VECTOR('',#430,1.0);
#296=DRAUGHTING_PRE_DEFINED_CURVE_FONT('continuous');
#297=COLOUR_RGB('',0.509803950786591,0.509803950786591,0.588235318660736);
#298=AXIS2_PLACEMENT_3D('',#431,#432,#433);
#299=SURFACE_SIDE_STYLE('',(#434));
#300=EDGE_LOOP('',(#435,#436));
#301=AXIS2_PLACEMENT_3D('',#437,#438,#439);
#302=SURFACE_SIDE_STYLE('',(#440));
#303=EDGE_LOOP('',(#441,#442,#443,#444));
#304=AXIS2_PLACEMENT_3D('',#445,#446,#447);
#305=PRE_DEFINED_MARKER('');
#306=COLOUR_RGB('',0.509803950786591,0.509803950786591,0.588235318660736);
#307=DRAUGHTING_PRE_DEFINED_CURVE_FONT('continuous');
#308=COLOUR_RGB('',0.509803950786591,0.509803950786591,0.588235318660736);
#309=AXIS2_PLACEMENT_3D('',#448,#449,#450);
#310=PRE_DEFINED_MARKER('');
#311=COLOUR_RGB('',0.509803950786591,0.509803950786591,0.588235318660736);
#312=DRAUGHTING_PRE_DEFINED_CURVE_FONT('continuous');
#313=COLOUR_RGB('',0.509803950786591,0.509803950786591,0.588235318660736);
#314=AXIS2_PLACEMENT_3D('',#451,#452,#453);
#315=SURFACE_SIDE_STYLE('',(#454));
#316=EDGE_LOOP('',(#455,#456));
#317=AXIS2_PLACEMENT_3D('',#457,#458,#459);
#318=PRE_DEFINED_MARKER('');
#319=COLOUR_RGB('',0.509803950786591,0.509803950786591,0.588235318660736);
#320=DRAUGHTING_PRE_DEFINED_CURVE_FONT('continuous');
#321=COLOUR_RGB('',0.509803950786591,0.509803950786591,0.588235318660736);
#322=AXIS2_PLACEMENT_3D('',#460,#461,#462);
#323=DRAUGHTING_PRE_DEFINED_CURVE_FONT('continuous');
#324=COLOUR_RGB('',0.509803950786591,0.509803950786591,0.588235318660736);
#325=AXIS2_PLACEMENT_3D('',#463,#464,#465);
#326=DRAUGHTING_PRE_DEFINED_CURVE_FONT('continuous');
#327=COLOUR_RGB('',0.509803950786591,0.509803950786591,0.588235318660736);
#328=AXIS2_PLACEMENT_3D('',#466,#467,#468);
#329=PRE_DEFINED_MARKER('');
#330=COLOUR_RGB('',0.509803950786591,0.509803950786591,0.588235318660736);
#331=SURFACE_SIDE_STYLE('',(#469));
#332=EDGE_LOOP('',(#470,#471));
#333=EDGE_LOOP('',(#472,#473));
#334=AXIS2_PLACEMENT_3D('',#474,#475,#476);
#335=DRAUGHTING_PRE_DEFINED_CURVE_FONT('continuous');
#336=COLOUR_RGB('',0.509803950786591,0.509803950786591,0.588235318660736);
#337=AXIS2_PLACEMENT_3D('',#477,#478,#479);
#338=DRAUGHTING_PRE_DEFINED_CURVE_FONT('continuous');
#339=COLOUR_RGB('',0.509803950786591,0.509803950786591,0.588235318660736);
#340=CARTESIAN_POINT('',(1.66885156322505E-012,-3.1961524227066,13.0));
#341=VECTOR('',#480,1.0);
#342=PRE_DEFINED_MARKER('');
#343=COLOUR_RGB('',0.509803950786591,0.509803950786591,0.588235318660736);
#344=DRAUGHTING_PRE_DEFINED_CURVE_FONT('continuous');
#345=COLOUR_RGB('',0.509803950786591,0.509803950786591,0.588235318660736);
#346=CARTESIAN_POINT('',(-1.65457975094582E-012,3.19615242270666,13.0));
#347=VECTOR('',#481,1.0);
#348=DRAUGHTING_PRE_DEFINED_CURVE_FONT('continuous');
#349=COLOUR_RGB('',0.509803950786591,0.509803950786591,0.588235318660736);
#350=CARTESIAN_POINT('',(-1.55259789624102E-012,3.00000000000003,-3.70000000000005));
#351=VECTOR('',#482,1.0);
#352=DRAUGHTING_PRE_DEFINED_CURVE_FONT('continuous');
#353=COLOUR_RGB('',0.509803950786591,0.509803950786591,0.588235318660736);
#354=CARTESIAN_POINT('',(-1.44115005283959E-012,2.78564064605514,-8.20000000000005));
#355=VECTOR('',#483,1.0);
#356=DRAUGHTING_PRE_DEFINED_CURVE_FONT('continuous');
#357=COLOUR_RGB('',0.509803950786591,0.509803950786591,0.588235318660736);
#358=AXIS2_PLACEMENT_3D('',#484,#485,#486);
#359=PRE_DEFINED_MARKER('');
#360=COLOUR_RGB('',0.509803950786591,0.509803950786591,0.588235318660736);
#361=PRE_DEFINED_MARKER('');
#362=COLOUR_RGB('',0.509803950786591,0.509803950786591,0.588235318660736);
#363=DRAUGHTING_PRE_DEFINED_CURVE_FONT('continuous');
#364=COLOUR_RGB('',0.509803950786591,0.509803950786591,0.588235318660736);
#365=AXIS2_PLACEMENT_3D('',#487,#488,#489);
#366=SURFACE_SIDE_STYLE('',(#490));
#367=DRAUGHTING_PRE_DEFINED_CURVE_FONT('continuous');
#368=COLOUR_RGB('',0.509803950786591,0.509803950786591,0.588235318660736);
#369=AXIS2_PLACEMENT_3D('',#491,#492,#493);
#370=PRE_DEFINED_MARKER('');
#371=COLOUR_RGB('',0.509803950786591,0.509803950786591,0.588235318660736);
#372=SURFACE_SIDE_STYLE('',(#494));
#373=EDGE_LOOP('',(#495,#496,#497,#498));
#374=AXIS2_PLACEMENT_3D('',#499,#500,#501);
#375=DRAUGHTING_PRE_DEFINED_CURVE_FONT('continuous');
#376=COLOUR_RGB('',0.509803950786591,0.509803950786591,0.588235318660736);
#377=CARTESIAN_POINT('',(1.56686970852026E-012,-2.99999999999997,-3.70000000000005));
#378=VECTOR('',#502,1.0);
#379=PRE_DEFINED_MARKER('');
#380=COLOUR_RGB('',0.509803950786591,0.509803950786591,0.588235318660736);
#381=PRE_DEFINED_MARKER('');
#382=COLOUR_RGB('',0.509803950786591,0.509803950786591,0.588235318660736);
#383=SURFACE_SIDE_STYLE('',(#503));
#384=EDGE_LOOP('',(#504,#505,#506,#507));
#385=AXIS2_PLACEMENT_3D('',#508,#509,#510);
#386=DRAUGHTING_PRE_DEFINED_CURVE_FONT('continuous');
#387=COLOUR_RGB('',0.509803950786591,0.509803950786591,0.588235318660736);
#388=CARTESIAN_POINT('',(1.45542186511882E-012,-2.78564064605509,-8.20000000000005));
#389=VECTOR('',#511,1.0);
#390=SURFACE_SIDE_STYLE('',(#512));
#391=EDGE_LOOP('',(#513,#514,#515,#516));
#392=AXIS2_PLACEMENT_3D('',#517,#518,#519);
#393=PRE_DEFINED_MARKER('');
#394=COLOUR_RGB('',0.509803950786591,0.509803950786591,0.588235318660736);
#395=DRAUGHTING_PRE_DEFINED_CURVE_FONT('continuous');
#396=COLOUR_RGB('',0.509803950786591,0.509803950786591,0.588235318660736);
#397=AXIS2_PLACEMENT_3D('',#520,#521,#522);
#398=SURFACE_SIDE_STYLE('',(#523));
#399=EDGE_LOOP('',(#524,#525,#526,#527));
#400=AXIS2_PLACEMENT_3D('',#528,#529,#530);
#401=DRAUGHTING_PRE_DEFINED_CURVE_FONT('continuous');
#402=COLOUR_RGB('',0.509803950786591,0.509803950786591,0.588235318660736);
#403=AXIS2_PLACEMENT_3D('',#531,#532,#533);
#405=DIRECTION('',(-0.0,-0.0,-1.0));
#406=SURFACE_STYLE_FILL_AREA(#534);
#407=ORIENTED_EDGE('',*,*,#136,.T.);
#408=ORIENTED_EDGE('',*,*,#100,.F.);
#409=ORIENTED_EDGE('',*,*,#116,.T.);
#410=ORIENTED_EDGE('',*,*,#102,.T.);
#411=CARTESIAN_POINT('',(7.13590613961699E-015,2.8421709430404E-014,-3.70000000000005));
#412=DIRECTION('',(-0.0,-0.0,-1.0));
#413=DIRECTION('',(5.20033728095596E-013,-1.0,0.0));
#414=SURFACE_STYLE_FILL_AREA(#535);
#415=ORIENTED_EDGE('',*,*,#144,.F.);
#416=ORIENTED_EDGE('',*,*,#126,.T.);
#417=ORIENTED_EDGE('',*,*,#118,.F.);
#418=ORIENTED_EDGE('',*,*,#92,.F.);
#419=CARTESIAN_POINT('',(7.13590613961699E-015,2.8421709430404E-014,-8.20000000000005));
#420=DIRECTION('',(-0.0,0.0,1.0));
#421=DIRECTION('',(5.20033728095596E-013,-1.0,0.0));
#422=SURFACE_STYLE_FILL_AREA(#536);
#423=ORIENTED_EDGE('',*,*,#78,.T.);
#424=ORIENTED_EDGE('',*,*,#80,.F.);
#425=ORIENTED_EDGE('',*,*,#70,.T.);
#426=ORIENTED_EDGE('',*,*,#88,.T.);
#427=CARTESIAN_POINT('',(7.13590613961699E-015,2.8421709430404E-014,4.99999999999997));
#428=DIRECTION('',(-0.0,-0.0,-1.0));
#429=DIRECTION('',(5.20033728095596E-013,-1.0,0.0));
#430=DIRECTION('',(0.0,0.0,1.0));
#431=CARTESIAN_POINT('',(7.13590613961699E-015,2.8421709430404E-014,9.99999999999997));
#432=DIRECTION('',(0.0,0.0,1.0));
#433=DIRECTION('',(5.20033728095596E-013,-1.0,0.0));
#434=SURFACE_STYLE_FILL_AREA(#537);
#435=ORIENTED_EDGE('',*,*,#108,.T.);
#436=ORIENTED_EDGE('',*,*,#150,.T.);
#437=CARTESIAN_POINT('',(8.44694170334698E-015,-1.1961524227066,16.0));
#438=DIRECTION('',(0.0,0.0,1.0));
#439=DIRECTION('',(-1.83690953073357E-016,-1.0,0.0));
#440=SURFACE_STYLE_FILL_AREA(#538);
#441=ORIENTED_EDGE('',*,*,#144,.T.);
#442=ORIENTED_EDGE('',*,*,#102,.F.);
#443=ORIENTED_EDGE('',*,*,#118,.T.);
#444=ORIENTED_EDGE('',*,*,#120,.T.);
#445=CARTESIAN_POINT('',(7.13590613961699E-015,2.8421709430404E-014,-8.20000000000005));
#446=DIRECTION('',(-0.0,0.0,1.0));
#447=DIRECTION('',(5.20033728095596E-013,-1.0,0.0));
#448=CARTESIAN_POINT('',(7.13590613961699E-015,2.8421709430404E-014,-2.8421709430404E-014));
#449=DIRECTION('',(0.0,0.0,1.0));
#450=DIRECTION('',(5.20033728095596E-013,-1.0,0.0));
#451=CARTESIAN_POINT('',(7.13590613961699E-015,2.8421709430404E-014,-7.40000000000006));
#452=DIRECTION('',(0.0,0.0,1.0));
#453=DIRECTION('',(5.20033728095596E-013,-1.0,0.0));
#454=SURFACE_STYLE_FILL_AREA(#539);
#455=ORIENTED_EDGE('',*,*,#126,.F.);
#456=ORIENTED_EDGE('',*,*,#120,.F.);
#457=CARTESIAN_POINT('',(6.89974558403328E-015,-1.28564064605509,-9.00000000000003));
#458=DIRECTION('',(0.0,0.0,-1.0));
#459=DIRECTION('',(1.83690953073357E-016,1.0,0.0));
#460=CARTESIAN_POINT('',(7.13590613961699E-015,2.8421709430404E-014,9.99999999999997));
#461=DIRECTION('',(0.0,0.0,1.0));
#462=DIRECTION('',(5.20033728095596E-013,-1.0,0.0));
#463=CARTESIAN_POINT('',(7.13590613961699E-015,2.8421709430404E-014,-2.8421709430404E-014));
#464=DIRECTION('',(0.0,0.0,1.0));
#465=DIRECTION('',(5.20033728095596E-013,-1.0,0.0));
#466=CARTESIAN_POINT('',(7.13590613961699E-015,2.8421709430404E-014,-7.40000000000006));
#467=DIRECTION('',(0.0,0.0,1.0));
#468=DIRECTION('',(5.20033728095596E-013,-1.0,0.0));
#469=SURFACE_STYLE_FILL_AREA(#540);
#470=ORIENTED_EDGE('',*,*,#130,.F.);
#471=ORIENTED_EDGE('',*,*,#88,.F.);
#472=ORIENTED_EDGE('',*,*,#154,.T.);
#473=ORIENTED_EDGE('',*,*,#100,.T.);
#474=CARTESIAN_POINT('',(7.04406066308031E-015,-3.49999999999997,-2.8421709430404E-014));
#475=DIRECTION('',(0.0,0.0,-1.0));
#476=DIRECTION('',(1.83690953073357E-016,1.0,0.0));
#477=CARTESIAN_POINT('',(7.13590613961699E-015,2.8421709430404E-014,16.0));
#478=DIRECTION('',(0.0,0.0,1.0));
#479=DIRECTION('',(5.20033728095596E-013,-1.0,0.0));
#480=DIRECTION('',(-1.34562937782094E-013,0.258819045102521,0.965925826289068));
#481=DIRECTION('',(-1.34562937782094E-013,0.258819045102521,-0.965925826289068));
#482=DIRECTION('',(-0.0,-0.0,-1.0));
#483=DIRECTION('',(1.34562937782089E-013,-0.258819045102512,-0.965925826289071));
#484=CARTESIAN_POINT('',(7.13590613961699E-015,2.8421709430404E-014,-9.00000000000003));
#485=DIRECTION('',(0.0,0.0,1.0));
#486=DIRECTION('',(5.20033728095596E-013,-1.0,0.0));
#487=CARTESIAN_POINT('',(7.13590613961699E-015,2.8421709430404E-014,-9.00000000000003));
#488=DIRECTION('',(0.0,0.0,1.0));
#489=DIRECTION('',(5.20033728095596E-013,-1.0,0.0));
#490=SURFACE_STYLE_FILL_AREA(#541);
#491=CARTESIAN_POINT('',(7.13590613961699E-015,2.8421709430404E-014,-2.8421709430404E-014));
#492=DIRECTION('',(0.0,0.0,1.0));
#493=DIRECTION('',(5.20033728095596E-013,-1.0,0.0));
#494=SURFACE_STYLE_FILL_AREA(#542);
#495=ORIENTED_EDGE('',*,*,#78,.F.);
#496=ORIENTED_EDGE('',*,*,#130,.T.);
#497=ORIENTED_EDGE('',*,*,#70,.F.);
#498=ORIENTED_EDGE('',*,*,#98,.F.);
#499=CARTESIAN_POINT('',(7.13590613961699E-015,2.8421709430404E-014,4.99999999999997));
#500=DIRECTION('',(-0.0,-0.0,-1.0));
#501=DIRECTION('',(5.20033728095596E-013,-1.0,0.0));
#502=DIRECTION('',(0.0,0.0,1.0));
#503=SURFACE_STYLE_FILL_AREA(#543);
#504=ORIENTED_EDGE('',*,*,#110,.T.);
#505=ORIENTED_EDGE('',*,*,#150,.F.);
#506=ORIENTED_EDGE('',*,*,#114,.T.);
#507=ORIENTED_EDGE('',*,*,#80,.T.);
#508=CARTESIAN_POINT('',(7.13590613961699E-015,2.8421709430404E-014,13.0));
#509=DIRECTION('',(-0.0,-0.0,-1.0));
#510=DIRECTION('',(5.20033728095596E-013,-1.0,0.0));
#511=DIRECTION('',(1.34562937782089E-013,-0.258819045102512,0.965925826289071));
#512=SURFACE_STYLE_FILL_AREA(#544);
#513=ORIENTED_EDGE('',*,*,#136,.F.);
#514=ORIENTED_EDGE('',*,*,#92,.T.);
#515=ORIENTED_EDGE('',*,*,#116,.F.);
#516=ORIENTED_EDGE('',*,*,#154,.F.);
#517=CARTESIAN_POINT('',(7.13590613961699E-015,2.8421709430404E-014,-3.70000000000005));
#518=DIRECTION('',(-0.0,-0.0,-1.0));
#519=DIRECTION('',(5.20033728095596E-013,-1.0,0.0));
#520=CARTESIAN_POINT('',(7.13590613961699E-015,2.8421709430404E-014,16.0));
#521=DIRECTION('',(0.0,0.0,1.0));
#522=DIRECTION('',(5.20033728095596E-013,-1.0,0.0));
#523=SURFACE_STYLE_FILL_AREA(#545);
#524=ORIENTED_EDGE('',*,*,#110,.F.);
#525=ORIENTED_EDGE('',*,*,#98,.T.);
#526=ORIENTED_EDGE('',*,*,#114,.F.);
#527=ORIENTED_EDGE('',*,*,#108,.F.);
#528=CARTESIAN_POINT('',(7.13590613961699E-015,2.8421709430404E-014,13.0));
#529=DIRECTION('',(-0.0,-0.0,-1.0));
#530=DIRECTION('',(5.20033728095596E-013,-1.0,0.0));
#531=CARTESIAN_POINT('',(7.13590613961699E-015,2.8421709430404E-014,-2.8421709430404E-014));
#532=DIRECTION('',(0.0,0.0,1.0));
#533=DIRECTION('',(5.20033728095596E-013,-1.0,0.0));
#534=FILL_AREA_STYLE('',(#546));
#535=FILL_AREA_STYLE('',(#547));
#536=FILL_AREA_STYLE('',(#548));
#537=FILL_AREA_STYLE('',(#549));
#538=FILL_AREA_STYLE('',(#550));
#539=FILL_AREA_STYLE('',(#551));
#540=FILL_AREA_STYLE('',(#552));
#541=FILL_AREA_STYLE('',(#553));
#542=FILL_AREA_STYLE('',(#554));
#543=FILL_AREA_STYLE('',(#555));
#544=FILL_AREA_STYLE('',(#556));
#545=FILL_AREA_STYLE('',(#557));
#546=FILL_AREA_STYLE_COLOUR('',#558);
#547=FILL_AREA_STYLE_COLOUR('',#559);
#548=FILL_AREA_STYLE_COLOUR('',#560);
#549=FILL_AREA_STYLE_COLOUR('',#561);
#550=FILL_AREA_STYLE_COLOUR('',#562);
#551=FILL_AREA_STYLE_COLOUR('',#563);
#552=FILL_AREA_STYLE_COLOUR('',#564);
#553=FILL_AREA_STYLE_COLOUR('',#565);
#554=FILL_AREA_STYLE_COLOUR('',#566);
#555=FILL_AREA_STYLE_COLOUR('',#567);
#556=FILL_AREA_STYLE_COLOUR('',#568);
#557=FILL_AREA_STYLE_COLOUR('',#569);
#558=COLOUR_RGB('',0.509803950786591,0.509803950786591,0.588235318660736);
#559=COLOUR_RGB('',0.509803950786591,0.509803950786591,0.588235318660736);
#560=COLOUR_RGB('',0.509803950786591,0.509803950786591,0.588235318660736);
#561=COLOUR_RGB('',0.509803950786591,0.509803950786591,0.588235318660736);
#562=COLOUR_RGB('',0.509803950786591,0.509803950786591,0.588235318660736);
#563=COLOUR_RGB('',0.509803950786591,0.509803950786591,0.588235318660736);
#564=COLOUR_RGB('',0.509803950786591,0.509803950786591,0.588235318660736);
#565=COLOUR_RGB('',0.509803950786591,0.509803950786591,0.588235318660736);
#566=COLOUR_RGB('',0.509803950786591,0.509803950786591,0.588235318660736);
#567=COLOUR_RGB('',0.509803950786591,0.509803950786591,0.588235318660736);
#568=COLOUR_RGB('',0.509803950786591,0.509803950786591,0.588235318660736);
#569=COLOUR_RGB('',0.509803950786591,0.509803950786591,0.588235318660736);
ENDSEC;
END-ISO-10303-21;
