ISO-10303-21;
HEADER;
FILE_DESCRIPTION(('STEP AP214'),'1');
FILE_NAME(' ','  ',('TraceParts'),('TraceParts S.A.'),'XStep 1.0',' ',' ');
FILE_SCHEMA(('automotive_design'));
ENDSEC;
DATA;
#1=MECHANICAL_DESIGN_GEOMETRIC_PRESENTATION_REPRESENTATION(' ',(#10,#11,#12,#13,#14,#15,#16,#17,#18,#19,#20,#21,#22,#23,#24,#25,#26,#27,#28,#29,#30,#31,#32,#33,#34,#35,#36,#37,#38,#39,#40,#41,#42,#43,#44,#45,#46,#47,#48,#49,#50,#51,#52,#53),#6);
#2=PRODUCT_DEFINITION_CONTEXT('',#54,'design');
#3=APPLICATION_PROTOCOL_DEFINITION('INTERNATIONAL STANDARD','automotive_design',1994,#54);
#4=PRODUCT_CATEGORY_RELATIONSHIP('NONE','NONE',#55,#56);
#5=SHAPE_DEFINITION_REPRESENTATION(#57,#58);
#6= (GEOMETRIC_REPRESENTATION_CONTEXT(3)GLOBAL_UNCERTAINTY_ASSIGNED_CONTEXT((#61))GLOBAL_UNIT_ASSIGNED_CONTEXT((#63,#64,#65))REPRESENTATION_CONTEXT('NONE','WORKSPACE'));
#10=STYLED_ITEM('',(#67),#68);
#11=STYLED_ITEM('',(#69),#70);
#12=STYLED_ITEM('',(#71),#72);
#13=STYLED_ITEM('',(#73),#74);
#14=STYLED_ITEM('',(#75),#76);
#15=STYLED_ITEM('',(#77),#78);
#16=STYLED_ITEM('',(#79),#80);
#17=STYLED_ITEM('',(#81),#82);
#18=STYLED_ITEM('',(#83),#84);
#19=STYLED_ITEM('',(#85),#86);
#20=STYLED_ITEM('',(#87),#88);
#21=STYLED_ITEM('',(#89),#90);
#22=STYLED_ITEM('',(#91),#92);
#23=STYLED_ITEM('',(#93),#94);
#24=STYLED_ITEM('',(#95),#96);
#25=STYLED_ITEM('',(#97),#98);
#26=STYLED_ITEM('',(#99),#100);
#27=STYLED_ITEM('',(#101),#102);
#28=STYLED_ITEM('',(#103),#104);
#29=STYLED_ITEM('',(#105),#106);
#30=STYLED_ITEM('',(#107),#108);
#31=STYLED_ITEM('',(#109),#110);
#32=STYLED_ITEM('',(#111),#112);
#33=STYLED_ITEM('',(#113),#114);
#34=STYLED_ITEM('',(#115),#116);
#35=STYLED_ITEM('',(#117),#118);
#36=STYLED_ITEM('',(#119),#120);
#37=STYLED_ITEM('',(#121),#122);
#38=STYLED_ITEM('',(#123),#124);
#39=STYLED_ITEM('',(#125),#126);
#40=STYLED_ITEM('',(#127),#128);
#41=STYLED_ITEM('',(#129),#130);
#42=STYLED_ITEM('',(#131),#132);
#43=STYLED_ITEM('',(#133),#134);
#44=STYLED_ITEM('',(#135),#136);
#45=STYLED_ITEM('',(#137),#138);
#46=STYLED_ITEM('',(#139),#140);
#47=STYLED_ITEM('',(#141),#142);
#48=STYLED_ITEM('',(#143),#144);
#49=STYLED_ITEM('',(#145),#146);
#50=STYLED_ITEM('',(#147),#148);
#51=STYLED_ITEM('',(#149),#150);
#52=STYLED_ITEM('',(#151),#152);
#53=STYLED_ITEM('',(#153),#154);
#54=APPLICATION_CONTEXT(' ');
#55=PRODUCT_CATEGORY('part','NONE');
#56=PRODUCT_RELATED_PRODUCT_CATEGORY('detail',' ',(#155));
#57=PRODUCT_DEFINITION_SHAPE('NONE','NONE',#156);
#58=ADVANCED_BREP_SHAPE_REPRESENTATION('1',(#106,#157),#6);
#61=UNCERTAINTY_MEASURE_WITH_UNIT(LENGTH_MEASURE(1.0E-006),#63,'','');
#63= (CONVERSION_BASED_UNIT('MILLIMETRE',#160)LENGTH_UNIT()NAMED_UNIT(#163));
#64= (NAMED_UNIT(#165)PLANE_ANGLE_UNIT()SI_UNIT($,.RADIAN.));
#65= (NAMED_UNIT(#165)SOLID_ANGLE_UNIT()SI_UNIT($,.STERADIAN.));
#67=PRESENTATION_STYLE_ASSIGNMENT((#171));
#68=EDGE_CURVE('',#128,#82,#172,.T.);
#69=PRESENTATION_STYLE_ASSIGNMENT((#173));
#70=ADVANCED_FACE('',(#174),#175,.T.);
#71=PRESENTATION_STYLE_ASSIGNMENT((#176));
#72=EDGE_CURVE('',#94,#150,#177,.T.);
#73=PRESENTATION_STYLE_ASSIGNMENT((#178));
#74=EDGE_CURVE('',#94,#128,#179,.T.);
#75=PRESENTATION_STYLE_ASSIGNMENT((#180));
#76=EDGE_CURVE('',#150,#140,#181,.T.);
#77=PRESENTATION_STYLE_ASSIGNMENT((#182));
#78=ADVANCED_FACE('',(#183),#184,.T.);
#79=PRESENTATION_STYLE_ASSIGNMENT((#185));
#80=ADVANCED_FACE('',(#186),#187,.T.);
#81=PRESENTATION_STYLE_ASSIGNMENT((#188));
#82=VERTEX_POINT('',#189);
#83=PRESENTATION_STYLE_ASSIGNMENT((#190));
#84=ADVANCED_FACE('',(#191,#192),#193,.T.);
#85=PRESENTATION_STYLE_ASSIGNMENT((#194));
#86=EDGE_CURVE('',#140,#150,#195,.T.);
#87=PRESENTATION_STYLE_ASSIGNMENT((#196));
#88=EDGE_CURVE('',#116,#132,#197,.T.);
#89=PRESENTATION_STYLE_ASSIGNMENT((#198));
#90=VERTEX_POINT('',#199);
#91=PRESENTATION_STYLE_ASSIGNMENT((#200));
#92=EDGE_CURVE('',#136,#132,#201,.T.);
#93=PRESENTATION_STYLE_ASSIGNMENT((#202));
#94=VERTEX_POINT('',#203);
#95=PRESENTATION_STYLE_ASSIGNMENT((#204));
#96=EDGE_CURVE('',#120,#136,#205,.T.);
#97=PRESENTATION_STYLE_ASSIGNMENT((#206));
#98=ADVANCED_FACE('',(#207),#208,.T.);
#99=PRESENTATION_STYLE_ASSIGNMENT((#209));
#100=ADVANCED_FACE('',(#210),#211,.T.);
#101=PRESENTATION_STYLE_ASSIGNMENT((#212));
#102=EDGE_CURVE('',#130,#144,#213,.T.);
#103=PRESENTATION_STYLE_ASSIGNMENT((#214));
#104=ADVANCED_FACE('',(#215),#216,.T.);
#105=PRESENTATION_STYLE_ASSIGNMENT((#217));
#106=MANIFOLD_SOLID_BREP('1',#218);
#107=PRESENTATION_STYLE_ASSIGNMENT((#219));
#108=EDGE_CURVE('',#136,#120,#220,.T.);
#109=PRESENTATION_STYLE_ASSIGNMENT((#221));
#110=ADVANCED_FACE('',(#222),#223,.T.);
#111=PRESENTATION_STYLE_ASSIGNMENT((#224));
#112=ADVANCED_FACE('',(#225),#226,.T.);
#113=PRESENTATION_STYLE_ASSIGNMENT((#227));
#114=EDGE_CURVE('',#140,#128,#228,.T.);
#115=PRESENTATION_STYLE_ASSIGNMENT((#229));
#116=VERTEX_POINT('',#230);
#117=PRESENTATION_STYLE_ASSIGNMENT((#231));
#118=EDGE_CURVE('',#116,#120,#232,.T.);
#119=PRESENTATION_STYLE_ASSIGNMENT((#233));
#120=VERTEX_POINT('',#234);
#121=PRESENTATION_STYLE_ASSIGNMENT((#235));
#122=EDGE_CURVE('',#120,#130,#236,.T.);
#123=PRESENTATION_STYLE_ASSIGNMENT((#237));
#124=EDGE_CURVE('',#144,#130,#238,.T.);
#125=PRESENTATION_STYLE_ASSIGNMENT((#239));
#126=ADVANCED_FACE('',(#240),#241,.T.);
#127=PRESENTATION_STYLE_ASSIGNMENT((#242));
#128=VERTEX_POINT('',#243);
#129=PRESENTATION_STYLE_ASSIGNMENT((#244));
#130=VERTEX_POINT('',#245);
#131=PRESENTATION_STYLE_ASSIGNMENT((#246));
#132=VERTEX_POINT('',#247);
#133=PRESENTATION_STYLE_ASSIGNMENT((#248));
#134=EDGE_CURVE('',#82,#90,#249,.T.);
#135=PRESENTATION_STYLE_ASSIGNMENT((#250));
#136=VERTEX_POINT('',#251);
#137=PRESENTATION_STYLE_ASSIGNMENT((#252));
#138=ADVANCED_FACE('',(#253),#254,.T.);
#139=PRESENTATION_STYLE_ASSIGNMENT((#255));
#140=VERTEX_POINT('',#256);
#141=PRESENTATION_STYLE_ASSIGNMENT((#257));
#142=EDGE_CURVE('',#144,#136,#258,.T.);
#143=PRESENTATION_STYLE_ASSIGNMENT((#259));
#144=VERTEX_POINT('',#260);
#145=PRESENTATION_STYLE_ASSIGNMENT((#261));
#146=EDGE_CURVE('',#128,#94,#262,.T.);
#147=PRESENTATION_STYLE_ASSIGNMENT((#263));
#148=EDGE_CURVE('',#90,#94,#264,.T.);
#149=PRESENTATION_STYLE_ASSIGNMENT((#265));
#150=VERTEX_POINT('',#266);
#151=PRESENTATION_STYLE_ASSIGNMENT((#267));
#152=EDGE_CURVE('',#90,#82,#268,.T.);
#153=PRESENTATION_STYLE_ASSIGNMENT((#269));
#154=EDGE_CURVE('',#132,#116,#270,.T.);
#155=PRODUCT('1','1','PART-1-DESC',(#271));
#156=PRODUCT_DEFINITION('NONE','NONE',#272,#2);
#157=AXIS2_PLACEMENT_3D('',#273,#274,#275);
#160=LENGTH_MEASURE_WITH_UNIT(LENGTH_MEASURE(1.0),#276);
#163=DIMENSIONAL_EXPONENTS(1.0,0.0,0.0,0.0,0.0,0.0,0.0);
#165=DIMENSIONAL_EXPONENTS(0.0,0.0,0.0,0.0,0.0,0.0,0.0);
#171=CURVE_STYLE('',#277,POSITIVE_LENGTH_MEASURE(1.0E-006),#278);
#172=LINE('',#279,#280);
#173=SURFACE_STYLE_USAGE(.BOTH.,#281);
#174=FACE_OUTER_BOUND('',#282,.T.);
#175=CYLINDRICAL_SURFACE('',#283,2.0);
#176=CURVE_STYLE('',#284,POSITIVE_LENGTH_MEASURE(1.0E-006),#285);
#177=LINE('',#286,#287);
#178=CURVE_STYLE('',#288,POSITIVE_LENGTH_MEASURE(1.0E-006),#289);
#179=CIRCLE('',#290,3.0);
#180=CURVE_STYLE('',#291,POSITIVE_LENGTH_MEASURE(1.0E-006),#292);
#181=CIRCLE('',#293,3.0);
#182=SURFACE_STYLE_USAGE(.BOTH.,#294);
#183=FACE_OUTER_BOUND('',#295,.T.);
#184=PLANE('',#296);
#185=SURFACE_STYLE_USAGE(.BOTH.,#297);
#186=FACE_OUTER_BOUND('',#298,.T.);
#187=CONICAL_SURFACE('',#299,2.46410161513775,0.261799387799152);
#188=POINT_STYLE(' ',#300,POSITIVE_LENGTH_MEASURE(1.0E-006),#301);
#189=CARTESIAN_POINT('',(7.8838583689687E-015,-1.92820323027547,12.0));
#190=SURFACE_STYLE_USAGE(.BOTH.,#302);
#191=FACE_OUTER_BOUND('',#303,.T.);
#192=FACE_BOUND('',#304,.T.);
#193=PLANE('',#305);
#194=CURVE_STYLE('',#306,POSITIVE_LENGTH_MEASURE(1.0E-006),#307);
#195=CIRCLE('',#308,3.0);
#196=CURVE_STYLE('',#309,POSITIVE_LENGTH_MEASURE(1.0E-006),#310);
#197=CIRCLE('',#311,2.0);
#198=POINT_STYLE(' ',#312,POSITIVE_LENGTH_MEASURE(1.0E-006),#313);
#199=CARTESIAN_POINT('',(-8.88327201004699E-013,1.92820323027553,12.0));
#200=CURVE_STYLE('',#314,POSITIVE_LENGTH_MEASURE(1.0E-006),#315);
#201=LINE('',#316,#317);
#202=POINT_STYLE(' ',#318,POSITIVE_LENGTH_MEASURE(1.0E-006),#319);
#203=CARTESIAN_POINT('',(-1.38607269306448E-012,3.00000000000003,7.99999999999997));
#204=CURVE_STYLE('',#320,POSITIVE_LENGTH_MEASURE(1.0E-006),#321);
#205=CIRCLE('',#322,2.0);
#206=SURFACE_STYLE_USAGE(.BOTH.,#323);
#207=FACE_OUTER_BOUND('',#324,.T.);
#208=CYLINDRICAL_SURFACE('',#325,2.0);
#209=SURFACE_STYLE_USAGE(.BOTH.,#326);
#210=FACE_OUTER_BOUND('',#327,.T.);
#211=CYLINDRICAL_SURFACE('',#328,3.0);
#212=CURVE_STYLE('',#329,POSITIVE_LENGTH_MEASURE(1.0E-006),#330);
#213=CIRCLE('',#331,1.67846096908266);
#214=SURFACE_STYLE_USAGE(.BOTH.,#332);
#215=FACE_OUTER_BOUND('',#333,.T.);
#216=CONICAL_SURFACE('',#334,2.46410161513775,0.261799387799152);
#217=SURFACE_STYLE_USAGE(.BOTH.,#335);
#218=CLOSED_SHELL('',(#80,#100,#70,#110,#112,#126,#98,#84,#138,#104,#78));
#219=CURVE_STYLE('',#336,POSITIVE_LENGTH_MEASURE(1.0E-006),#337);
#220=CIRCLE('',#338,2.0);
#221=SURFACE_STYLE_USAGE(.BOTH.,#339);
#222=FACE_OUTER_BOUND('',#340,.T.);
#223=CONICAL_SURFACE('',#341,1.83923048454133,0.261799387799149);
#224=SURFACE_STYLE_USAGE(.BOTH.,#342);
#225=FACE_OUTER_BOUND('',#343,.T.);
#226=PLANE('',#344);
#227=CURVE_STYLE('',#345,POSITIVE_LENGTH_MEASURE(1.0E-006),#346);
#228=LINE('',#347,#348);
#229=POINT_STYLE(' ',#349,POSITIVE_LENGTH_MEASURE(1.0E-006),#350);
#230=CARTESIAN_POINT('',(-9.21669826663115E-013,2.00000000000003,-2.8421709430404E-014));
#231=CURVE_STYLE('',#351,POSITIVE_LENGTH_MEASURE(1.0E-006),#352);
#232=LINE('',#353,#354);
#233=POINT_STYLE(' ',#355,POSITIVE_LENGTH_MEASURE(1.0E-006),#356);
#234=CARTESIAN_POINT('',(-9.21669826663115E-013,2.00000000000003,-4.80000000000007));
#235=CURVE_STYLE('',#357,POSITIVE_LENGTH_MEASURE(1.0E-006),#358);
#236=LINE('',#359,#360);
#237=CURVE_STYLE('',#361,POSITIVE_LENGTH_MEASURE(1.0E-006),#362);
#238=CIRCLE('',#363,1.67846096908266);
#239=SURFACE_STYLE_USAGE(.BOTH.,#364);
#240=FACE_OUTER_BOUND('',#365,.T.);
#241=CONICAL_SURFACE('',#366,1.83923048454133,0.261799387799149);
#242=POINT_STYLE(' ',#367,POSITIVE_LENGTH_MEASURE(1.0E-006),#368);
#243=CARTESIAN_POINT('',(7.44205772807258E-015,-2.99999999999997,7.99999999999997));
#244=POINT_STYLE(' ',#369,POSITIVE_LENGTH_MEASURE(1.0E-006),#370);
#245=CARTESIAN_POINT('',(-7.72346179045187E-013,1.67846096908269,-6.00000000000003));
#246=POINT_STYLE(' ',#371,POSITIVE_LENGTH_MEASURE(1.0E-006),#372);
#247=CARTESIAN_POINT('',(7.13590613961699E-015,-1.99999999999997,-2.8421709430404E-014));
#248=CURVE_STYLE('',#373,POSITIVE_LENGTH_MEASURE(1.0E-006),#374);
#249=CIRCLE('',#375,1.9282032302755);
#250=POINT_STYLE(' ',#376,POSITIVE_LENGTH_MEASURE(1.0E-006),#377);
#251=CARTESIAN_POINT('',(6.84200061469962E-015,-1.99999999999997,-4.80000000000007));
#252=SURFACE_STYLE_USAGE(.BOTH.,#378);
#253=FACE_OUTER_BOUND('',#379,.T.);
#254=CYLINDRICAL_SURFACE('',#380,3.0);
#255=POINT_STYLE(' ',#381,POSITIVE_LENGTH_MEASURE(1.0E-006),#382);
#256=CARTESIAN_POINT('',(6.95221518654363E-015,-2.99999999999997,-2.8421709430404E-014));
#257=CURVE_STYLE('',#383,POSITIVE_LENGTH_MEASURE(1.0E-006),#384);
#258=LINE('',#385,#386);
#259=POINT_STYLE(' ',#387,POSITIVE_LENGTH_MEASURE(1.0E-006),#388);
#260=CARTESIAN_POINT('',(6.82758804450977E-015,-1.67846096908264,-6.00000000000003));
#261=CURVE_STYLE('',#389,POSITIVE_LENGTH_MEASURE(1.0E-006),#390);
#262=CIRCLE('',#391,3.0);
#263=CURVE_STYLE('',#392,POSITIVE_LENGTH_MEASURE(1.0E-006),#393);
#264=LINE('',#394,#395);
#265=POINT_STYLE(' ',#396,POSITIVE_LENGTH_MEASURE(1.0E-006),#397);
#266=CARTESIAN_POINT('',(-1.38607269306448E-012,3.00000000000003,-2.8421709430404E-014));
#267=CURVE_STYLE('',#398,POSITIVE_LENGTH_MEASURE(1.0E-006),#399);
#268=CIRCLE('',#400,1.9282032302755);
#269=CURVE_STYLE('',#401,POSITIVE_LENGTH_MEASURE(1.0E-006),#402);
#270=CIRCLE('',#403,2.0);
#271=PRODUCT_CONTEXT('',#54,'mechanical');
#272=PRODUCT_DEFINITION_FORMATION_WITH_SPECIFIED_SOURCE(' ','NONE',#155,.NOT_KNOWN.);
#273=CARTESIAN_POINT('',(0.0,0.0,0.0));
#274=DIRECTION('',(0.0,0.0,1.0));
#275=DIRECTION('',(1.0,0.0,0.0));
#276= (NAMED_UNIT(#163)LENGTH_UNIT()SI_UNIT(.MILLI.,.METRE.));
#277=DRAUGHTING_PRE_DEFINED_CURVE_FONT('continuous');
#278=COLOUR_RGB('',0.509803950786591,0.509803950786591,0.588235318660736);
#279=CARTESIAN_POINT('',(1.15147175931382E-012,-2.46410161513772,9.99999999999997));
#280=VECTOR('',#405,1.0);
#281=SURFACE_SIDE_STYLE('',(#406));
#282=EDGE_LOOP('',(#407,#408,#409,#410));
#283=AXIS2_PLACEMENT_3D('',#411,#412,#413);
#284=DRAUGHTING_PRE_DEFINED_CURVE_FONT('continuous');
#285=COLOUR_RGB('',0.509803950786591,0.509803950786591,0.588235318660736);
#286=CARTESIAN_POINT('',(-1.38607269306448E-012,3.00000000000003,3.99999999999997));
#287=VECTOR('',#414,1.0);
#288=DRAUGHTING_PRE_DEFINED_CURVE_FONT('continuous');
#289=COLOUR_RGB('',0.509803950786591,0.509803950786591,0.588235318660736);
#290=AXIS2_PLACEMENT_3D('',#415,#416,#417);
#291=DRAUGHTING_PRE_DEFINED_CURVE_FONT('continuous');
#292=COLOUR_RGB('',0.509803950786591,0.509803950786591,0.588235318660736);
#293=AXIS2_PLACEMENT_3D('',#418,#419,#420);
#294=SURFACE_SIDE_STYLE('',(#421));
#295=EDGE_LOOP('',(#422,#423));
#296=AXIS2_PLACEMENT_3D('',#424,#425,#426);
#297=SURFACE_SIDE_STYLE('',(#427));
#298=EDGE_LOOP('',(#428,#429,#430,#431));
#299=AXIS2_PLACEMENT_3D('',#432,#433,#434);
#300=PRE_DEFINED_MARKER('');
#301=COLOUR_RGB('',0.509803950786591,0.509803950786591,0.588235318660736);
#302=SURFACE_SIDE_STYLE('',(#435));
#303=EDGE_LOOP('',(#436,#437));
#304=EDGE_LOOP('',(#438,#439));
#305=AXIS2_PLACEMENT_3D('',#440,#441,#442);
#306=DRAUGHTING_PRE_DEFINED_CURVE_FONT('continuous');
#307=COLOUR_RGB('',0.509803950786591,0.509803950786591,0.588235318660736);
#308=AXIS2_PLACEMENT_3D('',#443,#444,#445);
#309=DRAUGHTING_PRE_DEFINED_CURVE_FONT('continuous');
#310=COLOUR_RGB('',0.509803950786591,0.509803950786591,0.588235318660736);
#311=AXIS2_PLACEMENT_3D('',#446,#447,#448);
#312=PRE_DEFINED_MARKER('');
#313=COLOUR_RGB('',0.509803950786591,0.509803950786591,0.588235318660736);
#314=DRAUGHTING_PRE_DEFINED_CURVE_FONT('continuous');
#315=COLOUR_RGB('',0.509803950786591,0.509803950786591,0.588235318660736);
#316=CARTESIAN_POINT('',(9.35941638942349E-013,-1.99999999999997,-2.40000000000005));
#317=VECTOR('',#449,1.0);
#318=PRE_DEFINED_MARKER('');
#319=COLOUR_RGB('',0.509803950786591,0.509803950786591,0.588235318660736);
#320=DRAUGHTING_PRE_DEFINED_CURVE_FONT('continuous');
#321=COLOUR_RGB('',0.509803950786591,0.509803950786591,0.588235318660736);
#322=AXIS2_PLACEMENT_3D('',#450,#451,#452);
#323=SURFACE_SIDE_STYLE('',(#453));
#324=EDGE_LOOP('',(#454,#455,#456,#457));
#325=AXIS2_PLACEMENT_3D('',#458,#459,#460);
#326=SURFACE_SIDE_STYLE('',(#461));
#327=EDGE_LOOP('',(#462,#463,#464,#465));
#328=AXIS2_PLACEMENT_3D('',#466,#467,#468);
#329=DRAUGHTING_PRE_DEFINED_CURVE_FONT('continuous');
#330=COLOUR_RGB('',0.509803950786591,0.509803950786591,0.588235318660736);
#331=AXIS2_PLACEMENT_3D('',#469,#470,#471);
#332=SURFACE_SIDE_STYLE('',(#472));
#333=EDGE_LOOP('',(#473,#474,#475,#476));
#334=AXIS2_PLACEMENT_3D('',#477,#478,#479);
#335=SURFACE_SIDE_STYLE('',(#480));
#336=DRAUGHTING_PRE_DEFINED_CURVE_FONT('continuous');
#337=COLOUR_RGB('',0.509803950786591,0.509803950786591,0.588235318660736);
#338=AXIS2_PLACEMENT_3D('',#481,#482,#483);
#339=SURFACE_SIDE_STYLE('',(#484));
#340=EDGE_LOOP('',(#485,#486,#487,#488));
#341=AXIS2_PLACEMENT_3D('',#489,#490,#491);
#342=SURFACE_SIDE_STYLE('',(#492));
#343=EDGE_LOOP('',(#493,#494));
#344=AXIS2_PLACEMENT_3D('',#495,#496,#497);
#345=DRAUGHTING_PRE_DEFINED_CURVE_FONT('continuous');
#346=COLOUR_RGB('',0.509803950786591,0.509803950786591,0.588235318660736);
#347=CARTESIAN_POINT('',(1.40034450534372E-012,-2.99999999999997,3.99999999999997));
#348=VECTOR('',#498,1.0);
#349=PRE_DEFINED_MARKER('');
#350=COLOUR_RGB('',0.509803950786591,0.509803950786591,0.588235318660736);
#351=DRAUGHTING_PRE_DEFINED_CURVE_FONT('continuous');
#352=COLOUR_RGB('',0.509803950786591,0.509803950786591,0.588235318660736);
#353=CARTESIAN_POINT('',(-9.21669826663115E-013,2.00000000000003,-2.40000000000005));
#354=VECTOR('',#499,1.0);
#355=PRE_DEFINED_MARKER('');
#356=COLOUR_RGB('',0.509803950786591,0.509803950786591,0.588235318660736);
#357=DRAUGHTING_PRE_DEFINED_CURVE_FONT('continuous');
#358=COLOUR_RGB('',0.509803950786591,0.509803950786591,0.588235318660736);
#359=CARTESIAN_POINT('',(-8.47008002854151E-013,1.83923048454136,-5.40000000000005));
#360=VECTOR('',#500,1.0);
#361=DRAUGHTING_PRE_DEFINED_CURVE_FONT('continuous');
#362=COLOUR_RGB('',0.509803950786591,0.509803950786591,0.588235318660736);
#363=AXIS2_PLACEMENT_3D('',#501,#502,#503);
#364=SURFACE_SIDE_STYLE('',(#504));
#365=EDGE_LOOP('',(#505,#506,#507,#508));
#366=AXIS2_PLACEMENT_3D('',#509,#510,#511);
#367=PRE_DEFINED_MARKER('');
#368=COLOUR_RGB('',0.509803950786591,0.509803950786591,0.588235318660736);
#369=PRE_DEFINED_MARKER('');
#370=COLOUR_RGB('',0.509803950786591,0.509803950786591,0.588235318660736);
#371=PRE_DEFINED_MARKER('');
#372=COLOUR_RGB('',0.509803950786591,0.509803950786591,0.588235318660736);
#373=DRAUGHTING_PRE_DEFINED_CURVE_FONT('continuous');
#374=COLOUR_RGB('',0.509803950786591,0.509803950786591,0.588235318660736);
#375=AXIS2_PLACEMENT_3D('',#512,#513,#514);
#376=PRE_DEFINED_MARKER('');
#377=COLOUR_RGB('',0.509803950786591,0.509803950786591,0.588235318660736);
#378=SURFACE_SIDE_STYLE('',(#515));
#379=EDGE_LOOP('',(#516,#517,#518,#519));
#380=AXIS2_PLACEMENT_3D('',#520,#521,#522);
#381=PRE_DEFINED_MARKER('');
#382=COLOUR_RGB('',0.509803950786591,0.509803950786591,0.588235318660736);
#383=DRAUGHTING_PRE_DEFINED_CURVE_FONT('continuous');
#384=COLOUR_RGB('',0.509803950786591,0.509803950786591,0.588235318660736);
#385=CARTESIAN_POINT('',(8.61279815133385E-013,-1.8392304845413,-5.40000000000005));
#386=VECTOR('',#523,1.0);
#387=PRE_DEFINED_MARKER('');
#388=COLOUR_RGB('',0.509803950786591,0.509803950786591,0.588235318660736);
#389=DRAUGHTING_PRE_DEFINED_CURVE_FONT('continuous');
#390=COLOUR_RGB('',0.509803950786591,0.509803950786591,0.588235318660736);
#391=AXIS2_PLACEMENT_3D('',#524,#525,#526);
#392=DRAUGHTING_PRE_DEFINED_CURVE_FONT('continuous');
#393=COLOUR_RGB('',0.509803950786591,0.509803950786591,0.588235318660736);
#394=CARTESIAN_POINT('',(-1.13719994703459E-012,2.46410161513778,9.99999999999997));
#395=VECTOR('',#527,1.0);
#396=PRE_DEFINED_MARKER('');
#397=COLOUR_RGB('',0.509803950786591,0.509803950786591,0.588235318660736);
#398=DRAUGHTING_PRE_DEFINED_CURVE_FONT('continuous');
#399=COLOUR_RGB('',0.509803950786591,0.509803950786591,0.588235318660736);
#400=AXIS2_PLACEMENT_3D('',#528,#529,#530);
#401=DRAUGHTING_PRE_DEFINED_CURVE_FONT('continuous');
#402=COLOUR_RGB('',0.509803950786591,0.509803950786591,0.588235318660736);
#403=AXIS2_PLACEMENT_3D('',#531,#532,#533);
#405=DIRECTION('',(-1.20196306424876E-013,0.258819045102523,0.965925826289068));
#406=SURFACE_STYLE_FILL_AREA(#534);
#407=ORIENTED_EDGE('',*,*,#92,.F.);
#408=ORIENTED_EDGE('',*,*,#108,.T.);
#409=ORIENTED_EDGE('',*,*,#118,.F.);
#410=ORIENTED_EDGE('',*,*,#154,.F.);
#411=CARTESIAN_POINT('',(7.13590613961699E-015,2.8421709430404E-014,-2.40000000000005));
#412=DIRECTION('',(-0.0,-0.0,-1.0));
#413=DIRECTION('',(4.64525327036748E-013,-1.0,0.0));
#414=DIRECTION('',(-0.0,-0.0,-1.0));
#415=CARTESIAN_POINT('',(7.13590613961699E-015,2.8421709430404E-014,7.99999999999997));
#416=DIRECTION('',(0.0,0.0,1.0));
#417=DIRECTION('',(4.64525327036748E-013,-1.0,0.0));
#418=CARTESIAN_POINT('',(7.13590613961699E-015,2.8421709430404E-014,-2.8421709430404E-014));
#419=DIRECTION('',(0.0,0.0,1.0));
#420=DIRECTION('',(4.64525327036748E-013,-1.0,0.0));
#421=SURFACE_STYLE_FILL_AREA(#535);
#422=ORIENTED_EDGE('',*,*,#134,.T.);
#423=ORIENTED_EDGE('',*,*,#152,.T.);
#424=CARTESIAN_POINT('',(8.06095511351291E-015,-0.964101615137722,12.0));
#425=DIRECTION('',(0.0,0.0,1.0));
#426=DIRECTION('',(-1.83690953073357E-016,-1.0,0.0));
#427=SURFACE_STYLE_FILL_AREA(#536);
#428=ORIENTED_EDGE('',*,*,#68,.F.);
#429=ORIENTED_EDGE('',*,*,#146,.T.);
#430=ORIENTED_EDGE('',*,*,#148,.F.);
#431=ORIENTED_EDGE('',*,*,#134,.F.);
#432=CARTESIAN_POINT('',(7.13590613961699E-015,2.8421709430404E-014,9.99999999999997));
#433=DIRECTION('',(-0.0,-0.0,-1.0));
#434=DIRECTION('',(4.64525327036748E-013,-1.0,0.0));
#435=SURFACE_STYLE_FILL_AREA(#537);
#436=ORIENTED_EDGE('',*,*,#86,.F.);
#437=ORIENTED_EDGE('',*,*,#76,.F.);
#438=ORIENTED_EDGE('',*,*,#154,.T.);
#439=ORIENTED_EDGE('',*,*,#88,.T.);
#440=CARTESIAN_POINT('',(7.04406066308031E-015,-2.49999999999997,-2.8421709430404E-014));
#441=DIRECTION('',(0.0,0.0,-1.0));
#442=DIRECTION('',(1.83690953073357E-016,1.0,0.0));
#443=CARTESIAN_POINT('',(7.13590613961699E-015,2.8421709430404E-014,-2.8421709430404E-014));
#444=DIRECTION('',(0.0,0.0,1.0));
#445=DIRECTION('',(4.64525327036748E-013,-1.0,0.0));
#446=CARTESIAN_POINT('',(7.13590613961699E-015,2.8421709430404E-014,-2.8421709430404E-014));
#447=DIRECTION('',(0.0,0.0,1.0));
#448=DIRECTION('',(4.64525327036748E-013,-1.0,0.0));
#449=DIRECTION('',(0.0,0.0,1.0));
#450=CARTESIAN_POINT('',(7.13590613961699E-015,2.8421709430404E-014,-4.80000000000007));
#451=DIRECTION('',(0.0,0.0,1.0));
#452=DIRECTION('',(4.64525327036748E-013,-1.0,0.0));
#453=SURFACE_STYLE_FILL_AREA(#538);
#454=ORIENTED_EDGE('',*,*,#92,.T.);
#455=ORIENTED_EDGE('',*,*,#88,.F.);
#456=ORIENTED_EDGE('',*,*,#118,.T.);
#457=ORIENTED_EDGE('',*,*,#96,.T.);
#458=CARTESIAN_POINT('',(7.13590613961699E-015,2.8421709430404E-014,-2.40000000000005));
#459=DIRECTION('',(-0.0,-0.0,-1.0));
#460=DIRECTION('',(4.64525327036748E-013,-1.0,0.0));
#461=SURFACE_STYLE_FILL_AREA(#539);
#462=ORIENTED_EDGE('',*,*,#114,.F.);
#463=ORIENTED_EDGE('',*,*,#86,.T.);
#464=ORIENTED_EDGE('',*,*,#72,.F.);
#465=ORIENTED_EDGE('',*,*,#146,.F.);
#466=CARTESIAN_POINT('',(7.13590613961699E-015,2.8421709430404E-014,3.99999999999997));
#467=DIRECTION('',(-0.0,-0.0,-1.0));
#468=DIRECTION('',(4.64525327036748E-013,-1.0,0.0));
#469=CARTESIAN_POINT('',(7.13590613961699E-015,2.8421709430404E-014,-6.00000000000003));
#470=DIRECTION('',(0.0,0.0,1.0));
#471=DIRECTION('',(4.64525327036748E-013,-1.0,0.0));
#472=SURFACE_STYLE_FILL_AREA(#540);
#473=ORIENTED_EDGE('',*,*,#68,.T.);
#474=ORIENTED_EDGE('',*,*,#152,.F.);
#475=ORIENTED_EDGE('',*,*,#148,.T.);
#476=ORIENTED_EDGE('',*,*,#74,.T.);
#477=CARTESIAN_POINT('',(7.13590613961699E-015,2.8421709430404E-014,9.99999999999997));
#478=DIRECTION('',(-0.0,-0.0,-1.0));
#479=DIRECTION('',(4.64525327036748E-013,-1.0,0.0));
#480=SURFACE_STYLE_FILL_AREA(#541);
#481=CARTESIAN_POINT('',(7.13590613961699E-015,2.8421709430404E-014,-4.80000000000007));
#482=DIRECTION('',(0.0,0.0,1.0));
#483=DIRECTION('',(4.64525327036748E-013,-1.0,0.0));
#484=SURFACE_STYLE_FILL_AREA(#542);
#485=ORIENTED_EDGE('',*,*,#142,.F.);
#486=ORIENTED_EDGE('',*,*,#124,.T.);
#487=ORIENTED_EDGE('',*,*,#122,.F.);
#488=ORIENTED_EDGE('',*,*,#108,.F.);
#489=CARTESIAN_POINT('',(7.13590613961699E-015,2.8421709430404E-014,-5.40000000000005));
#490=DIRECTION('',(-0.0,0.0,1.0));
#491=DIRECTION('',(4.64525327036748E-013,-1.0,0.0));
#492=SURFACE_STYLE_FILL_AREA(#543);
#493=ORIENTED_EDGE('',*,*,#124,.F.);
#494=ORIENTED_EDGE('',*,*,#102,.F.);
#495=CARTESIAN_POINT('',(6.98174709206338E-015,-0.839230484541304,-6.00000000000003));
#496=DIRECTION('',(0.0,0.0,-1.0));
#497=DIRECTION('',(1.83690953073357E-016,1.0,0.0));
#498=DIRECTION('',(0.0,0.0,1.0));
#499=DIRECTION('',(-0.0,-0.0,-1.0));
#500=DIRECTION('',(1.20196306424875E-013,-0.25881904510252,-0.965925826289068));
#501=CARTESIAN_POINT('',(7.13590613961699E-015,2.8421709430404E-014,-6.00000000000003));
#502=DIRECTION('',(0.0,0.0,1.0));
#503=DIRECTION('',(4.64525327036748E-013,-1.0,0.0));
#504=SURFACE_STYLE_FILL_AREA(#544);
#505=ORIENTED_EDGE('',*,*,#142,.T.);
#506=ORIENTED_EDGE('',*,*,#96,.F.);
#507=ORIENTED_EDGE('',*,*,#122,.T.);
#508=ORIENTED_EDGE('',*,*,#102,.T.);
#509=CARTESIAN_POINT('',(7.13590613961699E-015,2.8421709430404E-014,-5.40000000000005));
#510=DIRECTION('',(-0.0,0.0,1.0));
#511=DIRECTION('',(4.64525327036748E-013,-1.0,0.0));
#512=CARTESIAN_POINT('',(7.13590613961699E-015,2.8421709430404E-014,12.0));
#513=DIRECTION('',(0.0,0.0,1.0));
#514=DIRECTION('',(4.64525327036748E-013,-1.0,0.0));
#515=SURFACE_STYLE_FILL_AREA(#545);
#516=ORIENTED_EDGE('',*,*,#114,.T.);
#517=ORIENTED_EDGE('',*,*,#74,.F.);
#518=ORIENTED_EDGE('',*,*,#72,.T.);
#519=ORIENTED_EDGE('',*,*,#76,.T.);
#520=CARTESIAN_POINT('',(7.13590613961699E-015,2.8421709430404E-014,3.99999999999997));
#521=DIRECTION('',(-0.0,-0.0,-1.0));
#522=DIRECTION('',(4.64525327036748E-013,-1.0,0.0));
#523=DIRECTION('',(1.20196306424875E-013,-0.25881904510252,0.965925826289068));
#524=CARTESIAN_POINT('',(7.13590613961699E-015,2.8421709430404E-014,7.99999999999997));
#525=DIRECTION('',(0.0,0.0,1.0));
#526=DIRECTION('',(4.64525327036748E-013,-1.0,0.0));
#527=DIRECTION('',(-1.20196306424876E-013,0.258819045102523,-0.965925826289068));
#528=CARTESIAN_POINT('',(7.13590613961699E-015,2.8421709430404E-014,12.0));
#529=DIRECTION('',(0.0,0.0,1.0));
#530=DIRECTION('',(4.64525327036748E-013,-1.0,0.0));
#531=CARTESIAN_POINT('',(7.13590613961699E-015,2.8421709430404E-014,-2.8421709430404E-014));
#532=DIRECTION('',(0.0,0.0,1.0));
#533=DIRECTION('',(4.64525327036748E-013,-1.0,0.0));
#534=FILL_AREA_STYLE('',(#546));
#535=FILL_AREA_STYLE('',(#547));
#536=FILL_AREA_STYLE('',(#548));
#537=FILL_AREA_STYLE('',(#549));
#538=FILL_AREA_STYLE('',(#550));
#539=FILL_AREA_STYLE('',(#551));
#540=FILL_AREA_STYLE('',(#552));
#541=FILL_AREA_STYLE('',(#553));
#542=FILL_AREA_STYLE('',(#554));
#543=FILL_AREA_STYLE('',(#555));
#544=FILL_AREA_STYLE('',(#556));
#545=FILL_AREA_STYLE('',(#557));
#546=FILL_AREA_STYLE_COLOUR('',#558);
#547=FILL_AREA_STYLE_COLOUR('',#559);
#548=FILL_AREA_STYLE_COLOUR('',#560);
#549=FILL_AREA_STYLE_COLOUR('',#561);
#550=FILL_AREA_STYLE_COLOUR('',#562);
#551=FILL_AREA_STYLE_COLOUR('',#563);
#552=FILL_AREA_STYLE_COLOUR('',#564);
#553=FILL_AREA_STYLE_COLOUR('',#565);
#554=FILL_AREA_STYLE_COLOUR('',#566);
#555=FILL_AREA_STYLE_COLOUR('',#567);
#556=FILL_AREA_STYLE_COLOUR('',#568);
#557=FILL_AREA_STYLE_COLOUR('',#569);
#558=COLOUR_RGB('',0.509803950786591,0.509803950786591,0.588235318660736);
#559=COLOUR_RGB('',0.509803950786591,0.509803950786591,0.588235318660736);
#560=COLOUR_RGB('',0.509803950786591,0.509803950786591,0.588235318660736);
#561=COLOUR_RGB('',0.509803950786591,0.509803950786591,0.588235318660736);
#562=COLOUR_RGB('',0.509803950786591,0.509803950786591,0.588235318660736);
#563=COLOUR_RGB('',0.509803950786591,0.509803950786591,0.588235318660736);
#564=COLOUR_RGB('',0.509803950786591,0.509803950786591,0.588235318660736);
#565=COLOUR_RGB('',0.509803950786591,0.509803950786591,0.588235318660736);
#566=COLOUR_RGB('',0.509803950786591,0.509803950786591,0.588235318660736);
#567=COLOUR_RGB('',0.509803950786591,0.509803950786591,0.588235318660736);
#568=COLOUR_RGB('',0.509803950786591,0.509803950786591,0.588235318660736);
#569=COLOUR_RGB('',0.509803950786591,0.509803950786591,0.588235318660736);
ENDSEC;
END-ISO-10303-21;
