ISO-10303-21;
HEADER;
FILE_DESCRIPTION(('STEP AP214'),'1');
FILE_NAME(' ','  ',('TraceParts'),('TraceParts S.A.'),'XStep 1.0',' ',' ');
FILE_SCHEMA(('automotive_design'));
ENDSEC;
DATA;
#1=MECHANICAL_DESIGN_GEOMETRIC_PRESENTATION_REPRESENTATION(' ',(#10,#11,#12,#13,#14,#15,#16,#17,#18,#19,#20,#21,#22,#23,#24,#25,#26,#27,#28,#29,#30,#31,#32,#33,#34,#35,#36,#37,#38,#39,#40,#41,#42,#43,#44,#45,#46,#47,#48,#49,#50,#51,#52),#6);
#2=PRODUCT_DEFINITION_CONTEXT('',#53,'design');
#3=APPLICATION_PROTOCOL_DEFINITION('INTERNATIONAL STANDARD','automotive_design',1994,#53);
#4=PRODUCT_CATEGORY_RELATIONSHIP('NONE','NONE',#54,#55);
#5=SHAPE_DEFINITION_REPRESENTATION(#56,#57);
#6= (GEOMETRIC_REPRESENTATION_CONTEXT(3)GLOBAL_UNCERTAINTY_ASSIGNED_CONTEXT((#60))GLOBAL_UNIT_ASSIGNED_CONTEXT((#62,#63,#64))REPRESENTATION_CONTEXT('NONE','WORKSPACE'));
#10=STYLED_ITEM('',(#66),#67);
#11=STYLED_ITEM('',(#68),#69);
#12=STYLED_ITEM('',(#70),#71);
#13=STYLED_ITEM('',(#72),#73);
#14=STYLED_ITEM('',(#74),#75);
#15=STYLED_ITEM('',(#76),#77);
#16=STYLED_ITEM('',(#78),#79);
#17=STYLED_ITEM('',(#80),#81);
#18=STYLED_ITEM('',(#82),#83);
#19=STYLED_ITEM('',(#84),#85);
#20=STYLED_ITEM('',(#86),#87);
#21=STYLED_ITEM('',(#88),#89);
#22=STYLED_ITEM('',(#90),#91);
#23=STYLED_ITEM('',(#92),#93);
#24=STYLED_ITEM('',(#94),#95);
#25=STYLED_ITEM('',(#96),#97);
#26=STYLED_ITEM('',(#98),#99);
#27=STYLED_ITEM('',(#100),#101);
#28=STYLED_ITEM('',(#102),#103);
#29=STYLED_ITEM('',(#104),#105);
#30=STYLED_ITEM('',(#106),#107);
#31=STYLED_ITEM('',(#108),#109);
#32=STYLED_ITEM('',(#110),#111);
#33=STYLED_ITEM('',(#112),#113);
#34=STYLED_ITEM('',(#114),#115);
#35=STYLED_ITEM('',(#116),#117);
#36=STYLED_ITEM('',(#118),#119);
#37=STYLED_ITEM('',(#120),#121);
#38=STYLED_ITEM('',(#122),#123);
#39=STYLED_ITEM('',(#124),#125);
#40=STYLED_ITEM('',(#126),#127);
#41=STYLED_ITEM('',(#128),#129);
#42=STYLED_ITEM('',(#130),#131);
#43=STYLED_ITEM('',(#132),#133);
#44=STYLED_ITEM('',(#134),#135);
#45=STYLED_ITEM('',(#136),#137);
#46=STYLED_ITEM('',(#138),#139);
#47=STYLED_ITEM('',(#140),#141);
#48=STYLED_ITEM('',(#142),#143);
#49=STYLED_ITEM('',(#144),#145);
#50=STYLED_ITEM('',(#146),#147);
#51=STYLED_ITEM('',(#148),#149);
#52=STYLED_ITEM('',(#150),#151);
#53=APPLICATION_CONTEXT(' ');
#54=PRODUCT_CATEGORY('part','NONE');
#55=PRODUCT_RELATED_PRODUCT_CATEGORY('detail',' ',(#152));
#56=PRODUCT_DEFINITION_SHAPE('NONE','NONE',#153);
#57=ADVANCED_BREP_SHAPE_REPRESENTATION('1',(#154,#155),#6);
#60=UNCERTAINTY_MEASURE_WITH_UNIT(LENGTH_MEASURE(1.0E-006),#62,'','');
#62= (CONVERSION_BASED_UNIT('MILLIMETRE',#158)LENGTH_UNIT()NAMED_UNIT(#161));
#63= (NAMED_UNIT(#163)PLANE_ANGLE_UNIT()SI_UNIT($,.RADIAN.));
#64= (NAMED_UNIT(#163)SOLID_ANGLE_UNIT()SI_UNIT($,.STERADIAN.));
#66=PRESENTATION_STYLE_ASSIGNMENT((#169));
#67=ADVANCED_FACE('',(#170),#171,.T.);
#68=PRESENTATION_STYLE_ASSIGNMENT((#172));
#69=ADVANCED_FACE('',(#173),#174,.T.);
#70=PRESENTATION_STYLE_ASSIGNMENT((#175));
#71=ADVANCED_FACE('',(#176),#177,.T.);
#72=PRESENTATION_STYLE_ASSIGNMENT((#178));
#73=VERTEX_POINT('',#179);
#74=PRESENTATION_STYLE_ASSIGNMENT((#180));
#75=VERTEX_POINT('',#181);
#76=PRESENTATION_STYLE_ASSIGNMENT((#182));
#77=ADVANCED_FACE('',(#183,#184),#185,.T.);
#78=PRESENTATION_STYLE_ASSIGNMENT((#186));
#79=EDGE_CURVE('',#75,#117,#187,.T.);
#80=PRESENTATION_STYLE_ASSIGNMENT((#188));
#81=EDGE_CURVE('',#85,#73,#189,.T.);
#82=PRESENTATION_STYLE_ASSIGNMENT((#190));
#83=VERTEX_POINT('',#191);
#84=PRESENTATION_STYLE_ASSIGNMENT((#192));
#85=VERTEX_POINT('',#193);
#86=PRESENTATION_STYLE_ASSIGNMENT((#194));
#87=EDGE_CURVE('',#113,#131,#195,.T.);
#88=PRESENTATION_STYLE_ASSIGNMENT((#196));
#89=EDGE_CURVE('',#123,#137,#197,.T.);
#90=PRESENTATION_STYLE_ASSIGNMENT((#198));
#91=EDGE_CURVE('',#145,#83,#199,.T.);
#92=PRESENTATION_STYLE_ASSIGNMENT((#200));
#93=EDGE_CURVE('',#117,#105,#201,.T.);
#94=PRESENTATION_STYLE_ASSIGNMENT((#202));
#95=EDGE_CURVE('',#131,#73,#203,.T.);
#96=PRESENTATION_STYLE_ASSIGNMENT((#204));
#97=EDGE_CURVE('',#131,#113,#205,.T.);
#98=PRESENTATION_STYLE_ASSIGNMENT((#206));
#99=ADVANCED_FACE('',(#207),#208,.T.);
#100=PRESENTATION_STYLE_ASSIGNMENT((#209));
#101=ADVANCED_FACE('',(#210),#211,.T.);
#102=PRESENTATION_STYLE_ASSIGNMENT((#212));
#103=ADVANCED_FACE('',(#213),#214,.T.);
#104=PRESENTATION_STYLE_ASSIGNMENT((#215));
#105=VERTEX_POINT('',#216);
#106=PRESENTATION_STYLE_ASSIGNMENT((#217));
#107=EDGE_CURVE('',#113,#123,#218,.T.);
#108=PRESENTATION_STYLE_ASSIGNMENT((#219));
#109=ADVANCED_FACE('',(#220),#221,.T.);
#110=PRESENTATION_STYLE_ASSIGNMENT((#222));
#111=EDGE_CURVE('',#105,#151,#223,.T.);
#112=PRESENTATION_STYLE_ASSIGNMENT((#224));
#113=VERTEX_POINT('',#225);
#114=PRESENTATION_STYLE_ASSIGNMENT((#226));
#115=ADVANCED_FACE('',(#227),#228,.T.);
#116=PRESENTATION_STYLE_ASSIGNMENT((#229));
#117=VERTEX_POINT('',#230);
#118=PRESENTATION_STYLE_ASSIGNMENT((#231));
#119=EDGE_CURVE('',#105,#83,#232,.T.);
#120=PRESENTATION_STYLE_ASSIGNMENT((#233));
#121=EDGE_CURVE('',#83,#75,#234,.T.);
#122=PRESENTATION_STYLE_ASSIGNMENT((#235));
#123=VERTEX_POINT('',#236);
#124=PRESENTATION_STYLE_ASSIGNMENT((#237));
#125=EDGE_CURVE('',#137,#123,#238,.T.);
#126=PRESENTATION_STYLE_ASSIGNMENT((#239));
#127=EDGE_CURVE('',#145,#151,#240,.T.);
#128=PRESENTATION_STYLE_ASSIGNMENT((#241));
#129=EDGE_CURVE('',#151,#145,#242,.T.);
#130=PRESENTATION_STYLE_ASSIGNMENT((#243));
#131=VERTEX_POINT('',#244);
#132=PRESENTATION_STYLE_ASSIGNMENT((#245));
#133=EDGE_CURVE('',#117,#75,#246,.T.);
#134=PRESENTATION_STYLE_ASSIGNMENT((#247));
#135=EDGE_CURVE('',#137,#131,#248,.T.);
#136=PRESENTATION_STYLE_ASSIGNMENT((#249));
#137=VERTEX_POINT('',#250);
#138=PRESENTATION_STYLE_ASSIGNMENT((#251));
#139=EDGE_CURVE('',#83,#105,#252,.T.);
#140=PRESENTATION_STYLE_ASSIGNMENT((#253));
#141=ADVANCED_FACE('',(#254),#255,.T.);
#142=PRESENTATION_STYLE_ASSIGNMENT((#256));
#143=EDGE_CURVE('',#73,#85,#257,.T.);
#144=PRESENTATION_STYLE_ASSIGNMENT((#258));
#145=VERTEX_POINT('',#259);
#146=PRESENTATION_STYLE_ASSIGNMENT((#260));
#147=ADVANCED_FACE('',(#261),#262,.T.);
#148=PRESENTATION_STYLE_ASSIGNMENT((#263));
#149=EDGE_CURVE('',#85,#113,#264,.T.);
#150=PRESENTATION_STYLE_ASSIGNMENT((#265));
#151=VERTEX_POINT('',#266);
#152=PRODUCT('1','1','PART-1-DESC',(#267));
#153=PRODUCT_DEFINITION('NONE','NONE',#268,#2);
#154=MANIFOLD_SOLID_BREP('1',#269);
#155=AXIS2_PLACEMENT_3D('',#270,#271,#272);
#158=LENGTH_MEASURE_WITH_UNIT(LENGTH_MEASURE(1.0),#273);
#161=DIMENSIONAL_EXPONENTS(1.0,0.0,0.0,0.0,0.0,0.0,0.0);
#163=DIMENSIONAL_EXPONENTS(0.0,0.0,0.0,0.0,0.0,0.0,0.0);
#169=SURFACE_STYLE_USAGE(.BOTH.,#274);
#170=FACE_OUTER_BOUND('',#275,.T.);
#171=CONICAL_SURFACE('',#276,18.4,0.785398163397448);
#172=SURFACE_STYLE_USAGE(.BOTH.,#277);
#173=FACE_OUTER_BOUND('',#278,.T.);
#174=CYLINDRICAL_SURFACE('',#279,10.0);
#175=SURFACE_STYLE_USAGE(.BOTH.,#280);
#176=FACE_OUTER_BOUND('',#281,.T.);
#177=CYLINDRICAL_SURFACE('',#282,20.0);
#178=POINT_STYLE(' ',#283,POSITIVE_LENGTH_MEASURE(1.0E-006),#284);
#179=CARTESIAN_POINT('',(20.0,0.0,0.0));
#180=POINT_STYLE(' ',#285,POSITIVE_LENGTH_MEASURE(1.0E-006),#286);
#181=CARTESIAN_POINT('',(-10.0,-1.22460635382238E-015,7.49830360911069E-032));
#182=SURFACE_STYLE_USAGE(.BOTH.,#287);
#183=FACE_BOUND('',#288,.T.);
#184=FACE_OUTER_BOUND('',#289,.T.);
#185=PLANE('',#290);
#186=CURVE_STYLE('',#291,POSITIVE_LENGTH_MEASURE(1.0E-006),#292);
#187=CIRCLE('',#293,10.0);
#188=CURVE_STYLE('',#294,POSITIVE_LENGTH_MEASURE(1.0E-006),#295);
#189=CIRCLE('',#296,20.0);
#190=POINT_STYLE(' ',#297,POSITIVE_LENGTH_MEASURE(1.0E-006),#298);
#191=CARTESIAN_POINT('',(-10.0,-2.14306111918916E-015,-15.0));
#192=POINT_STYLE(' ',#299,POSITIVE_LENGTH_MEASURE(1.0E-006),#300);
#193=CARTESIAN_POINT('',(-20.0,-2.44921270764475E-015,1.49966072182214E-031));
#194=CURVE_STYLE('',#301,POSITIVE_LENGTH_MEASURE(1.0E-006),#302);
#195=CIRCLE('',#303,20.0);
#196=CURVE_STYLE('',#304,POSITIVE_LENGTH_MEASURE(1.0E-006),#305);
#197=CIRCLE('',#306,16.8);
#198=CURVE_STYLE('',#307,POSITIVE_LENGTH_MEASURE(1.0E-006),#308);
#199=LINE('',#309,#310);
#200=CURVE_STYLE('',#311,POSITIVE_LENGTH_MEASURE(1.0E-006),#312);
#201=LINE('',#313,#314);
#202=CURVE_STYLE('',#315,POSITIVE_LENGTH_MEASURE(1.0E-006),#316);
#203=LINE('',#317,#318);
#204=CURVE_STYLE('',#319,POSITIVE_LENGTH_MEASURE(1.0E-006),#320);
#205=CIRCLE('',#321,20.0);
#206=SURFACE_STYLE_USAGE(.BOTH.,#322);
#207=FACE_OUTER_BOUND('',#323,.T.);
#208=CONICAL_SURFACE('',#324,9.5,0.197395559849881);
#209=SURFACE_STYLE_USAGE(.BOTH.,#325);
#210=FACE_OUTER_BOUND('',#326,.T.);
#211=CONICAL_SURFACE('',#327,9.5,0.197395559849881);
#212=SURFACE_STYLE_USAGE(.BOTH.,#328);
#213=FACE_OUTER_BOUND('',#329,.T.);
#214=PLANE('',#330);
#215=POINT_STYLE(' ',#331,POSITIVE_LENGTH_MEASURE(1.0E-006),#332);
#216=CARTESIAN_POINT('',(10.0,-9.18454765366783E-016,-15.0));
#217=CURVE_STYLE('',#333,POSITIVE_LENGTH_MEASURE(1.0E-006),#334);
#218=LINE('',#335,#336);
#219=SURFACE_STYLE_USAGE(.BOTH.,#337);
#220=FACE_OUTER_BOUND('',#338,.T.);
#221=CONICAL_SURFACE('',#339,18.4,0.785398163397448);
#222=CURVE_STYLE('',#340,POSITIVE_LENGTH_MEASURE(1.0E-006),#341);
#223=LINE('',#342,#343);
#224=POINT_STYLE(' ',#344,POSITIVE_LENGTH_MEASURE(1.0E-006),#345);
#225=CARTESIAN_POINT('',(-20.0,-6.85779558140532E-016,28.8));
#226=SURFACE_STYLE_USAGE(.BOTH.,#346);
#227=FACE_OUTER_BOUND('',#347,.T.);
#228=PLANE('',#348);
#229=POINT_STYLE(' ',#349,POSITIVE_LENGTH_MEASURE(1.0E-006),#350);
#230=CARTESIAN_POINT('',(10.0,0.0,0.0));
#231=CURVE_STYLE('',#351,POSITIVE_LENGTH_MEASURE(1.0E-006),#352);
#232=CIRCLE('',#353,10.0);
#233=CURVE_STYLE('',#354,POSITIVE_LENGTH_MEASURE(1.0E-006),#355);
#234=LINE('',#356,#357);
#235=POINT_STYLE(' ',#358,POSITIVE_LENGTH_MEASURE(1.0E-006),#359);
#236=CARTESIAN_POINT('',(-16.8,-9.79685083057912E-017,32.0));
#237=CURVE_STYLE('',#360,POSITIVE_LENGTH_MEASURE(1.0E-006),#361);
#238=CIRCLE('',#362,16.8);
#239=CURVE_STYLE('',#363,POSITIVE_LENGTH_MEASURE(1.0E-006),#364);
#240=CIRCLE('',#365,9.0);
#241=CURVE_STYLE('',#366,POSITIVE_LENGTH_MEASURE(1.0E-006),#367);
#242=CIRCLE('',#368,9.0);
#243=POINT_STYLE(' ',#369,POSITIVE_LENGTH_MEASURE(1.0E-006),#370);
#244=CARTESIAN_POINT('',(20.0,1.76343314950422E-015,28.8));
#245=CURVE_STYLE('',#371,POSITIVE_LENGTH_MEASURE(1.0E-006),#372);
#246=CIRCLE('',#373,10.0);
#247=CURVE_STYLE('',#374,POSITIVE_LENGTH_MEASURE(1.0E-006),#375);
#248=LINE('',#376,#377);
#249=POINT_STYLE(' ',#378,POSITIVE_LENGTH_MEASURE(1.0E-006),#379);
#250=CARTESIAN_POINT('',(16.8,1.9593701661158E-015,32.0));
#251=CURVE_STYLE('',#380,POSITIVE_LENGTH_MEASURE(1.0E-006),#381);
#252=CIRCLE('',#382,10.0);
#253=SURFACE_STYLE_USAGE(.BOTH.,#383);
#254=FACE_OUTER_BOUND('',#384,.T.);
#255=CYLINDRICAL_SURFACE('',#385,10.0);
#256=CURVE_STYLE('',#386,POSITIVE_LENGTH_MEASURE(1.0E-006),#387);
#257=CIRCLE('',#388,20.0);
#258=POINT_STYLE(' ',#389,POSITIVE_LENGTH_MEASURE(1.0E-006),#390);
#259=CARTESIAN_POINT('',(-9.0,-2.32675207226252E-015,-20.0));
#260=SURFACE_STYLE_USAGE(.BOTH.,#391);
#261=FACE_OUTER_BOUND('',#392,.T.);
#262=CYLINDRICAL_SURFACE('',#393,20.0);
#263=CURVE_STYLE('',#394,POSITIVE_LENGTH_MEASURE(1.0E-006),#395);
#264=LINE('',#396,#397);
#265=POINT_STYLE(' ',#398,POSITIVE_LENGTH_MEASURE(1.0E-006),#399);
#266=CARTESIAN_POINT('',(9.0,-1.22460635382238E-015,-20.0));
#267=PRODUCT_CONTEXT('',#53,'mechanical');
#268=PRODUCT_DEFINITION_FORMATION_WITH_SPECIFIED_SOURCE(' ','NONE',#152,.NOT_KNOWN.);
#269=CLOSED_SHELL('',(#99,#69,#147,#109,#115,#67,#71,#77,#141,#101,#103));
#270=CARTESIAN_POINT('',(0.0,0.0,0.0));
#271=DIRECTION('',(0.0,0.0,1.0));
#272=DIRECTION('',(1.0,0.0,0.0));
#273= (NAMED_UNIT(#161)LENGTH_UNIT()SI_UNIT(.MILLI.,.METRE.));
#274=SURFACE_SIDE_STYLE('',(#401));
#275=EDGE_LOOP('',(#402,#403,#404,#405));
#276=AXIS2_PLACEMENT_3D('',#406,#407,#408);
#277=SURFACE_SIDE_STYLE('',(#409));
#278=EDGE_LOOP('',(#410,#411,#412,#413));
#279=AXIS2_PLACEMENT_3D('',#414,#415,#416);
#280=SURFACE_SIDE_STYLE('',(#417));
#281=EDGE_LOOP('',(#418,#419,#420,#421));
#282=AXIS2_PLACEMENT_3D('',#422,#423,#424);
#283=PRE_DEFINED_MARKER('');
#284=COLOUR_RGB('',0.509803950786591,0.509803950786591,0.588235318660736);
#285=PRE_DEFINED_MARKER('');
#286=COLOUR_RGB('',0.509803950786591,0.509803950786591,0.588235318660736);
#287=SURFACE_SIDE_STYLE('',(#425));
#288=EDGE_LOOP('',(#426,#427));
#289=EDGE_LOOP('',(#428,#429));
#290=AXIS2_PLACEMENT_3D('',#430,#431,#432);
#291=DRAUGHTING_PRE_DEFINED_CURVE_FONT('continuous');
#292=COLOUR_RGB('',0.509803950786591,0.509803950786591,0.588235318660736);
#293=AXIS2_PLACEMENT_3D('',#433,#434,#435);
#294=DRAUGHTING_PRE_DEFINED_CURVE_FONT('continuous');
#295=COLOUR_RGB('',0.509803950786591,0.509803950786591,0.588235318660736);
#296=AXIS2_PLACEMENT_3D('',#436,#437,#438);
#297=PRE_DEFINED_MARKER('');
#298=COLOUR_RGB('',0.509803950786591,0.509803950786591,0.588235318660736);
#299=PRE_DEFINED_MARKER('');
#300=COLOUR_RGB('',0.509803950786591,0.509803950786591,0.588235318660736);
#301=DRAUGHTING_PRE_DEFINED_CURVE_FONT('continuous');
#302=COLOUR_RGB('',0.509803950786591,0.509803950786591,0.588235318660736);
#303=AXIS2_PLACEMENT_3D('',#439,#440,#441);
#304=DRAUGHTING_PRE_DEFINED_CURVE_FONT('continuous');
#305=COLOUR_RGB('',0.509803950786591,0.509803950786591,0.588235318660736);
#306=AXIS2_PLACEMENT_3D('',#442,#443,#444);
#307=DRAUGHTING_PRE_DEFINED_CURVE_FONT('continuous');
#308=COLOUR_RGB('',0.509803950786591,0.509803950786591,0.588235318660736);
#309=CARTESIAN_POINT('',(-9.5,-2.23490659572584E-015,-17.5));
#310=VECTOR('',#445,1.0);
#311=DRAUGHTING_PRE_DEFINED_CURVE_FONT('continuous');
#312=COLOUR_RGB('',0.509803950786591,0.509803950786591,0.588235318660736);
#313=CARTESIAN_POINT('',(10.0,7.65378971138986E-016,-7.5));
#314=VECTOR('',#446,1.0);
#315=DRAUGHTING_PRE_DEFINED_CURVE_FONT('continuous');
#316=COLOUR_RGB('',0.509803950786591,0.509803950786591,0.588235318660736);
#317=CARTESIAN_POINT('',(20.0,3.33092928239687E-015,14.4));
#318=VECTOR('',#447,1.0);
#319=DRAUGHTING_PRE_DEFINED_CURVE_FONT('continuous');
#320=COLOUR_RGB('',0.509803950786591,0.509803950786591,0.588235318660736);
#321=AXIS2_PLACEMENT_3D('',#448,#449,#450);
#322=SURFACE_SIDE_STYLE('',(#451));
#323=EDGE_LOOP('',(#452,#453,#454,#455));
#324=AXIS2_PLACEMENT_3D('',#456,#457,#458);
#325=SURFACE_SIDE_STYLE('',(#459));
#326=EDGE_LOOP('',(#460,#461,#462,#463));
#327=AXIS2_PLACEMENT_3D('',#464,#465,#466);
#328=SURFACE_SIDE_STYLE('',(#467));
#329=EDGE_LOOP('',(#468,#469));
#330=AXIS2_PLACEMENT_3D('',#470,#471,#472);
#331=PRE_DEFINED_MARKER('');
#332=COLOUR_RGB('',0.509803950786591,0.509803950786591,0.588235318660736);
#333=DRAUGHTING_PRE_DEFINED_CURVE_FONT('continuous');
#334=COLOUR_RGB('',0.509803950786591,0.509803950786591,0.588235318660736);
#335=CARTESIAN_POINT('',(-18.4,-3.91874033223161E-016,30.4));
#336=VECTOR('',#473,1.0);
#337=SURFACE_SIDE_STYLE('',(#474));
#338=EDGE_LOOP('',(#475,#476,#477,#478));
#339=AXIS2_PLACEMENT_3D('',#479,#480,#481);
#340=DRAUGHTING_PRE_DEFINED_CURVE_FONT('continuous');
#341=COLOUR_RGB('',0.509803950786591,0.509803950786591,0.588235318660736);
#342=CARTESIAN_POINT('',(9.5,9.18454765366783E-017,-17.5));
#343=VECTOR('',#482,1.0);
#344=PRE_DEFINED_MARKER('');
#345=COLOUR_RGB('',0.509803950786591,0.509803950786591,0.588235318660736);
#346=SURFACE_SIDE_STYLE('',(#483));
#347=EDGE_LOOP('',(#484,#485));
#348=AXIS2_PLACEMENT_3D('',#486,#487,#488);
#349=PRE_DEFINED_MARKER('');
#350=COLOUR_RGB('',0.509803950786591,0.509803950786591,0.588235318660736);
#351=DRAUGHTING_PRE_DEFINED_CURVE_FONT('continuous');
#352=COLOUR_RGB('',0.509803950786591,0.509803950786591,0.588235318660736);
#353=AXIS2_PLACEMENT_3D('',#489,#490,#491);
#354=DRAUGHTING_PRE_DEFINED_CURVE_FONT('continuous');
#355=COLOUR_RGB('',0.509803950786591,0.509803950786591,0.588235318660736);
#356=CARTESIAN_POINT('',(-10.0,-1.68383373650577E-015,-7.5));
#357=VECTOR('',#492,1.0);
#358=PRE_DEFINED_MARKER('');
#359=COLOUR_RGB('',0.509803950786591,0.509803950786591,0.588235318660736);
#360=DRAUGHTING_PRE_DEFINED_CURVE_FONT('continuous');
#361=COLOUR_RGB('',0.509803950786591,0.509803950786591,0.588235318660736);
#362=AXIS2_PLACEMENT_3D('',#493,#494,#495);
#363=DRAUGHTING_PRE_DEFINED_CURVE_FONT('continuous');
#364=COLOUR_RGB('',0.509803950786591,0.509803950786591,0.588235318660736);
#365=AXIS2_PLACEMENT_3D('',#496,#497,#498);
#366=DRAUGHTING_PRE_DEFINED_CURVE_FONT('continuous');
#367=COLOUR_RGB('',0.509803950786591,0.509803950786591,0.588235318660736);
#368=AXIS2_PLACEMENT_3D('',#499,#500,#501);
#369=PRE_DEFINED_MARKER('');
#370=COLOUR_RGB('',0.509803950786591,0.509803950786591,0.588235318660736);
#371=DRAUGHTING_PRE_DEFINED_CURVE_FONT('continuous');
#372=COLOUR_RGB('',0.509803950786591,0.509803950786591,0.588235318660736);
#373=AXIS2_PLACEMENT_3D('',#502,#503,#504);
#374=DRAUGHTING_PRE_DEFINED_CURVE_FONT('continuous');
#375=COLOUR_RGB('',0.509803950786591,0.509803950786591,0.588235318660736);
#376=CARTESIAN_POINT('',(18.4,4.11467734884318E-015,30.4));
#377=VECTOR('',#505,1.0);
#378=PRE_DEFINED_MARKER('');
#379=COLOUR_RGB('',0.509803950786591,0.509803950786591,0.588235318660736);
#380=DRAUGHTING_PRE_DEFINED_CURVE_FONT('continuous');
#381=COLOUR_RGB('',0.509803950786591,0.509803950786591,0.588235318660736);
#382=AXIS2_PLACEMENT_3D('',#506,#507,#508);
#383=SURFACE_SIDE_STYLE('',(#509));
#384=EDGE_LOOP('',(#510,#511,#512,#513));
#385=AXIS2_PLACEMENT_3D('',#514,#515,#516);
#386=DRAUGHTING_PRE_DEFINED_CURVE_FONT('continuous');
#387=COLOUR_RGB('',0.509803950786591,0.509803950786591,0.588235318660736);
#388=AXIS2_PLACEMENT_3D('',#517,#518,#519);
#389=PRE_DEFINED_MARKER('');
#390=COLOUR_RGB('',0.509803950786591,0.509803950786591,0.588235318660736);
#391=SURFACE_SIDE_STYLE('',(#520));
#392=EDGE_LOOP('',(#521,#522,#523,#524));
#393=AXIS2_PLACEMENT_3D('',#525,#526,#527);
#394=DRAUGHTING_PRE_DEFINED_CURVE_FONT('continuous');
#395=COLOUR_RGB('',0.509803950786591,0.509803950786591,0.588235318660736);
#396=CARTESIAN_POINT('',(-20.0,-1.56749613289264E-015,14.4));
#397=VECTOR('',#528,1.0);
#398=PRE_DEFINED_MARKER('');
#399=COLOUR_RGB('',0.509803950786591,0.509803950786591,0.588235318660736);
#401=SURFACE_STYLE_FILL_AREA(#529);
#402=ORIENTED_EDGE('',*,*,#135,.T.);
#403=ORIENTED_EDGE('',*,*,#87,.F.);
#404=ORIENTED_EDGE('',*,*,#107,.T.);
#405=ORIENTED_EDGE('',*,*,#89,.T.);
#406=CARTESIAN_POINT('',(0.0,1.86140165781001E-015,30.4));
#407=DIRECTION('',(0.0,-6.12303176911189E-017,-1.0));
#408=DIRECTION('',(1.0,0.0,0.0));
#409=SURFACE_STYLE_FILL_AREA(#530);
#410=ORIENTED_EDGE('',*,*,#93,.F.);
#411=ORIENTED_EDGE('',*,*,#133,.T.);
#412=ORIENTED_EDGE('',*,*,#121,.F.);
#413=ORIENTED_EDGE('',*,*,#119,.F.);
#414=CARTESIAN_POINT('',(0.0,-4.59227382683391E-016,-7.5));
#415=DIRECTION('',(-0.0,6.12303176911189E-017,1.0));
#416=DIRECTION('',(1.0,0.0,0.0));
#417=SURFACE_STYLE_FILL_AREA(#531);
#418=ORIENTED_EDGE('',*,*,#95,.T.);
#419=ORIENTED_EDGE('',*,*,#81,.F.);
#420=ORIENTED_EDGE('',*,*,#149,.T.);
#421=ORIENTED_EDGE('',*,*,#87,.T.);
#422=CARTESIAN_POINT('',(0.0,8.81716574752112E-016,14.4));
#423=DIRECTION('',(-0.0,6.12303176911189E-017,1.0));
#424=DIRECTION('',(1.0,0.0,0.0));
#425=SURFACE_STYLE_FILL_AREA(#532);
#426=ORIENTED_EDGE('',*,*,#133,.F.);
#427=ORIENTED_EDGE('',*,*,#79,.F.);
#428=ORIENTED_EDGE('',*,*,#143,.T.);
#429=ORIENTED_EDGE('',*,*,#81,.T.);
#430=CARTESIAN_POINT('',(15.0,0.0,0.0));
#431=DIRECTION('',(0.0,-6.12303176911189E-017,-1.0));
#432=DIRECTION('',(1.0,0.0,0.0));
#433=CARTESIAN_POINT('',(0.0,0.0,0.0));
#434=DIRECTION('',(0.0,-6.12303176911189E-017,-1.0));
#435=DIRECTION('',(1.0,0.0,0.0));
#436=CARTESIAN_POINT('',(0.0,0.0,0.0));
#437=DIRECTION('',(0.0,-6.12303176911189E-017,-1.0));
#438=DIRECTION('',(1.0,0.0,0.0));
#439=CARTESIAN_POINT('',(0.0,1.76343314950422E-015,28.8));
#440=DIRECTION('',(0.0,-6.12303176911189E-017,-1.0));
#441=DIRECTION('',(1.0,0.0,0.0));
#442=CARTESIAN_POINT('',(0.0,1.9593701661158E-015,32.0));
#443=DIRECTION('',(0.0,-6.12303176911189E-017,-1.0));
#444=DIRECTION('',(1.0,0.0,0.0));
#445=DIRECTION('',(-0.196116135138184,3.60247597765962E-017,0.98058067569092));
#446=DIRECTION('',(0.0,-6.12303176911189E-017,-1.0));
#447=DIRECTION('',(0.0,-6.12303176911189E-017,-1.0));
#448=CARTESIAN_POINT('',(0.0,1.76343314950422E-015,28.8));
#449=DIRECTION('',(0.0,-6.12303176911189E-017,-1.0));
#450=DIRECTION('',(1.0,0.0,0.0));
#451=SURFACE_STYLE_FILL_AREA(#533);
#452=ORIENTED_EDGE('',*,*,#111,.F.);
#453=ORIENTED_EDGE('',*,*,#119,.T.);
#454=ORIENTED_EDGE('',*,*,#91,.F.);
#455=ORIENTED_EDGE('',*,*,#129,.F.);
#456=CARTESIAN_POINT('',(0.0,-1.07153055959458E-015,-17.5));
#457=DIRECTION('',(-0.0,6.12303176911189E-017,1.0));
#458=DIRECTION('',(1.0,0.0,0.0));
#459=SURFACE_STYLE_FILL_AREA(#534);
#460=ORIENTED_EDGE('',*,*,#111,.T.);
#461=ORIENTED_EDGE('',*,*,#127,.F.);
#462=ORIENTED_EDGE('',*,*,#91,.T.);
#463=ORIENTED_EDGE('',*,*,#139,.T.);
#464=CARTESIAN_POINT('',(0.0,-1.07153055959458E-015,-17.5));
#465=DIRECTION('',(-0.0,6.12303176911189E-017,1.0));
#466=DIRECTION('',(1.0,0.0,0.0));
#467=SURFACE_STYLE_FILL_AREA(#535);
#468=ORIENTED_EDGE('',*,*,#129,.T.);
#469=ORIENTED_EDGE('',*,*,#127,.T.);
#470=CARTESIAN_POINT('',(4.5,-1.22460635382238E-015,-20.0));
#471=DIRECTION('',(0.0,-6.12303176911189E-017,-1.0));
#472=DIRECTION('',(1.0,0.0,0.0));
#473=DIRECTION('',(0.707106781186547,1.2988911856079E-016,0.707106781186548));
#474=SURFACE_STYLE_FILL_AREA(#536);
#475=ORIENTED_EDGE('',*,*,#135,.F.);
#476=ORIENTED_EDGE('',*,*,#125,.T.);
#477=ORIENTED_EDGE('',*,*,#107,.F.);
#478=ORIENTED_EDGE('',*,*,#97,.F.);
#479=CARTESIAN_POINT('',(0.0,1.86140165781001E-015,30.4));
#480=DIRECTION('',(0.0,-6.12303176911189E-017,-1.0));
#481=DIRECTION('',(1.0,0.0,0.0));
#482=DIRECTION('',(-0.196116135138184,-8.40577728120578E-017,-0.98058067569092));
#483=SURFACE_STYLE_FILL_AREA(#537);
#484=ORIENTED_EDGE('',*,*,#125,.F.);
#485=ORIENTED_EDGE('',*,*,#89,.F.);
#486=CARTESIAN_POINT('',(8.4,1.9593701661158E-015,32.0));
#487=DIRECTION('',(0.0,6.12303176911189E-017,1.0));
#488=DIRECTION('',(-1.0,0.0,0.0));
#489=CARTESIAN_POINT('',(0.0,-9.18454765366783E-016,-15.0));
#490=DIRECTION('',(0.0,-6.12303176911189E-017,-1.0));
#491=DIRECTION('',(1.0,0.0,0.0));
#492=DIRECTION('',(-0.0,6.12303176911189E-017,1.0));
#493=CARTESIAN_POINT('',(0.0,1.9593701661158E-015,32.0));
#494=DIRECTION('',(0.0,-6.12303176911189E-017,-1.0));
#495=DIRECTION('',(1.0,0.0,0.0));
#496=CARTESIAN_POINT('',(0.0,-1.22460635382238E-015,-20.0));
#497=DIRECTION('',(0.0,-6.12303176911189E-017,-1.0));
#498=DIRECTION('',(1.0,0.0,0.0));
#499=CARTESIAN_POINT('',(0.0,-1.22460635382238E-015,-20.0));
#500=DIRECTION('',(0.0,-6.12303176911189E-017,-1.0));
#501=DIRECTION('',(1.0,0.0,0.0));
#502=CARTESIAN_POINT('',(0.0,0.0,0.0));
#503=DIRECTION('',(0.0,-6.12303176911189E-017,-1.0));
#504=DIRECTION('',(1.0,0.0,0.0));
#505=DIRECTION('',(0.707106781186547,4.32963728535967E-017,-0.707106781186548));
#506=CARTESIAN_POINT('',(0.0,-9.18454765366783E-016,-15.0));
#507=DIRECTION('',(0.0,-6.12303176911189E-017,-1.0));
#508=DIRECTION('',(1.0,0.0,0.0));
#509=SURFACE_STYLE_FILL_AREA(#538);
#510=ORIENTED_EDGE('',*,*,#93,.T.);
#511=ORIENTED_EDGE('',*,*,#139,.F.);
#512=ORIENTED_EDGE('',*,*,#121,.T.);
#513=ORIENTED_EDGE('',*,*,#79,.T.);
#514=CARTESIAN_POINT('',(0.0,-4.59227382683391E-016,-7.5));
#515=DIRECTION('',(-0.0,6.12303176911189E-017,1.0));
#516=DIRECTION('',(1.0,0.0,0.0));
#517=CARTESIAN_POINT('',(0.0,0.0,0.0));
#518=DIRECTION('',(0.0,-6.12303176911189E-017,-1.0));
#519=DIRECTION('',(1.0,0.0,0.0));
#520=SURFACE_STYLE_FILL_AREA(#539);
#521=ORIENTED_EDGE('',*,*,#95,.F.);
#522=ORIENTED_EDGE('',*,*,#97,.T.);
#523=ORIENTED_EDGE('',*,*,#149,.F.);
#524=ORIENTED_EDGE('',*,*,#143,.F.);
#525=CARTESIAN_POINT('',(0.0,8.81716574752112E-016,14.4));
#526=DIRECTION('',(-0.0,6.12303176911189E-017,1.0));
#527=DIRECTION('',(1.0,0.0,0.0));
#528=DIRECTION('',(-0.0,6.12303176911189E-017,1.0));
#529=FILL_AREA_STYLE('',(#540));
#530=FILL_AREA_STYLE('',(#541));
#531=FILL_AREA_STYLE('',(#542));
#532=FILL_AREA_STYLE('',(#543));
#533=FILL_AREA_STYLE('',(#544));
#534=FILL_AREA_STYLE('',(#545));
#535=FILL_AREA_STYLE('',(#546));
#536=FILL_AREA_STYLE('',(#547));
#537=FILL_AREA_STYLE('',(#548));
#538=FILL_AREA_STYLE('',(#549));
#539=FILL_AREA_STYLE('',(#550));
#540=FILL_AREA_STYLE_COLOUR('',#551);
#541=FILL_AREA_STYLE_COLOUR('',#552);
#542=FILL_AREA_STYLE_COLOUR('',#553);
#543=FILL_AREA_STYLE_COLOUR('',#554);
#544=FILL_AREA_STYLE_COLOUR('',#555);
#545=FILL_AREA_STYLE_COLOUR('',#556);
#546=FILL_AREA_STYLE_COLOUR('',#557);
#547=FILL_AREA_STYLE_COLOUR('',#558);
#548=FILL_AREA_STYLE_COLOUR('',#559);
#549=FILL_AREA_STYLE_COLOUR('',#560);
#550=FILL_AREA_STYLE_COLOUR('',#561);
#551=COLOUR_RGB('',0.509803950786591,0.509803950786591,0.588235318660736);
#552=COLOUR_RGB('',0.509803950786591,0.509803950786591,0.588235318660736);
#553=COLOUR_RGB('',0.509803950786591,0.509803950786591,0.588235318660736);
#554=COLOUR_RGB('',0.509803950786591,0.509803950786591,0.588235318660736);
#555=COLOUR_RGB('',0.509803950786591,0.509803950786591,0.588235318660736);
#556=COLOUR_RGB('',0.509803950786591,0.509803950786591,0.588235318660736);
#557=COLOUR_RGB('',0.509803950786591,0.509803950786591,0.588235318660736);
#558=COLOUR_RGB('',0.509803950786591,0.509803950786591,0.588235318660736);
#559=COLOUR_RGB('',0.509803950786591,0.509803950786591,0.588235318660736);
#560=COLOUR_RGB('',0.509803950786591,0.509803950786591,0.588235318660736);
#561=COLOUR_RGB('',0.509803950786591,0.509803950786591,0.588235318660736);
ENDSEC;
END-ISO-10303-21;
