ISO-10303-21;
HEADER;
FILE_DESCRIPTION(('STEP AP214'),'1');
FILE_NAME(' ','  ',('TraceParts'),('TraceParts S.A.'),'XStep 1.0',' ',' ');
FILE_SCHEMA(('automotive_design'));
ENDSEC;
DATA;
#1=MECHANICAL_DESIGN_GEOMETRIC_PRESENTATION_REPRESENTATION(' ',(#10,#11,#12,#13,#14,#15,#16,#17,#18,#19,#20,#21,#22,#23,#24,#25,#26,#27,#28,#29,#30,#31,#32,#33,#34,#35,#36,#37,#38,#39,#40,#41,#42,#43,#44,#45,#46,#47,#48,#49,#50,#51,#52),#6);
#2=PRODUCT_DEFINITION_CONTEXT('',#53,'design');
#3=APPLICATION_PROTOCOL_DEFINITION('INTERNATIONAL STANDARD','automotive_design',1994,#53);
#4=PRODUCT_CATEGORY_RELATIONSHIP('NONE','NONE',#54,#55);
#5=SHAPE_DEFINITION_REPRESENTATION(#56,#57);
#6= (GEOMETRIC_REPRESENTATION_CONTEXT(3)GLOBAL_UNCERTAINTY_ASSIGNED_CONTEXT((#60))GLOBAL_UNIT_ASSIGNED_CONTEXT((#62,#63,#64))REPRESENTATION_CONTEXT('NONE','WORKSPACE'));
#10=STYLED_ITEM('',(#66),#67);
#11=STYLED_ITEM('',(#68),#69);
#12=STYLED_ITEM('',(#70),#71);
#13=STYLED_ITEM('',(#72),#73);
#14=STYLED_ITEM('',(#74),#75);
#15=STYLED_ITEM('',(#76),#77);
#16=STYLED_ITEM('',(#78),#79);
#17=STYLED_ITEM('',(#80),#81);
#18=STYLED_ITEM('',(#82),#83);
#19=STYLED_ITEM('',(#84),#85);
#20=STYLED_ITEM('',(#86),#87);
#21=STYLED_ITEM('',(#88),#89);
#22=STYLED_ITEM('',(#90),#91);
#23=STYLED_ITEM('',(#92),#93);
#24=STYLED_ITEM('',(#94),#95);
#25=STYLED_ITEM('',(#96),#97);
#26=STYLED_ITEM('',(#98),#99);
#27=STYLED_ITEM('',(#100),#101);
#28=STYLED_ITEM('',(#102),#103);
#29=STYLED_ITEM('',(#104),#105);
#30=STYLED_ITEM('',(#106),#107);
#31=STYLED_ITEM('',(#108),#109);
#32=STYLED_ITEM('',(#110),#111);
#33=STYLED_ITEM('',(#112),#113);
#34=STYLED_ITEM('',(#114),#115);
#35=STYLED_ITEM('',(#116),#117);
#36=STYLED_ITEM('',(#118),#119);
#37=STYLED_ITEM('',(#120),#121);
#38=STYLED_ITEM('',(#122),#123);
#39=STYLED_ITEM('',(#124),#125);
#40=STYLED_ITEM('',(#126),#127);
#41=STYLED_ITEM('',(#128),#129);
#42=STYLED_ITEM('',(#130),#131);
#43=STYLED_ITEM('',(#132),#133);
#44=STYLED_ITEM('',(#134),#135);
#45=STYLED_ITEM('',(#136),#137);
#46=STYLED_ITEM('',(#138),#139);
#47=STYLED_ITEM('',(#140),#141);
#48=STYLED_ITEM('',(#142),#143);
#49=STYLED_ITEM('',(#144),#145);
#50=STYLED_ITEM('',(#146),#147);
#51=STYLED_ITEM('',(#148),#149);
#52=STYLED_ITEM('',(#150),#151);
#53=APPLICATION_CONTEXT(' ');
#54=PRODUCT_CATEGORY('part','NONE');
#55=PRODUCT_RELATED_PRODUCT_CATEGORY('detail',' ',(#152));
#56=PRODUCT_DEFINITION_SHAPE('NONE','NONE',#153);
#57=ADVANCED_BREP_SHAPE_REPRESENTATION('1',(#154,#155),#6);
#60=UNCERTAINTY_MEASURE_WITH_UNIT(LENGTH_MEASURE(1.0E-006),#62,'','');
#62= (CONVERSION_BASED_UNIT('MILLIMETRE',#158)LENGTH_UNIT()NAMED_UNIT(#161));
#63= (NAMED_UNIT(#163)PLANE_ANGLE_UNIT()SI_UNIT($,.RADIAN.));
#64= (NAMED_UNIT(#163)SOLID_ANGLE_UNIT()SI_UNIT($,.STERADIAN.));
#66=PRESENTATION_STYLE_ASSIGNMENT((#169));
#67=VERTEX_POINT('',#170);
#68=PRESENTATION_STYLE_ASSIGNMENT((#171));
#69=VERTEX_POINT('',#172);
#70=PRESENTATION_STYLE_ASSIGNMENT((#173));
#71=EDGE_CURVE('',#117,#123,#174,.T.);
#72=PRESENTATION_STYLE_ASSIGNMENT((#175));
#73=ADVANCED_FACE('',(#176),#177,.T.);
#74=PRESENTATION_STYLE_ASSIGNMENT((#178));
#75=VERTEX_POINT('',#179);
#76=PRESENTATION_STYLE_ASSIGNMENT((#180));
#77=ADVANCED_FACE('',(#181),#182,.T.);
#78=PRESENTATION_STYLE_ASSIGNMENT((#183));
#79=EDGE_CURVE('',#67,#113,#184,.T.);
#80=PRESENTATION_STYLE_ASSIGNMENT((#185));
#81=VERTEX_POINT('',#186);
#82=PRESENTATION_STYLE_ASSIGNMENT((#187));
#83=EDGE_CURVE('',#75,#97,#188,.T.);
#84=PRESENTATION_STYLE_ASSIGNMENT((#189));
#85=ADVANCED_FACE('',(#190),#191,.T.);
#86=PRESENTATION_STYLE_ASSIGNMENT((#192));
#87=EDGE_CURVE('',#117,#81,#193,.T.);
#88=PRESENTATION_STYLE_ASSIGNMENT((#194));
#89=ADVANCED_FACE('',(#195),#196,.T.);
#90=PRESENTATION_STYLE_ASSIGNMENT((#197));
#91=ADVANCED_FACE('',(#198),#199,.T.);
#92=PRESENTATION_STYLE_ASSIGNMENT((#200));
#93=VERTEX_POINT('',#201);
#94=PRESENTATION_STYLE_ASSIGNMENT((#202));
#95=ADVANCED_FACE('',(#203),#204,.T.);
#96=PRESENTATION_STYLE_ASSIGNMENT((#205));
#97=VERTEX_POINT('',#206);
#98=PRESENTATION_STYLE_ASSIGNMENT((#207));
#99=EDGE_CURVE('',#113,#67,#208,.T.);
#100=PRESENTATION_STYLE_ASSIGNMENT((#209));
#101=EDGE_CURVE('',#123,#137,#210,.T.);
#102=PRESENTATION_STYLE_ASSIGNMENT((#211));
#103=EDGE_CURVE('',#119,#143,#212,.T.);
#104=PRESENTATION_STYLE_ASSIGNMENT((#213));
#105=ADVANCED_FACE('',(#214),#215,.T.);
#106=PRESENTATION_STYLE_ASSIGNMENT((#216));
#107=EDGE_CURVE('',#137,#123,#217,.T.);
#108=PRESENTATION_STYLE_ASSIGNMENT((#218));
#109=ADVANCED_FACE('',(#219,#220),#221,.T.);
#110=PRESENTATION_STYLE_ASSIGNMENT((#222));
#111=EDGE_CURVE('',#123,#119,#223,.T.);
#112=PRESENTATION_STYLE_ASSIGNMENT((#224));
#113=VERTEX_POINT('',#225);
#114=PRESENTATION_STYLE_ASSIGNMENT((#226));
#115=EDGE_CURVE('',#143,#119,#227,.T.);
#116=PRESENTATION_STYLE_ASSIGNMENT((#228));
#117=VERTEX_POINT('',#229);
#118=PRESENTATION_STYLE_ASSIGNMENT((#230));
#119=VERTEX_POINT('',#231);
#120=PRESENTATION_STYLE_ASSIGNMENT((#232));
#121=EDGE_CURVE('',#97,#75,#233,.T.);
#122=PRESENTATION_STYLE_ASSIGNMENT((#234));
#123=VERTEX_POINT('',#235);
#124=PRESENTATION_STYLE_ASSIGNMENT((#236));
#125=EDGE_CURVE('',#113,#75,#237,.T.);
#126=PRESENTATION_STYLE_ASSIGNMENT((#238));
#127=EDGE_CURVE('',#143,#137,#239,.T.);
#128=PRESENTATION_STYLE_ASSIGNMENT((#240));
#129=ADVANCED_FACE('',(#241),#242,.T.);
#130=PRESENTATION_STYLE_ASSIGNMENT((#243));
#131=ADVANCED_FACE('',(#244),#245,.T.);
#132=PRESENTATION_STYLE_ASSIGNMENT((#246));
#133=EDGE_CURVE('',#69,#97,#247,.T.);
#134=PRESENTATION_STYLE_ASSIGNMENT((#248));
#135=EDGE_CURVE('',#137,#81,#249,.T.);
#136=PRESENTATION_STYLE_ASSIGNMENT((#250));
#137=VERTEX_POINT('',#251);
#138=PRESENTATION_STYLE_ASSIGNMENT((#252));
#139=EDGE_CURVE('',#75,#93,#253,.T.);
#140=PRESENTATION_STYLE_ASSIGNMENT((#254));
#141=EDGE_CURVE('',#81,#117,#255,.T.);
#142=PRESENTATION_STYLE_ASSIGNMENT((#256));
#143=VERTEX_POINT('',#257);
#144=PRESENTATION_STYLE_ASSIGNMENT((#258));
#145=EDGE_CURVE('',#97,#67,#259,.T.);
#146=PRESENTATION_STYLE_ASSIGNMENT((#260));
#147=EDGE_CURVE('',#69,#93,#261,.T.);
#148=PRESENTATION_STYLE_ASSIGNMENT((#262));
#149=EDGE_CURVE('',#93,#69,#263,.T.);
#150=PRESENTATION_STYLE_ASSIGNMENT((#264));
#151=ADVANCED_FACE('',(#265),#266,.T.);
#152=PRODUCT('1','1','PART-1-DESC',(#267));
#153=PRODUCT_DEFINITION('NONE','NONE',#268,#2);
#154=MANIFOLD_SOLID_BREP('1',#269);
#155=AXIS2_PLACEMENT_3D('',#270,#271,#272);
#158=LENGTH_MEASURE_WITH_UNIT(LENGTH_MEASURE(1.0),#273);
#161=DIMENSIONAL_EXPONENTS(1.0,0.0,0.0,0.0,0.0,0.0,0.0);
#163=DIMENSIONAL_EXPONENTS(0.0,0.0,0.0,0.0,0.0,0.0,0.0);
#169=POINT_STYLE(' ',#274,POSITIVE_LENGTH_MEASURE(1.0E-006),#275);
#170=CARTESIAN_POINT('',(-10.0,-1.22460635382238E-015,7.49830360911069E-032));
#171=POINT_STYLE(' ',#276,POSITIVE_LENGTH_MEASURE(1.0E-006),#277);
#172=CARTESIAN_POINT('',(-9.0,-2.32675207226252E-015,-20.0));
#173=CURVE_STYLE('',#278,POSITIVE_LENGTH_MEASURE(1.0E-006),#279);
#174=LINE('',#280,#281);
#175=SURFACE_STYLE_USAGE(.BOTH.,#282);
#176=FACE_OUTER_BOUND('',#283,.T.);
#177=CYLINDRICAL_SURFACE('',#284,10.0);
#178=POINT_STYLE(' ',#285,POSITIVE_LENGTH_MEASURE(1.0E-006),#286);
#179=CARTESIAN_POINT('',(10.0,-9.18454765366783E-016,-15.0));
#180=SURFACE_STYLE_USAGE(.BOTH.,#287);
#181=FACE_OUTER_BOUND('',#288,.T.);
#182=CONICAL_SURFACE('',#289,19.35,0.785398163397448);
#183=CURVE_STYLE('',#290,POSITIVE_LENGTH_MEASURE(1.0E-006),#291);
#184=CIRCLE('',#292,10.0);
#185=POINT_STYLE(' ',#293,POSITIVE_LENGTH_MEASURE(1.0E-006),#294);
#186=CARTESIAN_POINT('',(20.0,0.0,0.0));
#187=CURVE_STYLE('',#295,POSITIVE_LENGTH_MEASURE(1.0E-006),#296);
#188=CIRCLE('',#297,10.0);
#189=SURFACE_STYLE_USAGE(.BOTH.,#298);
#190=FACE_OUTER_BOUND('',#299,.T.);
#191=PLANE('',#300);
#192=CURVE_STYLE('',#301,POSITIVE_LENGTH_MEASURE(1.0E-006),#302);
#193=CIRCLE('',#303,20.0);
#194=SURFACE_STYLE_USAGE(.BOTH.,#304);
#195=FACE_OUTER_BOUND('',#305,.T.);
#196=CONICAL_SURFACE('',#306,19.35,0.785398163397448);
#197=SURFACE_STYLE_USAGE(.BOTH.,#307);
#198=FACE_OUTER_BOUND('',#308,.T.);
#199=CYLINDRICAL_SURFACE('',#309,20.0);
#200=POINT_STYLE(' ',#310,POSITIVE_LENGTH_MEASURE(1.0E-006),#311);
#201=CARTESIAN_POINT('',(9.0,-1.22460635382238E-015,-20.0));
#202=SURFACE_STYLE_USAGE(.BOTH.,#312);
#203=FACE_OUTER_BOUND('',#313,.T.);
#204=CYLINDRICAL_SURFACE('',#314,20.0);
#205=POINT_STYLE(' ',#315,POSITIVE_LENGTH_MEASURE(1.0E-006),#316);
#206=CARTESIAN_POINT('',(-10.0,-2.14306111918916E-015,-15.0));
#207=CURVE_STYLE('',#317,POSITIVE_LENGTH_MEASURE(1.0E-006),#318);
#208=CIRCLE('',#319,10.0);
#209=CURVE_STYLE('',#320,POSITIVE_LENGTH_MEASURE(1.0E-006),#321);
#210=CIRCLE('',#322,20.0);
#211=CURVE_STYLE('',#323,POSITIVE_LENGTH_MEASURE(1.0E-006),#324);
#212=CIRCLE('',#325,18.7);
#213=SURFACE_STYLE_USAGE(.BOTH.,#326);
#214=FACE_OUTER_BOUND('',#327,.T.);
#215=PLANE('',#328);
#216=CURVE_STYLE('',#329,POSITIVE_LENGTH_MEASURE(1.0E-006),#330);
#217=CIRCLE('',#331,20.0);
#218=SURFACE_STYLE_USAGE(.BOTH.,#332);
#219=FACE_BOUND('',#333,.T.);
#220=FACE_OUTER_BOUND('',#334,.T.);
#221=PLANE('',#335);
#222=CURVE_STYLE('',#336,POSITIVE_LENGTH_MEASURE(1.0E-006),#337);
#223=LINE('',#338,#339);
#224=POINT_STYLE(' ',#340,POSITIVE_LENGTH_MEASURE(1.0E-006),#341);
#225=CARTESIAN_POINT('',(10.0,0.0,0.0));
#226=CURVE_STYLE('',#342,POSITIVE_LENGTH_MEASURE(1.0E-006),#343);
#227=CIRCLE('',#344,18.7);
#228=POINT_STYLE(' ',#345,POSITIVE_LENGTH_MEASURE(1.0E-006),#346);
#229=CARTESIAN_POINT('',(-20.0,-2.44921270764475E-015,1.49966072182214E-031));
#230=POINT_STYLE(' ',#347,POSITIVE_LENGTH_MEASURE(1.0E-006),#348);
#231=CARTESIAN_POINT('',(-18.7,-1.4940197516633E-015,13.0));
#232=CURVE_STYLE('',#349,POSITIVE_LENGTH_MEASURE(1.0E-006),#350);
#233=CIRCLE('',#351,10.0);
#234=POINT_STYLE(' ',#352,POSITIVE_LENGTH_MEASURE(1.0E-006),#353);
#235=CARTESIAN_POINT('',(-20.0,-1.73281799065866E-015,11.7));
#236=CURVE_STYLE('',#354,POSITIVE_LENGTH_MEASURE(1.0E-006),#355);
#237=LINE('',#356,#357);
#238=CURVE_STYLE('',#358,POSITIVE_LENGTH_MEASURE(1.0E-006),#359);
#239=LINE('',#360,#361);
#240=SURFACE_STYLE_USAGE(.BOTH.,#362);
#241=FACE_OUTER_BOUND('',#363,.T.);
#242=CYLINDRICAL_SURFACE('',#364,10.0);
#243=SURFACE_STYLE_USAGE(.BOTH.,#365);
#244=FACE_OUTER_BOUND('',#366,.T.);
#245=CONICAL_SURFACE('',#367,9.5,0.197395559849881);
#246=CURVE_STYLE('',#368,POSITIVE_LENGTH_MEASURE(1.0E-006),#369);
#247=LINE('',#370,#371);
#248=CURVE_STYLE('',#372,POSITIVE_LENGTH_MEASURE(1.0E-006),#373);
#249=LINE('',#374,#375);
#250=POINT_STYLE(' ',#376,POSITIVE_LENGTH_MEASURE(1.0E-006),#377);
#251=CARTESIAN_POINT('',(20.0,7.16394716986091E-016,11.7));
#252=CURVE_STYLE('',#378,POSITIVE_LENGTH_MEASURE(1.0E-006),#379);
#253=LINE('',#380,#381);
#254=CURVE_STYLE('',#382,POSITIVE_LENGTH_MEASURE(1.0E-006),#383);
#255=CIRCLE('',#384,20.0);
#256=POINT_STYLE(' ',#385,POSITIVE_LENGTH_MEASURE(1.0E-006),#386);
#257=CARTESIAN_POINT('',(18.7,7.95994129984545E-016,13.0));
#258=CURVE_STYLE('',#387,POSITIVE_LENGTH_MEASURE(1.0E-006),#388);
#259=LINE('',#389,#390);
#260=CURVE_STYLE('',#391,POSITIVE_LENGTH_MEASURE(1.0E-006),#392);
#261=CIRCLE('',#393,9.0);
#262=CURVE_STYLE('',#394,POSITIVE_LENGTH_MEASURE(1.0E-006),#395);
#263=CIRCLE('',#396,9.0);
#264=SURFACE_STYLE_USAGE(.BOTH.,#397);
#265=FACE_OUTER_BOUND('',#398,.T.);
#266=CONICAL_SURFACE('',#399,9.5,0.197395559849881);
#267=PRODUCT_CONTEXT('',#53,'mechanical');
#268=PRODUCT_DEFINITION_FORMATION_WITH_SPECIFIED_SOURCE(' ','NONE',#152,.NOT_KNOWN.);
#269=CLOSED_SHELL('',(#151,#73,#95,#89,#85,#77,#91,#109,#129,#131,#105));
#270=CARTESIAN_POINT('',(0.0,0.0,0.0));
#271=DIRECTION('',(0.0,0.0,1.0));
#272=DIRECTION('',(1.0,0.0,0.0));
#273= (NAMED_UNIT(#161)LENGTH_UNIT()SI_UNIT(.MILLI.,.METRE.));
#274=PRE_DEFINED_MARKER('');
#275=COLOUR_RGB('',0.509803950786591,0.509803950786591,0.588235318660736);
#276=PRE_DEFINED_MARKER('');
#277=COLOUR_RGB('',0.509803950786591,0.509803950786591,0.588235318660736);
#278=DRAUGHTING_PRE_DEFINED_CURVE_FONT('continuous');
#279=COLOUR_RGB('',0.509803950786591,0.509803950786591,0.588235318660736);
#280=CARTESIAN_POINT('',(-20.0,-2.09101534915171E-015,5.85));
#281=VECTOR('',#401,1.0);
#282=SURFACE_SIDE_STYLE('',(#402));
#283=EDGE_LOOP('',(#403,#404,#405,#406));
#284=AXIS2_PLACEMENT_3D('',#407,#408,#409);
#285=PRE_DEFINED_MARKER('');
#286=COLOUR_RGB('',0.509803950786591,0.509803950786591,0.588235318660736);
#287=SURFACE_SIDE_STYLE('',(#410));
#288=EDGE_LOOP('',(#411,#412,#413,#414));
#289=AXIS2_PLACEMENT_3D('',#415,#416,#417);
#290=DRAUGHTING_PRE_DEFINED_CURVE_FONT('continuous');
#291=COLOUR_RGB('',0.509803950786591,0.509803950786591,0.588235318660736);
#292=AXIS2_PLACEMENT_3D('',#418,#419,#420);
#293=PRE_DEFINED_MARKER('');
#294=COLOUR_RGB('',0.509803950786591,0.509803950786591,0.588235318660736);
#295=DRAUGHTING_PRE_DEFINED_CURVE_FONT('continuous');
#296=COLOUR_RGB('',0.509803950786591,0.509803950786591,0.588235318660736);
#297=AXIS2_PLACEMENT_3D('',#421,#422,#423);
#298=SURFACE_SIDE_STYLE('',(#424));
#299=EDGE_LOOP('',(#425,#426));
#300=AXIS2_PLACEMENT_3D('',#427,#428,#429);
#301=DRAUGHTING_PRE_DEFINED_CURVE_FONT('continuous');
#302=COLOUR_RGB('',0.509803950786591,0.509803950786591,0.588235318660736);
#303=AXIS2_PLACEMENT_3D('',#430,#431,#432);
#304=SURFACE_SIDE_STYLE('',(#433));
#305=EDGE_LOOP('',(#434,#435,#436,#437));
#306=AXIS2_PLACEMENT_3D('',#438,#439,#440);
#307=SURFACE_SIDE_STYLE('',(#441));
#308=EDGE_LOOP('',(#442,#443,#444,#445));
#309=AXIS2_PLACEMENT_3D('',#446,#447,#448);
#310=PRE_DEFINED_MARKER('');
#311=COLOUR_RGB('',0.509803950786591,0.509803950786591,0.588235318660736);
#312=SURFACE_SIDE_STYLE('',(#449));
#313=EDGE_LOOP('',(#450,#451,#452,#453));
#314=AXIS2_PLACEMENT_3D('',#454,#455,#456);
#315=PRE_DEFINED_MARKER('');
#316=COLOUR_RGB('',0.509803950786591,0.509803950786591,0.588235318660736);
#317=DRAUGHTING_PRE_DEFINED_CURVE_FONT('continuous');
#318=COLOUR_RGB('',0.509803950786591,0.509803950786591,0.588235318660736);
#319=AXIS2_PLACEMENT_3D('',#457,#458,#459);
#320=DRAUGHTING_PRE_DEFINED_CURVE_FONT('continuous');
#321=COLOUR_RGB('',0.509803950786591,0.509803950786591,0.588235318660736);
#322=AXIS2_PLACEMENT_3D('',#460,#461,#462);
#323=DRAUGHTING_PRE_DEFINED_CURVE_FONT('continuous');
#324=COLOUR_RGB('',0.509803950786591,0.509803950786591,0.588235318660736);
#325=AXIS2_PLACEMENT_3D('',#463,#464,#465);
#326=SURFACE_SIDE_STYLE('',(#466));
#327=EDGE_LOOP('',(#467,#468));
#328=AXIS2_PLACEMENT_3D('',#469,#470,#471);
#329=DRAUGHTING_PRE_DEFINED_CURVE_FONT('continuous');
#330=COLOUR_RGB('',0.509803950786591,0.509803950786591,0.588235318660736);
#331=AXIS2_PLACEMENT_3D('',#472,#473,#474);
#332=SURFACE_SIDE_STYLE('',(#475));
#333=EDGE_LOOP('',(#476,#477));
#334=EDGE_LOOP('',(#478,#479));
#335=AXIS2_PLACEMENT_3D('',#480,#481,#482);
#336=DRAUGHTING_PRE_DEFINED_CURVE_FONT('continuous');
#337=COLOUR_RGB('',0.509803950786591,0.509803950786591,0.588235318660736);
#338=CARTESIAN_POINT('',(-19.35,-1.61341887116098E-015,12.35));
#339=VECTOR('',#483,1.0);
#340=PRE_DEFINED_MARKER('');
#341=COLOUR_RGB('',0.509803950786591,0.509803950786591,0.588235318660736);
#342=DRAUGHTING_PRE_DEFINED_CURVE_FONT('continuous');
#343=COLOUR_RGB('',0.509803950786591,0.509803950786591,0.588235318660736);
#344=AXIS2_PLACEMENT_3D('',#484,#485,#486);
#345=PRE_DEFINED_MARKER('');
#346=COLOUR_RGB('',0.509803950786591,0.509803950786591,0.588235318660736);
#347=PRE_DEFINED_MARKER('');
#348=COLOUR_RGB('',0.509803950786591,0.509803950786591,0.588235318660736);
#349=DRAUGHTING_PRE_DEFINED_CURVE_FONT('continuous');
#350=COLOUR_RGB('',0.509803950786591,0.509803950786591,0.588235318660736);
#351=AXIS2_PLACEMENT_3D('',#487,#488,#489);
#352=PRE_DEFINED_MARKER('');
#353=COLOUR_RGB('',0.509803950786591,0.509803950786591,0.588235318660736);
#354=DRAUGHTING_PRE_DEFINED_CURVE_FONT('continuous');
#355=COLOUR_RGB('',0.509803950786591,0.509803950786591,0.588235318660736);
#356=CARTESIAN_POINT('',(10.0,7.65378971138986E-016,-7.5));
#357=VECTOR('',#490,1.0);
#358=DRAUGHTING_PRE_DEFINED_CURVE_FONT('continuous');
#359=COLOUR_RGB('',0.509803950786591,0.509803950786591,0.588235318660736);
#360=CARTESIAN_POINT('',(19.35,3.12580771813162E-015,12.35));
#361=VECTOR('',#491,1.0);
#362=SURFACE_SIDE_STYLE('',(#492));
#363=EDGE_LOOP('',(#493,#494,#495,#496));
#364=AXIS2_PLACEMENT_3D('',#497,#498,#499);
#365=SURFACE_SIDE_STYLE('',(#500));
#366=EDGE_LOOP('',(#501,#502,#503,#504));
#367=AXIS2_PLACEMENT_3D('',#505,#506,#507);
#368=DRAUGHTING_PRE_DEFINED_CURVE_FONT('continuous');
#369=COLOUR_RGB('',0.509803950786591,0.509803950786591,0.588235318660736);
#370=CARTESIAN_POINT('',(-9.5,-2.23490659572584E-015,-17.5));
#371=VECTOR('',#508,1.0);
#372=DRAUGHTING_PRE_DEFINED_CURVE_FONT('continuous');
#373=COLOUR_RGB('',0.509803950786591,0.509803950786591,0.588235318660736);
#374=CARTESIAN_POINT('',(20.0,2.8074100661378E-015,5.85));
#375=VECTOR('',#509,1.0);
#376=PRE_DEFINED_MARKER('');
#377=COLOUR_RGB('',0.509803950786591,0.509803950786591,0.588235318660736);
#378=DRAUGHTING_PRE_DEFINED_CURVE_FONT('continuous');
#379=COLOUR_RGB('',0.509803950786591,0.509803950786591,0.588235318660736);
#380=CARTESIAN_POINT('',(9.5,9.18454765366783E-017,-17.5));
#381=VECTOR('',#510,1.0);
#382=DRAUGHTING_PRE_DEFINED_CURVE_FONT('continuous');
#383=COLOUR_RGB('',0.509803950786591,0.509803950786591,0.588235318660736);
#384=AXIS2_PLACEMENT_3D('',#511,#512,#513);
#385=PRE_DEFINED_MARKER('');
#386=COLOUR_RGB('',0.509803950786591,0.509803950786591,0.588235318660736);
#387=DRAUGHTING_PRE_DEFINED_CURVE_FONT('continuous');
#388=COLOUR_RGB('',0.509803950786591,0.509803950786591,0.588235318660736);
#389=CARTESIAN_POINT('',(-10.0,-1.68383373650577E-015,-7.5));
#390=VECTOR('',#514,1.0);
#391=DRAUGHTING_PRE_DEFINED_CURVE_FONT('continuous');
#392=COLOUR_RGB('',0.509803950786591,0.509803950786591,0.588235318660736);
#393=AXIS2_PLACEMENT_3D('',#515,#516,#517);
#394=DRAUGHTING_PRE_DEFINED_CURVE_FONT('continuous');
#395=COLOUR_RGB('',0.509803950786591,0.509803950786591,0.588235318660736);
#396=AXIS2_PLACEMENT_3D('',#518,#519,#520);
#397=SURFACE_SIDE_STYLE('',(#521));
#398=EDGE_LOOP('',(#522,#523,#524,#525));
#399=AXIS2_PLACEMENT_3D('',#526,#527,#528);
#401=DIRECTION('',(-0.0,6.12303176911189E-017,1.0));
#402=SURFACE_STYLE_FILL_AREA(#529);
#403=ORIENTED_EDGE('',*,*,#125,.F.);
#404=ORIENTED_EDGE('',*,*,#99,.T.);
#405=ORIENTED_EDGE('',*,*,#145,.F.);
#406=ORIENTED_EDGE('',*,*,#83,.F.);
#407=CARTESIAN_POINT('',(0.0,-4.59227382683391E-016,-7.5));
#408=DIRECTION('',(-0.0,6.12303176911189E-017,1.0));
#409=DIRECTION('',(1.0,0.0,0.0));
#410=SURFACE_STYLE_FILL_AREA(#530);
#411=ORIENTED_EDGE('',*,*,#127,.T.);
#412=ORIENTED_EDGE('',*,*,#101,.F.);
#413=ORIENTED_EDGE('',*,*,#111,.T.);
#414=ORIENTED_EDGE('',*,*,#103,.T.);
#415=CARTESIAN_POINT('',(0.0,7.56194423485318E-016,12.35));
#416=DIRECTION('',(0.0,-6.12303176911189E-017,-1.0));
#417=DIRECTION('',(1.0,0.0,0.0));
#418=CARTESIAN_POINT('',(0.0,0.0,0.0));
#419=DIRECTION('',(0.0,-6.12303176911189E-017,-1.0));
#420=DIRECTION('',(1.0,0.0,0.0));
#421=CARTESIAN_POINT('',(0.0,-9.18454765366783E-016,-15.0));
#422=DIRECTION('',(0.0,-6.12303176911189E-017,-1.0));
#423=DIRECTION('',(1.0,0.0,0.0));
#424=SURFACE_STYLE_FILL_AREA(#531);
#425=ORIENTED_EDGE('',*,*,#115,.F.);
#426=ORIENTED_EDGE('',*,*,#103,.F.);
#427=CARTESIAN_POINT('',(9.35,7.95994129984545E-016,13.0));
#428=DIRECTION('',(0.0,6.12303176911189E-017,1.0));
#429=DIRECTION('',(-1.0,0.0,0.0));
#430=CARTESIAN_POINT('',(0.0,0.0,0.0));
#431=DIRECTION('',(0.0,-6.12303176911189E-017,-1.0));
#432=DIRECTION('',(1.0,0.0,0.0));
#433=SURFACE_STYLE_FILL_AREA(#532);
#434=ORIENTED_EDGE('',*,*,#127,.F.);
#435=ORIENTED_EDGE('',*,*,#115,.T.);
#436=ORIENTED_EDGE('',*,*,#111,.F.);
#437=ORIENTED_EDGE('',*,*,#107,.F.);
#438=CARTESIAN_POINT('',(0.0,7.56194423485318E-016,12.35));
#439=DIRECTION('',(0.0,-6.12303176911189E-017,-1.0));
#440=DIRECTION('',(1.0,0.0,0.0));
#441=SURFACE_STYLE_FILL_AREA(#533);
#442=ORIENTED_EDGE('',*,*,#135,.T.);
#443=ORIENTED_EDGE('',*,*,#87,.F.);
#444=ORIENTED_EDGE('',*,*,#71,.T.);
#445=ORIENTED_EDGE('',*,*,#101,.T.);
#446=CARTESIAN_POINT('',(0.0,3.58197358493045E-016,5.85));
#447=DIRECTION('',(-0.0,6.12303176911189E-017,1.0));
#448=DIRECTION('',(1.0,0.0,0.0));
#449=SURFACE_STYLE_FILL_AREA(#534);
#450=ORIENTED_EDGE('',*,*,#135,.F.);
#451=ORIENTED_EDGE('',*,*,#107,.T.);
#452=ORIENTED_EDGE('',*,*,#71,.F.);
#453=ORIENTED_EDGE('',*,*,#141,.F.);
#454=CARTESIAN_POINT('',(0.0,3.58197358493045E-016,5.85));
#455=DIRECTION('',(-0.0,6.12303176911189E-017,1.0));
#456=DIRECTION('',(1.0,0.0,0.0));
#457=CARTESIAN_POINT('',(0.0,0.0,0.0));
#458=DIRECTION('',(0.0,-6.12303176911189E-017,-1.0));
#459=DIRECTION('',(1.0,0.0,0.0));
#460=CARTESIAN_POINT('',(0.0,7.16394716986091E-016,11.7));
#461=DIRECTION('',(0.0,-6.12303176911189E-017,-1.0));
#462=DIRECTION('',(1.0,0.0,0.0));
#463=CARTESIAN_POINT('',(0.0,7.95994129984545E-016,13.0));
#464=DIRECTION('',(0.0,-6.12303176911189E-017,-1.0));
#465=DIRECTION('',(1.0,0.0,0.0));
#466=SURFACE_STYLE_FILL_AREA(#535);
#467=ORIENTED_EDGE('',*,*,#149,.T.);
#468=ORIENTED_EDGE('',*,*,#147,.T.);
#469=CARTESIAN_POINT('',(4.5,-1.22460635382238E-015,-20.0));
#470=DIRECTION('',(0.0,-6.12303176911189E-017,-1.0));
#471=DIRECTION('',(1.0,0.0,0.0));
#472=CARTESIAN_POINT('',(0.0,7.16394716986091E-016,11.7));
#473=DIRECTION('',(0.0,-6.12303176911189E-017,-1.0));
#474=DIRECTION('',(1.0,0.0,0.0));
#475=SURFACE_STYLE_FILL_AREA(#536);
#476=ORIENTED_EDGE('',*,*,#99,.F.);
#477=ORIENTED_EDGE('',*,*,#79,.F.);
#478=ORIENTED_EDGE('',*,*,#141,.T.);
#479=ORIENTED_EDGE('',*,*,#87,.T.);
#480=CARTESIAN_POINT('',(15.0,0.0,0.0));
#481=DIRECTION('',(0.0,-6.12303176911189E-017,-1.0));
#482=DIRECTION('',(1.0,0.0,0.0));
#483=DIRECTION('',(0.707106781186548,1.2988911856079E-016,0.707106781186548));
#484=CARTESIAN_POINT('',(0.0,7.95994129984545E-016,13.0));
#485=DIRECTION('',(0.0,-6.12303176911189E-017,-1.0));
#486=DIRECTION('',(1.0,0.0,0.0));
#487=CARTESIAN_POINT('',(0.0,-9.18454765366783E-016,-15.0));
#488=DIRECTION('',(0.0,-6.12303176911189E-017,-1.0));
#489=DIRECTION('',(1.0,0.0,0.0));
#490=DIRECTION('',(0.0,-6.12303176911189E-017,-1.0));
#491=DIRECTION('',(0.707106781186548,4.32963728535968E-017,-0.707106781186548));
#492=SURFACE_STYLE_FILL_AREA(#537);
#493=ORIENTED_EDGE('',*,*,#125,.T.);
#494=ORIENTED_EDGE('',*,*,#121,.F.);
#495=ORIENTED_EDGE('',*,*,#145,.T.);
#496=ORIENTED_EDGE('',*,*,#79,.T.);
#497=CARTESIAN_POINT('',(0.0,-4.59227382683391E-016,-7.5));
#498=DIRECTION('',(-0.0,6.12303176911189E-017,1.0));
#499=DIRECTION('',(1.0,0.0,0.0));
#500=SURFACE_STYLE_FILL_AREA(#538);
#501=ORIENTED_EDGE('',*,*,#139,.T.);
#502=ORIENTED_EDGE('',*,*,#147,.F.);
#503=ORIENTED_EDGE('',*,*,#133,.T.);
#504=ORIENTED_EDGE('',*,*,#121,.T.);
#505=CARTESIAN_POINT('',(0.0,-1.07153055959458E-015,-17.5));
#506=DIRECTION('',(-0.0,6.12303176911189E-017,1.0));
#507=DIRECTION('',(1.0,0.0,0.0));
#508=DIRECTION('',(-0.196116135138184,3.60247597765962E-017,0.98058067569092));
#509=DIRECTION('',(0.0,-6.12303176911189E-017,-1.0));
#510=DIRECTION('',(-0.196116135138184,-8.40577728120578E-017,-0.98058067569092));
#511=CARTESIAN_POINT('',(0.0,0.0,0.0));
#512=DIRECTION('',(0.0,-6.12303176911189E-017,-1.0));
#513=DIRECTION('',(1.0,0.0,0.0));
#514=DIRECTION('',(-0.0,6.12303176911189E-017,1.0));
#515=CARTESIAN_POINT('',(0.0,-1.22460635382238E-015,-20.0));
#516=DIRECTION('',(0.0,-6.12303176911189E-017,-1.0));
#517=DIRECTION('',(1.0,0.0,0.0));
#518=CARTESIAN_POINT('',(0.0,-1.22460635382238E-015,-20.0));
#519=DIRECTION('',(0.0,-6.12303176911189E-017,-1.0));
#520=DIRECTION('',(1.0,0.0,0.0));
#521=SURFACE_STYLE_FILL_AREA(#539);
#522=ORIENTED_EDGE('',*,*,#139,.F.);
#523=ORIENTED_EDGE('',*,*,#83,.T.);
#524=ORIENTED_EDGE('',*,*,#133,.F.);
#525=ORIENTED_EDGE('',*,*,#149,.F.);
#526=CARTESIAN_POINT('',(0.0,-1.07153055959458E-015,-17.5));
#527=DIRECTION('',(-0.0,6.12303176911189E-017,1.0));
#528=DIRECTION('',(1.0,0.0,0.0));
#529=FILL_AREA_STYLE('',(#540));
#530=FILL_AREA_STYLE('',(#541));
#531=FILL_AREA_STYLE('',(#542));
#532=FILL_AREA_STYLE('',(#543));
#533=FILL_AREA_STYLE('',(#544));
#534=FILL_AREA_STYLE('',(#545));
#535=FILL_AREA_STYLE('',(#546));
#536=FILL_AREA_STYLE('',(#547));
#537=FILL_AREA_STYLE('',(#548));
#538=FILL_AREA_STYLE('',(#549));
#539=FILL_AREA_STYLE('',(#550));
#540=FILL_AREA_STYLE_COLOUR('',#551);
#541=FILL_AREA_STYLE_COLOUR('',#552);
#542=FILL_AREA_STYLE_COLOUR('',#553);
#543=FILL_AREA_STYLE_COLOUR('',#554);
#544=FILL_AREA_STYLE_COLOUR('',#555);
#545=FILL_AREA_STYLE_COLOUR('',#556);
#546=FILL_AREA_STYLE_COLOUR('',#557);
#547=FILL_AREA_STYLE_COLOUR('',#558);
#548=FILL_AREA_STYLE_COLOUR('',#559);
#549=FILL_AREA_STYLE_COLOUR('',#560);
#550=FILL_AREA_STYLE_COLOUR('',#561);
#551=COLOUR_RGB('',0.509803950786591,0.509803950786591,0.588235318660736);
#552=COLOUR_RGB('',0.509803950786591,0.509803950786591,0.588235318660736);
#553=COLOUR_RGB('',0.509803950786591,0.509803950786591,0.588235318660736);
#554=COLOUR_RGB('',0.509803950786591,0.509803950786591,0.588235318660736);
#555=COLOUR_RGB('',0.509803950786591,0.509803950786591,0.588235318660736);
#556=COLOUR_RGB('',0.509803950786591,0.509803950786591,0.588235318660736);
#557=COLOUR_RGB('',0.509803950786591,0.509803950786591,0.588235318660736);
#558=COLOUR_RGB('',0.509803950786591,0.509803950786591,0.588235318660736);
#559=COLOUR_RGB('',0.509803950786591,0.509803950786591,0.588235318660736);
#560=COLOUR_RGB('',0.509803950786591,0.509803950786591,0.588235318660736);
#561=COLOUR_RGB('',0.509803950786591,0.509803950786591,0.588235318660736);
ENDSEC;
END-ISO-10303-21;
