ISO-10303-21;
HEADER;
FILE_DESCRIPTION(('STEP AP214'),'1');
FILE_NAME(' ','  ',('TraceParts'),('TraceParts S.A.'),'XStep 1.0',' ',' ');
FILE_SCHEMA(('automotive_design'));
ENDSEC;
DATA;
#1=MECHANICAL_DESIGN_GEOMETRIC_PRESENTATION_REPRESENTATION(' ',(#10,#11,#12,#13,#14,#15,#16,#17,#18,#19,#20,#21,#22,#23,#24,#25,#26,#27,#28,#29,#30,#31,#32,#33,#34,#35,#36,#37,#38,#39,#40,#41,#42,#43,#44,#45,#46,#47,#48,#49,#50,#51,#52),#6);
#2=PRODUCT_DEFINITION_CONTEXT('',#53,'design');
#3=APPLICATION_PROTOCOL_DEFINITION('INTERNATIONAL STANDARD','automotive_design',1994,#53);
#4=PRODUCT_CATEGORY_RELATIONSHIP('NONE','NONE',#54,#55);
#5=SHAPE_DEFINITION_REPRESENTATION(#56,#57);
#6= (GEOMETRIC_REPRESENTATION_CONTEXT(3)GLOBAL_UNCERTAINTY_ASSIGNED_CONTEXT((#60))GLOBAL_UNIT_ASSIGNED_CONTEXT((#62,#63,#64))REPRESENTATION_CONTEXT('NONE','WORKSPACE'));
#10=STYLED_ITEM('',(#66),#67);
#11=STYLED_ITEM('',(#68),#69);
#12=STYLED_ITEM('',(#70),#71);
#13=STYLED_ITEM('',(#72),#73);
#14=STYLED_ITEM('',(#74),#75);
#15=STYLED_ITEM('',(#76),#77);
#16=STYLED_ITEM('',(#78),#79);
#17=STYLED_ITEM('',(#80),#81);
#18=STYLED_ITEM('',(#82),#83);
#19=STYLED_ITEM('',(#84),#85);
#20=STYLED_ITEM('',(#86),#87);
#21=STYLED_ITEM('',(#88),#89);
#22=STYLED_ITEM('',(#90),#91);
#23=STYLED_ITEM('',(#92),#93);
#24=STYLED_ITEM('',(#94),#95);
#25=STYLED_ITEM('',(#96),#97);
#26=STYLED_ITEM('',(#98),#99);
#27=STYLED_ITEM('',(#100),#101);
#28=STYLED_ITEM('',(#102),#103);
#29=STYLED_ITEM('',(#104),#105);
#30=STYLED_ITEM('',(#106),#107);
#31=STYLED_ITEM('',(#108),#109);
#32=STYLED_ITEM('',(#110),#111);
#33=STYLED_ITEM('',(#112),#113);
#34=STYLED_ITEM('',(#114),#115);
#35=STYLED_ITEM('',(#116),#117);
#36=STYLED_ITEM('',(#118),#119);
#37=STYLED_ITEM('',(#120),#121);
#38=STYLED_ITEM('',(#122),#123);
#39=STYLED_ITEM('',(#124),#125);
#40=STYLED_ITEM('',(#126),#127);
#41=STYLED_ITEM('',(#128),#129);
#42=STYLED_ITEM('',(#130),#131);
#43=STYLED_ITEM('',(#132),#133);
#44=STYLED_ITEM('',(#134),#135);
#45=STYLED_ITEM('',(#136),#137);
#46=STYLED_ITEM('',(#138),#139);
#47=STYLED_ITEM('',(#140),#141);
#48=STYLED_ITEM('',(#142),#143);
#49=STYLED_ITEM('',(#144),#145);
#50=STYLED_ITEM('',(#146),#147);
#51=STYLED_ITEM('',(#148),#149);
#52=STYLED_ITEM('',(#150),#151);
#53=APPLICATION_CONTEXT(' ');
#54=PRODUCT_CATEGORY('part','NONE');
#55=PRODUCT_RELATED_PRODUCT_CATEGORY('detail',' ',(#152));
#56=PRODUCT_DEFINITION_SHAPE('NONE','NONE',#153);
#57=ADVANCED_BREP_SHAPE_REPRESENTATION('1',(#154,#155),#6);
#60=UNCERTAINTY_MEASURE_WITH_UNIT(LENGTH_MEASURE(1.0E-006),#62,'','');
#62= (CONVERSION_BASED_UNIT('MILLIMETRE',#158)LENGTH_UNIT()NAMED_UNIT(#161));
#63= (NAMED_UNIT(#163)PLANE_ANGLE_UNIT()SI_UNIT($,.RADIAN.));
#64= (NAMED_UNIT(#163)SOLID_ANGLE_UNIT()SI_UNIT($,.STERADIAN.));
#66=PRESENTATION_STYLE_ASSIGNMENT((#169));
#67=ADVANCED_FACE('',(#170),#171,.T.);
#68=PRESENTATION_STYLE_ASSIGNMENT((#172));
#69=EDGE_CURVE('',#77,#135,#173,.T.);
#70=PRESENTATION_STYLE_ASSIGNMENT((#174));
#71=VERTEX_POINT('',#175);
#72=PRESENTATION_STYLE_ASSIGNMENT((#176));
#73=ADVANCED_FACE('',(#177),#178,.T.);
#74=PRESENTATION_STYLE_ASSIGNMENT((#179));
#75=VERTEX_POINT('',#180);
#76=PRESENTATION_STYLE_ASSIGNMENT((#181));
#77=VERTEX_POINT('',#182);
#78=PRESENTATION_STYLE_ASSIGNMENT((#183));
#79=EDGE_CURVE('',#113,#149,#184,.T.);
#80=PRESENTATION_STYLE_ASSIGNMENT((#185));
#81=ADVANCED_FACE('',(#186,#187),#188,.T.);
#82=PRESENTATION_STYLE_ASSIGNMENT((#189));
#83=ADVANCED_FACE('',(#190),#191,.T.);
#84=PRESENTATION_STYLE_ASSIGNMENT((#192));
#85=EDGE_CURVE('',#135,#77,#193,.T.);
#86=PRESENTATION_STYLE_ASSIGNMENT((#194));
#87=VERTEX_POINT('',#195);
#88=PRESENTATION_STYLE_ASSIGNMENT((#196));
#89=EDGE_CURVE('',#117,#127,#197,.T.);
#90=PRESENTATION_STYLE_ASSIGNMENT((#198));
#91=ADVANCED_FACE('',(#199),#200,.T.);
#92=PRESENTATION_STYLE_ASSIGNMENT((#201));
#93=VERTEX_POINT('',#202);
#94=PRESENTATION_STYLE_ASSIGNMENT((#203));
#95=EDGE_CURVE('',#71,#75,#204,.T.);
#96=PRESENTATION_STYLE_ASSIGNMENT((#205));
#97=ADVANCED_FACE('',(#206),#207,.T.);
#98=PRESENTATION_STYLE_ASSIGNMENT((#208));
#99=EDGE_CURVE('',#123,#139,#209,.T.);
#100=PRESENTATION_STYLE_ASSIGNMENT((#210));
#101=ADVANCED_FACE('',(#211),#212,.T.);
#102=PRESENTATION_STYLE_ASSIGNMENT((#213));
#103=ADVANCED_FACE('',(#214),#215,.T.);
#104=PRESENTATION_STYLE_ASSIGNMENT((#216));
#105=EDGE_CURVE('',#75,#127,#217,.T.);
#106=PRESENTATION_STYLE_ASSIGNMENT((#218));
#107=EDGE_CURVE('',#139,#123,#219,.T.);
#108=PRESENTATION_STYLE_ASSIGNMENT((#220));
#109=EDGE_CURVE('',#71,#123,#221,.T.);
#110=PRESENTATION_STYLE_ASSIGNMENT((#222));
#111=EDGE_CURVE('',#93,#87,#223,.T.);
#112=PRESENTATION_STYLE_ASSIGNMENT((#224));
#113=VERTEX_POINT('',#225);
#114=PRESENTATION_STYLE_ASSIGNMENT((#226));
#115=EDGE_CURVE('',#75,#71,#227,.T.);
#116=PRESENTATION_STYLE_ASSIGNMENT((#228));
#117=VERTEX_POINT('',#229);
#118=PRESENTATION_STYLE_ASSIGNMENT((#230));
#119=ADVANCED_FACE('',(#231),#232,.T.);
#120=PRESENTATION_STYLE_ASSIGNMENT((#233));
#121=ADVANCED_FACE('',(#234),#235,.T.);
#122=PRESENTATION_STYLE_ASSIGNMENT((#236));
#123=VERTEX_POINT('',#237);
#124=PRESENTATION_STYLE_ASSIGNMENT((#238));
#125=EDGE_CURVE('',#149,#135,#239,.T.);
#126=PRESENTATION_STYLE_ASSIGNMENT((#240));
#127=VERTEX_POINT('',#241);
#128=PRESENTATION_STYLE_ASSIGNMENT((#242));
#129=EDGE_CURVE('',#139,#75,#243,.T.);
#130=PRESENTATION_STYLE_ASSIGNMENT((#244));
#131=EDGE_CURVE('',#93,#77,#245,.T.);
#132=PRESENTATION_STYLE_ASSIGNMENT((#246));
#133=EDGE_CURVE('',#77,#113,#247,.T.);
#134=PRESENTATION_STYLE_ASSIGNMENT((#248));
#135=VERTEX_POINT('',#249);
#136=PRESENTATION_STYLE_ASSIGNMENT((#250));
#137=EDGE_CURVE('',#87,#93,#251,.T.);
#138=PRESENTATION_STYLE_ASSIGNMENT((#252));
#139=VERTEX_POINT('',#253);
#140=PRESENTATION_STYLE_ASSIGNMENT((#254));
#141=EDGE_CURVE('',#149,#113,#255,.T.);
#142=PRESENTATION_STYLE_ASSIGNMENT((#256));
#143=EDGE_CURVE('',#135,#87,#257,.T.);
#144=PRESENTATION_STYLE_ASSIGNMENT((#258));
#145=EDGE_CURVE('',#127,#117,#259,.T.);
#146=PRESENTATION_STYLE_ASSIGNMENT((#260));
#147=ADVANCED_FACE('',(#261),#262,.T.);
#148=PRESENTATION_STYLE_ASSIGNMENT((#263));
#149=VERTEX_POINT('',#264);
#150=PRESENTATION_STYLE_ASSIGNMENT((#265));
#151=EDGE_CURVE('',#117,#71,#266,.T.);
#152=PRODUCT('1','1','PART-1-DESC',(#267));
#153=PRODUCT_DEFINITION('NONE','NONE',#268,#2);
#154=MANIFOLD_SOLID_BREP('1',#269);
#155=AXIS2_PLACEMENT_3D('',#270,#271,#272);
#158=LENGTH_MEASURE_WITH_UNIT(LENGTH_MEASURE(1.0),#273);
#161=DIMENSIONAL_EXPONENTS(1.0,0.0,0.0,0.0,0.0,0.0,0.0);
#163=DIMENSIONAL_EXPONENTS(0.0,0.0,0.0,0.0,0.0,0.0,0.0);
#169=SURFACE_STYLE_USAGE(.BOTH.,#274);
#170=FACE_OUTER_BOUND('',#275,.T.);
#171=CYLINDRICAL_SURFACE('',#276,4.0);
#172=CURVE_STYLE('',#277,POSITIVE_LENGTH_MEASURE(1.0E-006),#278);
#173=CIRCLE('',#279,4.0);
#174=POINT_STYLE(' ',#280,POSITIVE_LENGTH_MEASURE(1.0E-006),#281);
#175=CARTESIAN_POINT('',(-8.0,-2.63290366071811E-016,11.7));
#176=SURFACE_STYLE_USAGE(.BOTH.,#282);
#177=FACE_OUTER_BOUND('',#283,.T.);
#178=CONICAL_SURFACE('',#284,3.8,0.197395559849881);
#179=POINT_STYLE(' ',#285,POSITIVE_LENGTH_MEASURE(1.0E-006),#286);
#180=CARTESIAN_POINT('',(8.0,7.16394716986091E-016,11.7));
#181=POINT_STYLE(' ',#287,POSITIVE_LENGTH_MEASURE(1.0E-006),#288);
#182=CARTESIAN_POINT('',(-4.0,-9.79685083057902E-016,-8.0));
#183=CURVE_STYLE('',#289,POSITIVE_LENGTH_MEASURE(1.0E-006),#290);
#184=CIRCLE('',#291,4.0);
#185=SURFACE_STYLE_USAGE(.BOTH.,#292);
#186=FACE_BOUND('',#293,.T.);
#187=FACE_OUTER_BOUND('',#294,.T.);
#188=PLANE('',#295);
#189=SURFACE_STYLE_USAGE(.BOTH.,#296);
#190=FACE_OUTER_BOUND('',#297,.T.);
#191=PLANE('',#298);
#192=CURVE_STYLE('',#299,POSITIVE_LENGTH_MEASURE(1.0E-006),#300);
#193=CIRCLE('',#301,4.0);
#194=POINT_STYLE(' ',#302,POSITIVE_LENGTH_MEASURE(1.0E-006),#303);
#195=CARTESIAN_POINT('',(3.6,-6.12303176911189E-016,-10.0));
#196=CURVE_STYLE('',#304,POSITIVE_LENGTH_MEASURE(1.0E-006),#305);
#197=CIRCLE('',#306,8.0);
#198=SURFACE_STYLE_USAGE(.BOTH.,#307);
#199=FACE_OUTER_BOUND('',#308,.T.);
#200=CYLINDRICAL_SURFACE('',#309,8.0);
#201=POINT_STYLE(' ',#310,POSITIVE_LENGTH_MEASURE(1.0E-006),#311);
#202=CARTESIAN_POINT('',(-3.6,-1.05316146428724E-015,-10.0));
#203=CURVE_STYLE('',#312,POSITIVE_LENGTH_MEASURE(1.0E-006),#313);
#204=CIRCLE('',#314,8.0);
#205=SURFACE_STYLE_USAGE(.BOTH.,#315);
#206=FACE_OUTER_BOUND('',#316,.T.);
#207=CYLINDRICAL_SURFACE('',#317,8.0);
#208=CURVE_STYLE('',#318,POSITIVE_LENGTH_MEASURE(1.0E-006),#319);
#209=CIRCLE('',#320,6.7);
#210=SURFACE_STYLE_USAGE(.BOTH.,#321);
#211=FACE_OUTER_BOUND('',#322,.T.);
#212=CONICAL_SURFACE('',#323,7.35,0.785398163397448);
#213=SURFACE_STYLE_USAGE(.BOTH.,#324);
#214=FACE_OUTER_BOUND('',#325,.T.);
#215=CONICAL_SURFACE('',#326,3.8,0.197395559849881);
#216=CURVE_STYLE('',#327,POSITIVE_LENGTH_MEASURE(1.0E-006),#328);
#217=LINE('',#329,#330);
#218=CURVE_STYLE('',#331,POSITIVE_LENGTH_MEASURE(1.0E-006),#332);
#219=CIRCLE('',#333,6.7);
#220=CURVE_STYLE('',#334,POSITIVE_LENGTH_MEASURE(1.0E-006),#335);
#221=LINE('',#336,#337);
#222=CURVE_STYLE('',#338,POSITIVE_LENGTH_MEASURE(1.0E-006),#339);
#223=CIRCLE('',#340,3.6);
#224=POINT_STYLE(' ',#341,POSITIVE_LENGTH_MEASURE(1.0E-006),#342);
#225=CARTESIAN_POINT('',(-4.0,-4.89842541528951E-016,2.99932144364427E-032));
#226=CURVE_STYLE('',#343,POSITIVE_LENGTH_MEASURE(1.0E-006),#344);
#227=CIRCLE('',#345,8.0);
#228=POINT_STYLE(' ',#346,POSITIVE_LENGTH_MEASURE(1.0E-006),#347);
#229=CARTESIAN_POINT('',(-8.0,-9.79685083057902E-016,5.99864288728855E-032));
#230=SURFACE_STYLE_USAGE(.BOTH.,#348);
#231=FACE_OUTER_BOUND('',#349,.T.);
#232=CYLINDRICAL_SURFACE('',#350,4.0);
#233=SURFACE_STYLE_USAGE(.BOTH.,#351);
#234=FACE_OUTER_BOUND('',#352,.T.);
#235=CONICAL_SURFACE('',#353,7.35,0.785398163397448);
#236=POINT_STYLE(' ',#354,POSITIVE_LENGTH_MEASURE(1.0E-006),#355);
#237=CARTESIAN_POINT('',(-6.7,-2.44921270764476E-017,13.0));
#238=CURVE_STYLE('',#356,POSITIVE_LENGTH_MEASURE(1.0E-006),#357);
#239=LINE('',#358,#359);
#240=POINT_STYLE(' ',#360,POSITIVE_LENGTH_MEASURE(1.0E-006),#361);
#241=CARTESIAN_POINT('',(8.0,0.0,0.0));
#242=CURVE_STYLE('',#362,POSITIVE_LENGTH_MEASURE(1.0E-006),#363);
#243=LINE('',#364,#365);
#244=CURVE_STYLE('',#366,POSITIVE_LENGTH_MEASURE(1.0E-006),#367);
#245=LINE('',#368,#369);
#246=CURVE_STYLE('',#370,POSITIVE_LENGTH_MEASURE(1.0E-006),#371);
#247=LINE('',#372,#373);
#248=POINT_STYLE(' ',#374,POSITIVE_LENGTH_MEASURE(1.0E-006),#375);
#249=CARTESIAN_POINT('',(4.0,-4.89842541528951E-016,-8.0));
#250=CURVE_STYLE('',#376,POSITIVE_LENGTH_MEASURE(1.0E-006),#377);
#251=CIRCLE('',#378,3.6);
#252=POINT_STYLE(' ',#379,POSITIVE_LENGTH_MEASURE(1.0E-006),#380);
#253=CARTESIAN_POINT('',(6.7,7.95994129984545E-016,13.0));
#254=CURVE_STYLE('',#381,POSITIVE_LENGTH_MEASURE(1.0E-006),#382);
#255=CIRCLE('',#383,4.0);
#256=CURVE_STYLE('',#384,POSITIVE_LENGTH_MEASURE(1.0E-006),#385);
#257=LINE('',#386,#387);
#258=CURVE_STYLE('',#388,POSITIVE_LENGTH_MEASURE(1.0E-006),#389);
#259=CIRCLE('',#390,8.0);
#260=SURFACE_STYLE_USAGE(.BOTH.,#391);
#261=FACE_OUTER_BOUND('',#392,.T.);
#262=PLANE('',#393);
#263=POINT_STYLE(' ',#394,POSITIVE_LENGTH_MEASURE(1.0E-006),#395);
#264=CARTESIAN_POINT('',(4.0,0.0,0.0));
#265=CURVE_STYLE('',#396,POSITIVE_LENGTH_MEASURE(1.0E-006),#397);
#266=LINE('',#398,#399);
#267=PRODUCT_CONTEXT('',#53,'mechanical');
#268=PRODUCT_DEFINITION_FORMATION_WITH_SPECIFIED_SOURCE(' ','NONE',#152,.NOT_KNOWN.);
#269=CLOSED_SHELL('',(#73,#119,#97,#121,#147,#101,#91,#81,#67,#103,#83));
#270=CARTESIAN_POINT('',(0.0,0.0,0.0));
#271=DIRECTION('',(0.0,0.0,1.0));
#272=DIRECTION('',(1.0,0.0,0.0));
#273= (NAMED_UNIT(#161)LENGTH_UNIT()SI_UNIT(.MILLI.,.METRE.));
#274=SURFACE_SIDE_STYLE('',(#401));
#275=EDGE_LOOP('',(#402,#403,#404,#405));
#276=AXIS2_PLACEMENT_3D('',#406,#407,#408);
#277=DRAUGHTING_PRE_DEFINED_CURVE_FONT('continuous');
#278=COLOUR_RGB('',0.509803950786591,0.509803950786591,0.588235318660736);
#279=AXIS2_PLACEMENT_3D('',#409,#410,#411);
#280=PRE_DEFINED_MARKER('');
#281=COLOUR_RGB('',0.509803950786591,0.509803950786591,0.588235318660736);
#282=SURFACE_SIDE_STYLE('',(#412));
#283=EDGE_LOOP('',(#413,#414,#415,#416));
#284=AXIS2_PLACEMENT_3D('',#417,#418,#419);
#285=PRE_DEFINED_MARKER('');
#286=COLOUR_RGB('',0.509803950786591,0.509803950786591,0.588235318660736);
#287=PRE_DEFINED_MARKER('');
#288=COLOUR_RGB('',0.509803950786591,0.509803950786591,0.588235318660736);
#289=DRAUGHTING_PRE_DEFINED_CURVE_FONT('continuous');
#290=COLOUR_RGB('',0.509803950786591,0.509803950786591,0.588235318660736);
#291=AXIS2_PLACEMENT_3D('',#420,#421,#422);
#292=SURFACE_SIDE_STYLE('',(#423));
#293=EDGE_LOOP('',(#424,#425));
#294=EDGE_LOOP('',(#426,#427));
#295=AXIS2_PLACEMENT_3D('',#428,#429,#430);
#296=SURFACE_SIDE_STYLE('',(#431));
#297=EDGE_LOOP('',(#432,#433));
#298=AXIS2_PLACEMENT_3D('',#434,#435,#436);
#299=DRAUGHTING_PRE_DEFINED_CURVE_FONT('continuous');
#300=COLOUR_RGB('',0.509803950786591,0.509803950786591,0.588235318660736);
#301=AXIS2_PLACEMENT_3D('',#437,#438,#439);
#302=PRE_DEFINED_MARKER('');
#303=COLOUR_RGB('',0.509803950786591,0.509803950786591,0.588235318660736);
#304=DRAUGHTING_PRE_DEFINED_CURVE_FONT('continuous');
#305=COLOUR_RGB('',0.509803950786591,0.509803950786591,0.588235318660736);
#306=AXIS2_PLACEMENT_3D('',#440,#441,#442);
#307=SURFACE_SIDE_STYLE('',(#443));
#308=EDGE_LOOP('',(#444,#445,#446,#447));
#309=AXIS2_PLACEMENT_3D('',#448,#449,#450);
#310=PRE_DEFINED_MARKER('');
#311=COLOUR_RGB('',0.509803950786591,0.509803950786591,0.588235318660736);
#312=DRAUGHTING_PRE_DEFINED_CURVE_FONT('continuous');
#313=COLOUR_RGB('',0.509803950786591,0.509803950786591,0.588235318660736);
#314=AXIS2_PLACEMENT_3D('',#451,#452,#453);
#315=SURFACE_SIDE_STYLE('',(#454));
#316=EDGE_LOOP('',(#455,#456,#457,#458));
#317=AXIS2_PLACEMENT_3D('',#459,#460,#461);
#318=DRAUGHTING_PRE_DEFINED_CURVE_FONT('continuous');
#319=COLOUR_RGB('',0.509803950786591,0.509803950786591,0.588235318660736);
#320=AXIS2_PLACEMENT_3D('',#462,#463,#464);
#321=SURFACE_SIDE_STYLE('',(#465));
#322=EDGE_LOOP('',(#466,#467,#468,#469));
#323=AXIS2_PLACEMENT_3D('',#470,#471,#472);
#324=SURFACE_SIDE_STYLE('',(#473));
#325=EDGE_LOOP('',(#474,#475,#476,#477));
#326=AXIS2_PLACEMENT_3D('',#478,#479,#480);
#327=DRAUGHTING_PRE_DEFINED_CURVE_FONT('continuous');
#328=COLOUR_RGB('',0.509803950786591,0.509803950786591,0.588235318660736);
#329=CARTESIAN_POINT('',(8.0,1.33788244155095E-015,5.85));
#330=VECTOR('',#481,1.0);
#331=DRAUGHTING_PRE_DEFINED_CURVE_FONT('continuous');
#332=COLOUR_RGB('',0.509803950786591,0.509803950786591,0.588235318660736);
#333=AXIS2_PLACEMENT_3D('',#482,#483,#484);
#334=DRAUGHTING_PRE_DEFINED_CURVE_FONT('continuous');
#335=COLOUR_RGB('',0.509803950786591,0.509803950786591,0.588235318660736);
#336=CARTESIAN_POINT('',(-7.35,-1.43891246574129E-016,12.35));
#337=VECTOR('',#485,1.0);
#338=DRAUGHTING_PRE_DEFINED_CURVE_FONT('continuous');
#339=COLOUR_RGB('',0.509803950786591,0.509803950786591,0.588235318660736);
#340=AXIS2_PLACEMENT_3D('',#486,#487,#488);
#341=PRE_DEFINED_MARKER('');
#342=COLOUR_RGB('',0.509803950786591,0.509803950786591,0.588235318660736);
#343=DRAUGHTING_PRE_DEFINED_CURVE_FONT('continuous');
#344=COLOUR_RGB('',0.509803950786591,0.509803950786591,0.588235318660736);
#345=AXIS2_PLACEMENT_3D('',#489,#490,#491);
#346=PRE_DEFINED_MARKER('');
#347=COLOUR_RGB('',0.509803950786591,0.509803950786591,0.588235318660736);
#348=SURFACE_SIDE_STYLE('',(#492));
#349=EDGE_LOOP('',(#493,#494,#495,#496));
#350=AXIS2_PLACEMENT_3D('',#497,#498,#499);
#351=SURFACE_SIDE_STYLE('',(#500));
#352=EDGE_LOOP('',(#501,#502,#503,#504));
#353=AXIS2_PLACEMENT_3D('',#505,#506,#507);
#354=PRE_DEFINED_MARKER('');
#355=COLOUR_RGB('',0.509803950786591,0.509803950786591,0.588235318660736);
#356=DRAUGHTING_PRE_DEFINED_CURVE_FONT('continuous');
#357=COLOUR_RGB('',0.509803950786591,0.509803950786591,0.588235318660736);
#358=CARTESIAN_POINT('',(4.0,2.44921270764475E-016,-4.0));
#359=VECTOR('',#508,1.0);
#360=PRE_DEFINED_MARKER('');
#361=COLOUR_RGB('',0.509803950786591,0.509803950786591,0.588235318660736);
#362=DRAUGHTING_PRE_DEFINED_CURVE_FONT('continuous');
#363=COLOUR_RGB('',0.509803950786591,0.509803950786591,0.588235318660736);
#364=CARTESIAN_POINT('',(7.35,1.65628009354476E-015,12.35));
#365=VECTOR('',#509,1.0);
#366=DRAUGHTING_PRE_DEFINED_CURVE_FONT('continuous');
#367=COLOUR_RGB('',0.509803950786591,0.509803950786591,0.588235318660736);
#368=CARTESIAN_POINT('',(-3.8,-1.01642327367257E-015,-9.0));
#369=VECTOR('',#510,1.0);
#370=DRAUGHTING_PRE_DEFINED_CURVE_FONT('continuous');
#371=COLOUR_RGB('',0.509803950786591,0.509803950786591,0.588235318660736);
#372=CARTESIAN_POINT('',(-4.0,-7.34763812293426E-016,-4.0));
#373=VECTOR('',#511,1.0);
#374=PRE_DEFINED_MARKER('');
#375=COLOUR_RGB('',0.509803950786591,0.509803950786591,0.588235318660736);
#376=DRAUGHTING_PRE_DEFINED_CURVE_FONT('continuous');
#377=COLOUR_RGB('',0.509803950786591,0.509803950786591,0.588235318660736);
#378=AXIS2_PLACEMENT_3D('',#512,#513,#514);
#379=PRE_DEFINED_MARKER('');
#380=COLOUR_RGB('',0.509803950786591,0.509803950786591,0.588235318660736);
#381=DRAUGHTING_PRE_DEFINED_CURVE_FONT('continuous');
#382=COLOUR_RGB('',0.509803950786591,0.509803950786591,0.588235318660736);
#383=AXIS2_PLACEMENT_3D('',#515,#516,#517);
#384=DRAUGHTING_PRE_DEFINED_CURVE_FONT('continuous');
#385=COLOUR_RGB('',0.509803950786591,0.509803950786591,0.588235318660736);
#386=CARTESIAN_POINT('',(3.8,-8.57224447675668E-017,-9.0));
#387=VECTOR('',#518,1.0);
#388=DRAUGHTING_PRE_DEFINED_CURVE_FONT('continuous');
#389=COLOUR_RGB('',0.509803950786591,0.509803950786591,0.588235318660736);
#390=AXIS2_PLACEMENT_3D('',#519,#520,#521);
#391=SURFACE_SIDE_STYLE('',(#522));
#392=EDGE_LOOP('',(#523,#524));
#393=AXIS2_PLACEMENT_3D('',#525,#526,#527);
#394=PRE_DEFINED_MARKER('');
#395=COLOUR_RGB('',0.509803950786591,0.509803950786591,0.588235318660736);
#396=DRAUGHTING_PRE_DEFINED_CURVE_FONT('continuous');
#397=COLOUR_RGB('',0.509803950786591,0.509803950786591,0.588235318660736);
#398=CARTESIAN_POINT('',(-8.0,-6.21487724564856E-016,5.85));
#399=VECTOR('',#528,1.0);
#401=SURFACE_STYLE_FILL_AREA(#529);
#402=ORIENTED_EDGE('',*,*,#125,.T.);
#403=ORIENTED_EDGE('',*,*,#69,.F.);
#404=ORIENTED_EDGE('',*,*,#133,.T.);
#405=ORIENTED_EDGE('',*,*,#79,.T.);
#406=CARTESIAN_POINT('',(0.0,-2.44921270764475E-016,-4.0));
#407=DIRECTION('',(-0.0,6.12303176911189E-017,1.0));
#408=DIRECTION('',(1.0,0.0,0.0));
#409=CARTESIAN_POINT('',(0.0,-4.89842541528951E-016,-8.0));
#410=DIRECTION('',(0.0,-6.12303176911189E-017,-1.0));
#411=DIRECTION('',(1.0,0.0,0.0));
#412=SURFACE_STYLE_FILL_AREA(#530);
#413=ORIENTED_EDGE('',*,*,#143,.F.);
#414=ORIENTED_EDGE('',*,*,#85,.T.);
#415=ORIENTED_EDGE('',*,*,#131,.F.);
#416=ORIENTED_EDGE('',*,*,#137,.F.);
#417=CARTESIAN_POINT('',(0.0,-5.5107285922007E-016,-9.0));
#418=DIRECTION('',(-0.0,6.12303176911189E-017,1.0));
#419=DIRECTION('',(1.0,0.0,0.0));
#420=CARTESIAN_POINT('',(0.0,0.0,0.0));
#421=DIRECTION('',(0.0,-6.12303176911189E-017,-1.0));
#422=DIRECTION('',(1.0,0.0,0.0));
#423=SURFACE_STYLE_FILL_AREA(#531);
#424=ORIENTED_EDGE('',*,*,#141,.F.);
#425=ORIENTED_EDGE('',*,*,#79,.F.);
#426=ORIENTED_EDGE('',*,*,#145,.T.);
#427=ORIENTED_EDGE('',*,*,#89,.T.);
#428=CARTESIAN_POINT('',(6.0,0.0,0.0));
#429=DIRECTION('',(0.0,-6.12303176911189E-017,-1.0));
#430=DIRECTION('',(1.0,0.0,0.0));
#431=SURFACE_STYLE_FILL_AREA(#532);
#432=ORIENTED_EDGE('',*,*,#137,.T.);
#433=ORIENTED_EDGE('',*,*,#111,.T.);
#434=CARTESIAN_POINT('',(1.8,-6.12303176911189E-016,-10.0));
#435=DIRECTION('',(0.0,-6.12303176911189E-017,-1.0));
#436=DIRECTION('',(1.0,0.0,0.0));
#437=CARTESIAN_POINT('',(0.0,-4.89842541528951E-016,-8.0));
#438=DIRECTION('',(0.0,-6.12303176911189E-017,-1.0));
#439=DIRECTION('',(1.0,0.0,0.0));
#440=CARTESIAN_POINT('',(0.0,0.0,0.0));
#441=DIRECTION('',(0.0,-6.12303176911189E-017,-1.0));
#442=DIRECTION('',(1.0,0.0,0.0));
#443=SURFACE_STYLE_FILL_AREA(#533);
#444=ORIENTED_EDGE('',*,*,#105,.T.);
#445=ORIENTED_EDGE('',*,*,#89,.F.);
#446=ORIENTED_EDGE('',*,*,#151,.T.);
#447=ORIENTED_EDGE('',*,*,#95,.T.);
#448=CARTESIAN_POINT('',(0.0,3.58197358493045E-016,5.85));
#449=DIRECTION('',(-0.0,6.12303176911189E-017,1.0));
#450=DIRECTION('',(1.0,0.0,0.0));
#451=CARTESIAN_POINT('',(0.0,7.16394716986091E-016,11.7));
#452=DIRECTION('',(0.0,-6.12303176911189E-017,-1.0));
#453=DIRECTION('',(1.0,0.0,0.0));
#454=SURFACE_STYLE_FILL_AREA(#534);
#455=ORIENTED_EDGE('',*,*,#105,.F.);
#456=ORIENTED_EDGE('',*,*,#115,.T.);
#457=ORIENTED_EDGE('',*,*,#151,.F.);
#458=ORIENTED_EDGE('',*,*,#145,.F.);
#459=CARTESIAN_POINT('',(0.0,3.58197358493045E-016,5.85));
#460=DIRECTION('',(-0.0,6.12303176911189E-017,1.0));
#461=DIRECTION('',(1.0,0.0,0.0));
#462=CARTESIAN_POINT('',(0.0,7.95994129984545E-016,13.0));
#463=DIRECTION('',(0.0,-6.12303176911189E-017,-1.0));
#464=DIRECTION('',(1.0,0.0,0.0));
#465=SURFACE_STYLE_FILL_AREA(#535);
#466=ORIENTED_EDGE('',*,*,#129,.T.);
#467=ORIENTED_EDGE('',*,*,#95,.F.);
#468=ORIENTED_EDGE('',*,*,#109,.T.);
#469=ORIENTED_EDGE('',*,*,#99,.T.);
#470=CARTESIAN_POINT('',(0.0,7.56194423485318E-016,12.35));
#471=DIRECTION('',(0.0,-6.12303176911189E-017,-1.0));
#472=DIRECTION('',(1.0,0.0,0.0));
#473=SURFACE_STYLE_FILL_AREA(#536);
#474=ORIENTED_EDGE('',*,*,#143,.T.);
#475=ORIENTED_EDGE('',*,*,#111,.F.);
#476=ORIENTED_EDGE('',*,*,#131,.T.);
#477=ORIENTED_EDGE('',*,*,#69,.T.);
#478=CARTESIAN_POINT('',(0.0,-5.5107285922007E-016,-9.0));
#479=DIRECTION('',(-0.0,6.12303176911189E-017,1.0));
#480=DIRECTION('',(1.0,0.0,0.0));
#481=DIRECTION('',(0.0,-6.12303176911189E-017,-1.0));
#482=CARTESIAN_POINT('',(0.0,7.95994129984545E-016,13.0));
#483=DIRECTION('',(0.0,-6.12303176911189E-017,-1.0));
#484=DIRECTION('',(1.0,0.0,0.0));
#485=DIRECTION('',(0.707106781186547,1.2988911856079E-016,0.707106781186548));
#486=CARTESIAN_POINT('',(0.0,-6.12303176911189E-016,-10.0));
#487=DIRECTION('',(0.0,-6.12303176911189E-017,-1.0));
#488=DIRECTION('',(1.0,0.0,0.0));
#489=CARTESIAN_POINT('',(0.0,7.16394716986091E-016,11.7));
#490=DIRECTION('',(0.0,-6.12303176911189E-017,-1.0));
#491=DIRECTION('',(1.0,0.0,0.0));
#492=SURFACE_STYLE_FILL_AREA(#537);
#493=ORIENTED_EDGE('',*,*,#125,.F.);
#494=ORIENTED_EDGE('',*,*,#141,.T.);
#495=ORIENTED_EDGE('',*,*,#133,.F.);
#496=ORIENTED_EDGE('',*,*,#85,.F.);
#497=CARTESIAN_POINT('',(0.0,-2.44921270764475E-016,-4.0));
#498=DIRECTION('',(-0.0,6.12303176911189E-017,1.0));
#499=DIRECTION('',(1.0,0.0,0.0));
#500=SURFACE_STYLE_FILL_AREA(#538);
#501=ORIENTED_EDGE('',*,*,#129,.F.);
#502=ORIENTED_EDGE('',*,*,#107,.T.);
#503=ORIENTED_EDGE('',*,*,#109,.F.);
#504=ORIENTED_EDGE('',*,*,#115,.F.);
#505=CARTESIAN_POINT('',(0.0,7.56194423485318E-016,12.35));
#506=DIRECTION('',(0.0,-6.12303176911189E-017,-1.0));
#507=DIRECTION('',(1.0,0.0,0.0));
#508=DIRECTION('',(0.0,-6.12303176911189E-017,-1.0));
#509=DIRECTION('',(0.707106781186547,4.32963728535967E-017,-0.707106781186548));
#510=DIRECTION('',(-0.196116135138184,3.60247597765962E-017,0.98058067569092));
#511=DIRECTION('',(-0.0,6.12303176911189E-017,1.0));
#512=CARTESIAN_POINT('',(0.0,-6.12303176911189E-016,-10.0));
#513=DIRECTION('',(0.0,-6.12303176911189E-017,-1.0));
#514=DIRECTION('',(1.0,0.0,0.0));
#515=CARTESIAN_POINT('',(0.0,0.0,0.0));
#516=DIRECTION('',(0.0,-6.12303176911189E-017,-1.0));
#517=DIRECTION('',(1.0,0.0,0.0));
#518=DIRECTION('',(-0.196116135138184,-8.40577728120578E-017,-0.98058067569092));
#519=CARTESIAN_POINT('',(0.0,0.0,0.0));
#520=DIRECTION('',(0.0,-6.12303176911189E-017,-1.0));
#521=DIRECTION('',(1.0,0.0,0.0));
#522=SURFACE_STYLE_FILL_AREA(#539);
#523=ORIENTED_EDGE('',*,*,#107,.F.);
#524=ORIENTED_EDGE('',*,*,#99,.F.);
#525=CARTESIAN_POINT('',(3.35,7.95994129984545E-016,13.0));
#526=DIRECTION('',(0.0,6.12303176911189E-017,1.0));
#527=DIRECTION('',(-1.0,0.0,0.0));
#528=DIRECTION('',(-0.0,6.12303176911189E-017,1.0));
#529=FILL_AREA_STYLE('',(#540));
#530=FILL_AREA_STYLE('',(#541));
#531=FILL_AREA_STYLE('',(#542));
#532=FILL_AREA_STYLE('',(#543));
#533=FILL_AREA_STYLE('',(#544));
#534=FILL_AREA_STYLE('',(#545));
#535=FILL_AREA_STYLE('',(#546));
#536=FILL_AREA_STYLE('',(#547));
#537=FILL_AREA_STYLE('',(#548));
#538=FILL_AREA_STYLE('',(#549));
#539=FILL_AREA_STYLE('',(#550));
#540=FILL_AREA_STYLE_COLOUR('',#551);
#541=FILL_AREA_STYLE_COLOUR('',#552);
#542=FILL_AREA_STYLE_COLOUR('',#553);
#543=FILL_AREA_STYLE_COLOUR('',#554);
#544=FILL_AREA_STYLE_COLOUR('',#555);
#545=FILL_AREA_STYLE_COLOUR('',#556);
#546=FILL_AREA_STYLE_COLOUR('',#557);
#547=FILL_AREA_STYLE_COLOUR('',#558);
#548=FILL_AREA_STYLE_COLOUR('',#559);
#549=FILL_AREA_STYLE_COLOUR('',#560);
#550=FILL_AREA_STYLE_COLOUR('',#561);
#551=COLOUR_RGB('',0.509803950786591,0.509803950786591,0.588235318660736);
#552=COLOUR_RGB('',0.509803950786591,0.509803950786591,0.588235318660736);
#553=COLOUR_RGB('',0.509803950786591,0.509803950786591,0.588235318660736);
#554=COLOUR_RGB('',0.509803950786591,0.509803950786591,0.588235318660736);
#555=COLOUR_RGB('',0.509803950786591,0.509803950786591,0.588235318660736);
#556=COLOUR_RGB('',0.509803950786591,0.509803950786591,0.588235318660736);
#557=COLOUR_RGB('',0.509803950786591,0.509803950786591,0.588235318660736);
#558=COLOUR_RGB('',0.509803950786591,0.509803950786591,0.588235318660736);
#559=COLOUR_RGB('',0.509803950786591,0.509803950786591,0.588235318660736);
#560=COLOUR_RGB('',0.509803950786591,0.509803950786591,0.588235318660736);
#561=COLOUR_RGB('',0.509803950786591,0.509803950786591,0.588235318660736);
ENDSEC;
END-ISO-10303-21;
