ISO-10303-21;
HEADER;
FILE_DESCRIPTION(('STEP AP214'),'1');
FILE_NAME(' ','  ',('TraceParts'),('TraceParts S.A.'),'XStep 1.0',' ',' ');
FILE_SCHEMA(('automotive_design'));
ENDSEC;
DATA;
#1=PRODUCT_DEFINITION_CONTEXT('',#9,'design');
#2=APPLICATION_PROTOCOL_DEFINITION('INTERNATIONAL STANDARD','automotive_design',1994,#9);
#3=PRODUCT_CATEGORY_RELATIONSHIP('NONE','NONE',#10,#11);
#4=SHAPE_DEFINITION_REPRESENTATION(#12,#13);
#5= (GEOMETRIC_REPRESENTATION_CONTEXT(3)GLOBAL_UNCERTAINTY_ASSIGNED_CONTEXT((#16))GLOBAL_UNIT_ASSIGNED_CONTEXT((#18,#19,#20))REPRESENTATION_CONTEXT('NONE','WORKSPACE'));
#9=APPLICATION_CONTEXT(' ');
#10=PRODUCT_CATEGORY('part','NONE');
#11=PRODUCT_RELATED_PRODUCT_CATEGORY('detail',' ',(#22));
#12=PRODUCT_DEFINITION_SHAPE('NONE','NONE',#23);
#13=ADVANCED_BREP_SHAPE_REPRESENTATION('1',(#24,#25),#5);
#16=UNCERTAINTY_MEASURE_WITH_UNIT(LENGTH_MEASURE(1.0E-006),#18,'','');
#18= (CONVERSION_BASED_UNIT('MILLIMETRE',#28)LENGTH_UNIT()NAMED_UNIT(#31));
#19= (NAMED_UNIT(#33)PLANE_ANGLE_UNIT()SI_UNIT($,.RADIAN.));
#20= (NAMED_UNIT(#33)SOLID_ANGLE_UNIT()SI_UNIT($,.STERADIAN.));
#22=PRODUCT('1','1','PART-1-DESC',(#39));
#23=PRODUCT_DEFINITION('NONE','NONE',#40,#1);
#24=MANIFOLD_SOLID_BREP('1',#41);
#25=AXIS2_PLACEMENT_3D('',#42,#43,#44);
#28=LENGTH_MEASURE_WITH_UNIT(LENGTH_MEASURE(1.0),#45);
#31=DIMENSIONAL_EXPONENTS(1.0,0.0,0.0,0.0,0.0,0.0,0.0);
#33=DIMENSIONAL_EXPONENTS(0.0,0.0,0.0,0.0,0.0,0.0,0.0);
#39=PRODUCT_CONTEXT('',#9,'mechanical');
#40=PRODUCT_DEFINITION_FORMATION_WITH_SPECIFIED_SOURCE(' ','NONE',#22,.NOT_KNOWN.);
#41=CLOSED_SHELL('',(#46,#47,#48,#49,#50,#51,#52,#53,#54,#55,#56,#57,#58,#59,#60,#61,#62,#63));
#42=CARTESIAN_POINT('',(0.0,0.0,0.0));
#43=DIRECTION('',(0.0,0.0,1.0));
#44=DIRECTION('',(1.0,0.0,0.0));
#45= (NAMED_UNIT(#31)LENGTH_UNIT()SI_UNIT(.MILLI.,.METRE.));
#46=ADVANCED_FACE('',(#65),#66,.T.);
#47=ADVANCED_FACE('',(#67),#68,.T.);
#48=ADVANCED_FACE('',(#69),#70,.F.);
#49=ADVANCED_FACE('',(#71),#72,.F.);
#50=ADVANCED_FACE('',(#73),#74,.T.);
#51=ADVANCED_FACE('',(#75),#76,.T.);
#52=ADVANCED_FACE('',(#77),#78,.T.);
#53=ADVANCED_FACE('',(#79),#80,.T.);
#54=ADVANCED_FACE('',(#81),#82,.T.);
#55=ADVANCED_FACE('',(#83),#84,.T.);
#56=ADVANCED_FACE('',(#85),#86,.T.);
#57=ADVANCED_FACE('',(#87),#88,.T.);
#58=ADVANCED_FACE('',(#89),#90,.T.);
#59=ADVANCED_FACE('',(#91),#92,.T.);
#60=ADVANCED_FACE('',(#93,#94),#95,.T.);
#61=ADVANCED_FACE('',(#96),#97,.T.);
#62=ADVANCED_FACE('',(#98),#99,.F.);
#63=ADVANCED_FACE('',(#100),#101,.F.);
#65=FACE_OUTER_BOUND('',#102,.T.);
#66=TOROIDAL_SURFACE('',#103,4.7,0.9);
#67=FACE_OUTER_BOUND('',#104,.T.);
#68=TOROIDAL_SURFACE('',#105,4.7,0.9);
#69=FACE_OUTER_BOUND('',#106,.T.);
#70=CONICAL_SURFACE('',#107,2.35,1.0471975511966);
#71=FACE_OUTER_BOUND('',#108,.T.);
#72=CYLINDRICAL_SURFACE('',#109,4.7);
#73=FACE_OUTER_BOUND('',#110,.T.);
#74=TOROIDAL_SURFACE('',#111,4.7,0.9);
#75=FACE_OUTER_BOUND('',#112,.T.);
#76=CYLINDRICAL_SURFACE('',#113,8.0);
#77=FACE_OUTER_BOUND('',#114,.T.);
#78=CONICAL_SURFACE('',#115,14.0,1.27171191518194);
#79=FACE_OUTER_BOUND('',#116,.T.);
#80=CYLINDRICAL_SURFACE('',#117,20.0);
#81=FACE_OUTER_BOUND('',#118,.T.);
#82=CONICAL_SURFACE('',#119,19.75,0.785398163397449);
#83=FACE_OUTER_BOUND('',#120,.T.);
#84=PLANE('',#121);
#85=FACE_OUTER_BOUND('',#122,.T.);
#86=CONICAL_SURFACE('',#123,19.75,0.785398163397449);
#87=FACE_OUTER_BOUND('',#124,.T.);
#88=CYLINDRICAL_SURFACE('',#125,20.0);
#89=FACE_OUTER_BOUND('',#126,.T.);
#90=CONICAL_SURFACE('',#127,14.0,1.27171191518194);
#91=FACE_OUTER_BOUND('',#128,.T.);
#92=CYLINDRICAL_SURFACE('',#129,8.0);
#93=FACE_BOUND('',#130,.T.);
#94=FACE_OUTER_BOUND('',#131,.T.);
#95=PLANE('',#132);
#96=FACE_OUTER_BOUND('',#133,.T.);
#97=TOROIDAL_SURFACE('',#134,4.7,0.9);
#98=FACE_OUTER_BOUND('',#135,.T.);
#99=CYLINDRICAL_SURFACE('',#136,4.7);
#100=FACE_OUTER_BOUND('',#137,.T.);
#101=CONICAL_SURFACE('',#138,2.35,1.0471975511966);
#102=EDGE_LOOP('',(#139,#140,#141,#142));
#103=AXIS2_PLACEMENT_3D('',#143,#144,#145);
#104=EDGE_LOOP('',(#146,#147,#148,#149));
#105=AXIS2_PLACEMENT_3D('',#150,#151,#152);
#106=EDGE_LOOP('',(#153,#154,#155));
#107=AXIS2_PLACEMENT_3D('',#156,#157,#158);
#108=EDGE_LOOP('',(#159,#160,#161,#162));
#109=AXIS2_PLACEMENT_3D('',#163,#164,#165);
#110=EDGE_LOOP('',(#166,#167,#168,#169));
#111=AXIS2_PLACEMENT_3D('',#170,#171,#172);
#112=EDGE_LOOP('',(#173,#174,#175,#176));
#113=AXIS2_PLACEMENT_3D('',#177,#178,#179);
#114=EDGE_LOOP('',(#180,#181,#182,#183));
#115=AXIS2_PLACEMENT_3D('',#184,#185,#186);
#116=EDGE_LOOP('',(#187,#188,#189,#190));
#117=AXIS2_PLACEMENT_3D('',#191,#192,#193);
#118=EDGE_LOOP('',(#194,#195,#196,#197));
#119=AXIS2_PLACEMENT_3D('',#198,#199,#200);
#120=EDGE_LOOP('',(#201,#202));
#121=AXIS2_PLACEMENT_3D('',#203,#204,#205);
#122=EDGE_LOOP('',(#206,#207,#208,#209));
#123=AXIS2_PLACEMENT_3D('',#210,#211,#212);
#124=EDGE_LOOP('',(#213,#214,#215,#216));
#125=AXIS2_PLACEMENT_3D('',#217,#218,#219);
#126=EDGE_LOOP('',(#220,#221,#222,#223));
#127=AXIS2_PLACEMENT_3D('',#224,#225,#226);
#128=EDGE_LOOP('',(#227,#228,#229,#230));
#129=AXIS2_PLACEMENT_3D('',#231,#232,#233);
#130=EDGE_LOOP('',(#234,#235));
#131=EDGE_LOOP('',(#236,#237));
#132=AXIS2_PLACEMENT_3D('',#238,#239,#240);
#133=EDGE_LOOP('',(#241,#242,#243,#244));
#134=AXIS2_PLACEMENT_3D('',#245,#246,#247);
#135=EDGE_LOOP('',(#248,#249,#250,#251));
#136=AXIS2_PLACEMENT_3D('',#252,#253,#254);
#137=EDGE_LOOP('',(#255,#256,#257));
#138=AXIS2_PLACEMENT_3D('',#258,#259,#260);
#139=ORIENTED_EDGE('',*,*,#261,.F.);
#140=ORIENTED_EDGE('',*,*,#262,.T.);
#141=ORIENTED_EDGE('',*,*,#263,.F.);
#142=ORIENTED_EDGE('',*,*,#264,.T.);
#143=CARTESIAN_POINT('',(0.0,0.0,5.9));
#144=DIRECTION('',(0.0,0.0,1.0));
#145=DIRECTION('',(1.0,0.0,0.0));
#146=ORIENTED_EDGE('',*,*,#265,.F.);
#147=ORIENTED_EDGE('',*,*,#264,.F.);
#148=ORIENTED_EDGE('',*,*,#266,.F.);
#149=ORIENTED_EDGE('',*,*,#262,.F.);
#150=CARTESIAN_POINT('',(0.0,0.0,5.9));
#151=DIRECTION('',(0.0,0.0,1.0));
#152=DIRECTION('',(1.0,0.0,0.0));
#153=ORIENTED_EDGE('',*,*,#267,.T.);
#154=ORIENTED_EDGE('',*,*,#268,.T.);
#155=ORIENTED_EDGE('',*,*,#269,.T.);
#156=CARTESIAN_POINT('',(0.0,0.0,0.143226867404377));
#157=DIRECTION('',(-0.0,-0.0,1.0));
#158=DIRECTION('',(1.0,0.0,0.0));
#159=ORIENTED_EDGE('',*,*,#270,.F.);
#160=ORIENTED_EDGE('',*,*,#271,.F.);
#161=ORIENTED_EDGE('',*,*,#272,.F.);
#162=ORIENTED_EDGE('',*,*,#263,.T.);
#163=CARTESIAN_POINT('',(0.0,0.0,3.25));
#164=DIRECTION('',(-0.0,-0.0,-1.0));
#165=DIRECTION('',(1.0,0.0,0.0));
#166=ORIENTED_EDGE('',*,*,#265,.T.);
#167=ORIENTED_EDGE('',*,*,#273,.F.);
#168=ORIENTED_EDGE('',*,*,#274,.T.);
#169=ORIENTED_EDGE('',*,*,#275,.F.);
#170=CARTESIAN_POINT('',(0.0,0.0,5.9));
#171=DIRECTION('',(0.0,0.0,1.0));
#172=DIRECTION('',(1.0,0.0,0.0));
#173=ORIENTED_EDGE('',*,*,#276,.F.);
#174=ORIENTED_EDGE('',*,*,#277,.T.);
#175=ORIENTED_EDGE('',*,*,#278,.F.);
#176=ORIENTED_EDGE('',*,*,#279,.F.);
#177=CARTESIAN_POINT('',(0.0,0.0,4.15));
#178=DIRECTION('',(-0.0,-0.0,-1.0));
#179=DIRECTION('',(1.0,0.0,0.0));
#180=ORIENTED_EDGE('',*,*,#280,.F.);
#181=ORIENTED_EDGE('',*,*,#281,.T.);
#182=ORIENTED_EDGE('',*,*,#282,.F.);
#183=ORIENTED_EDGE('',*,*,#277,.F.);
#184=CARTESIAN_POINT('',(0.0,0.0,-0.350000000000003));
#185=DIRECTION('',(-0.0,-0.0,-1.0));
#186=DIRECTION('',(1.0,0.0,0.0));
#187=ORIENTED_EDGE('',*,*,#283,.F.);
#188=ORIENTED_EDGE('',*,*,#284,.T.);
#189=ORIENTED_EDGE('',*,*,#285,.F.);
#190=ORIENTED_EDGE('',*,*,#281,.F.);
#191=CARTESIAN_POINT('',(0.0,0.0,-3.95));
#192=DIRECTION('',(-0.0,-0.0,-1.0));
#193=DIRECTION('',(1.0,0.0,0.0));
#194=ORIENTED_EDGE('',*,*,#286,.F.);
#195=ORIENTED_EDGE('',*,*,#287,.T.);
#196=ORIENTED_EDGE('',*,*,#288,.F.);
#197=ORIENTED_EDGE('',*,*,#284,.F.);
#198=CARTESIAN_POINT('',(0.0,0.0,-5.95));
#199=DIRECTION('',(-0.0,-0.0,1.0));
#200=DIRECTION('',(1.0,0.0,0.0));
#201=ORIENTED_EDGE('',*,*,#287,.F.);
#202=ORIENTED_EDGE('',*,*,#289,.F.);
#203=CARTESIAN_POINT('',(9.75,0.0,-6.2));
#204=DIRECTION('',(-0.0,0.0,-1.0));
#205=DIRECTION('',(-1.0,0.0,0.0));
#206=ORIENTED_EDGE('',*,*,#286,.T.);
#207=ORIENTED_EDGE('',*,*,#290,.F.);
#208=ORIENTED_EDGE('',*,*,#288,.T.);
#209=ORIENTED_EDGE('',*,*,#289,.T.);
#210=CARTESIAN_POINT('',(0.0,0.0,-5.95));
#211=DIRECTION('',(-0.0,-0.0,1.0));
#212=DIRECTION('',(1.0,0.0,0.0));
#213=ORIENTED_EDGE('',*,*,#283,.T.);
#214=ORIENTED_EDGE('',*,*,#291,.F.);
#215=ORIENTED_EDGE('',*,*,#285,.T.);
#216=ORIENTED_EDGE('',*,*,#290,.T.);
#217=CARTESIAN_POINT('',(0.0,0.0,-3.95));
#218=DIRECTION('',(-0.0,-0.0,-1.0));
#219=DIRECTION('',(1.0,0.0,0.0));
#220=ORIENTED_EDGE('',*,*,#280,.T.);
#221=ORIENTED_EDGE('',*,*,#292,.F.);
#222=ORIENTED_EDGE('',*,*,#282,.T.);
#223=ORIENTED_EDGE('',*,*,#291,.T.);
#224=CARTESIAN_POINT('',(0.0,0.0,-0.350000000000003));
#225=DIRECTION('',(-0.0,-0.0,-1.0));
#226=DIRECTION('',(1.0,0.0,0.0));
#227=ORIENTED_EDGE('',*,*,#276,.T.);
#228=ORIENTED_EDGE('',*,*,#293,.F.);
#229=ORIENTED_EDGE('',*,*,#278,.T.);
#230=ORIENTED_EDGE('',*,*,#292,.T.);
#231=CARTESIAN_POINT('',(0.0,0.0,4.15));
#232=DIRECTION('',(-0.0,-0.0,-1.0));
#233=DIRECTION('',(1.0,0.0,0.0));
#234=ORIENTED_EDGE('',*,*,#274,.F.);
#235=ORIENTED_EDGE('',*,*,#294,.F.);
#236=ORIENTED_EDGE('',*,*,#279,.T.);
#237=ORIENTED_EDGE('',*,*,#293,.T.);
#238=CARTESIAN_POINT('',(6.35,0.0,6.8));
#239=DIRECTION('',(0.0,0.0,1.0));
#240=DIRECTION('',(1.0,0.0,0.0));
#241=ORIENTED_EDGE('',*,*,#261,.T.);
#242=ORIENTED_EDGE('',*,*,#275,.T.);
#243=ORIENTED_EDGE('',*,*,#294,.T.);
#244=ORIENTED_EDGE('',*,*,#273,.T.);
#245=CARTESIAN_POINT('',(0.0,0.0,5.9));
#246=DIRECTION('',(0.0,0.0,1.0));
#247=DIRECTION('',(1.0,0.0,0.0));
#248=ORIENTED_EDGE('',*,*,#270,.T.);
#249=ORIENTED_EDGE('',*,*,#266,.T.);
#250=ORIENTED_EDGE('',*,*,#272,.T.);
#251=ORIENTED_EDGE('',*,*,#269,.F.);
#252=CARTESIAN_POINT('',(0.0,0.0,3.25));
#253=DIRECTION('',(-0.0,-0.0,-1.0));
#254=DIRECTION('',(1.0,0.0,0.0));
#255=ORIENTED_EDGE('',*,*,#267,.F.);
#256=ORIENTED_EDGE('',*,*,#271,.T.);
#257=ORIENTED_EDGE('',*,*,#268,.F.);
#258=CARTESIAN_POINT('',(0.0,0.0,0.143226867404377));
#259=DIRECTION('',(-0.0,-0.0,1.0));
#260=DIRECTION('',(1.0,0.0,0.0));
#261=EDGE_CURVE('',#295,#296,#297,.T.);
#262=EDGE_CURVE('',#295,#298,#299,.T.);
#263=EDGE_CURVE('',#300,#298,#301,.T.);
#264=EDGE_CURVE('',#300,#296,#302,.T.);
#265=EDGE_CURVE('',#296,#295,#303,.T.);
#266=EDGE_CURVE('',#298,#300,#304,.T.);
#267=EDGE_CURVE('',#305,#306,#307,.T.);
#268=EDGE_CURVE('',#306,#308,#309,.T.);
#269=EDGE_CURVE('',#308,#305,#310,.T.);
#270=EDGE_CURVE('',#308,#298,#311,.T.);
#271=EDGE_CURVE('',#305,#308,#312,.T.);
#272=EDGE_CURVE('',#300,#305,#313,.T.);
#273=EDGE_CURVE('',#314,#295,#315,.T.);
#274=EDGE_CURVE('',#314,#316,#317,.T.);
#275=EDGE_CURVE('',#296,#316,#318,.T.);
#276=EDGE_CURVE('',#319,#320,#321,.T.);
#277=EDGE_CURVE('',#319,#322,#323,.T.);
#278=EDGE_CURVE('',#324,#322,#325,.T.);
#279=EDGE_CURVE('',#320,#324,#326,.T.);
#280=EDGE_CURVE('',#327,#319,#328,.T.);
#281=EDGE_CURVE('',#327,#329,#330,.T.);
#282=EDGE_CURVE('',#322,#329,#331,.T.);
#283=EDGE_CURVE('',#332,#327,#333,.T.);
#284=EDGE_CURVE('',#332,#334,#335,.T.);
#285=EDGE_CURVE('',#329,#334,#336,.T.);
#286=EDGE_CURVE('',#337,#332,#338,.T.);
#287=EDGE_CURVE('',#337,#339,#340,.T.);
#288=EDGE_CURVE('',#334,#339,#341,.T.);
#289=EDGE_CURVE('',#339,#337,#342,.T.);
#290=EDGE_CURVE('',#334,#332,#343,.T.);
#291=EDGE_CURVE('',#329,#327,#344,.T.);
#292=EDGE_CURVE('',#322,#319,#345,.T.);
#293=EDGE_CURVE('',#324,#320,#346,.T.);
#294=EDGE_CURVE('',#316,#314,#347,.T.);
#295=VERTEX_POINT('',#348);
#296=VERTEX_POINT('',#349);
#297=CIRCLE('',#350,3.8);
#298=VERTEX_POINT('',#351);
#299=CIRCLE('',#352,0.9);
#300=VERTEX_POINT('',#353);
#301=CIRCLE('',#354,4.7);
#302=CIRCLE('',#355,0.9);
#303=CIRCLE('',#356,3.8);
#304=CIRCLE('',#357,4.7);
#305=VERTEX_POINT('',#358);
#306=VERTEX_POINT('',#359);
#307=LINE('',#360,#361);
#308=VERTEX_POINT('',#362);
#309=LINE('',#363,#364);
#310=CIRCLE('',#365,4.7);
#311=LINE('',#366,#367);
#312=CIRCLE('',#368,4.7);
#313=LINE('',#369,#370);
#314=VERTEX_POINT('',#371);
#315=CIRCLE('',#372,0.9);
#316=VERTEX_POINT('',#373);
#317=CIRCLE('',#374,4.7);
#318=CIRCLE('',#375,0.9);
#319=VERTEX_POINT('',#376);
#320=VERTEX_POINT('',#377);
#321=LINE('',#378,#379);
#322=VERTEX_POINT('',#380);
#323=CIRCLE('',#381,8.0);
#324=VERTEX_POINT('',#382);
#325=LINE('',#383,#384);
#326=CIRCLE('',#385,8.0);
#327=VERTEX_POINT('',#386);
#328=LINE('',#387,#388);
#329=VERTEX_POINT('',#389);
#330=CIRCLE('',#390,20.0);
#331=LINE('',#391,#392);
#332=VERTEX_POINT('',#393);
#333=LINE('',#394,#395);
#334=VERTEX_POINT('',#396);
#335=CIRCLE('',#397,20.0);
#336=LINE('',#398,#399);
#337=VERTEX_POINT('',#400);
#338=LINE('',#401,#402);
#339=VERTEX_POINT('',#403);
#340=CIRCLE('',#404,19.5);
#341=LINE('',#405,#406);
#342=CIRCLE('',#407,19.5);
#343=CIRCLE('',#408,20.0);
#344=CIRCLE('',#409,20.0);
#345=CIRCLE('',#410,8.0);
#346=CIRCLE('',#411,8.0);
#347=CIRCLE('',#412,4.7);
#348=CARTESIAN_POINT('',(3.8,-3.99612526229276E-016,5.9));
#349=CARTESIAN_POINT('',(-3.8,3.99612526229276E-016,5.9));
#350=AXIS2_PLACEMENT_3D('',#413,#414,#415);
#351=CARTESIAN_POINT('',(4.7,0.0,5.0));
#352=AXIS2_PLACEMENT_3D('',#416,#417,#418);
#353=CARTESIAN_POINT('',(-4.7,5.75564986296517E-016,5.0));
#354=AXIS2_PLACEMENT_3D('',#419,#420,#421);
#355=AXIS2_PLACEMENT_3D('',#422,#423,#424);
#356=AXIS2_PLACEMENT_3D('',#425,#426,#427);
#357=AXIS2_PLACEMENT_3D('',#428,#429,#430);
#358=CARTESIAN_POINT('',(-4.7,5.75564986296517E-016,1.5));
#359=CARTESIAN_POINT('',(0.0,0.0,-1.21354626519124));
#360=CARTESIAN_POINT('',(-2.35,2.87782493148259E-016,0.143226867404377));
#361=VECTOR('',#431,1.0);
#362=CARTESIAN_POINT('',(4.7,0.0,1.5));
#363=CARTESIAN_POINT('',(2.35,-2.87782493148259E-016,0.143226867404377));
#364=VECTOR('',#432,1.0);
#365=AXIS2_PLACEMENT_3D('',#433,#434,#435);
#366=CARTESIAN_POINT('',(4.7,-5.75564986296517E-016,3.25));
#367=VECTOR('',#436,1.0);
#368=AXIS2_PLACEMENT_3D('',#437,#438,#439);
#369=CARTESIAN_POINT('',(-4.7,5.75564986296517E-016,3.25));
#370=VECTOR('',#440,1.0);
#371=CARTESIAN_POINT('',(4.7,0.0,6.8));
#372=AXIS2_PLACEMENT_3D('',#441,#442,#443);
#373=CARTESIAN_POINT('',(-4.7,5.75564986296517E-016,6.8));
#374=AXIS2_PLACEMENT_3D('',#444,#445,#446);
#375=AXIS2_PLACEMENT_3D('',#447,#448,#449);
#376=CARTESIAN_POINT('',(8.0,0.0,1.5));
#377=CARTESIAN_POINT('',(8.0,0.0,6.8));
#378=CARTESIAN_POINT('',(8.0,-9.79685083057902E-016,4.15));
#379=VECTOR('',#450,1.0);
#380=CARTESIAN_POINT('',(-8.0,9.79685083057902E-016,1.5));
#381=AXIS2_PLACEMENT_3D('',#451,#452,#453);
#382=CARTESIAN_POINT('',(-8.0,9.79685083057902E-016,6.8));
#383=CARTESIAN_POINT('',(-8.0,9.79685083057902E-016,4.15));
#384=VECTOR('',#454,1.0);
#385=AXIS2_PLACEMENT_3D('',#455,#456,#457);
#386=CARTESIAN_POINT('',(20.0,0.0,-2.2));
#387=CARTESIAN_POINT('',(14.0,-1.71444889535133E-015,-0.350000000000003));
#388=VECTOR('',#458,1.0);
#389=CARTESIAN_POINT('',(-20.0,2.44921270764475E-015,-2.2));
#390=AXIS2_PLACEMENT_3D('',#459,#460,#461);
#391=CARTESIAN_POINT('',(-14.0,1.71444889535133E-015,-0.350000000000003));
#392=VECTOR('',#462,1.0);
#393=CARTESIAN_POINT('',(20.0,0.0,-5.7));
#394=CARTESIAN_POINT('',(20.0,-2.44921270764475E-015,-3.95));
#395=VECTOR('',#463,1.0);
#396=CARTESIAN_POINT('',(-20.0,2.44921270764475E-015,-5.7));
#397=AXIS2_PLACEMENT_3D('',#464,#465,#466);
#398=CARTESIAN_POINT('',(-20.0,2.44921270764475E-015,-3.95));
#399=VECTOR('',#467,1.0);
#400=CARTESIAN_POINT('',(19.5,0.0,-6.2));
#401=CARTESIAN_POINT('',(19.75,-2.4185975487992E-015,-5.95));
#402=VECTOR('',#468,1.0);
#403=CARTESIAN_POINT('',(-19.5,2.38798238995364E-015,-6.2));
#404=AXIS2_PLACEMENT_3D('',#469,#470,#471);
#405=CARTESIAN_POINT('',(-19.75,2.4185975487992E-015,-5.95));
#406=VECTOR('',#472,1.0);
#407=AXIS2_PLACEMENT_3D('',#473,#474,#475);
#408=AXIS2_PLACEMENT_3D('',#476,#477,#478);
#409=AXIS2_PLACEMENT_3D('',#479,#480,#481);
#410=AXIS2_PLACEMENT_3D('',#482,#483,#484);
#411=AXIS2_PLACEMENT_3D('',#485,#486,#487);
#412=AXIS2_PLACEMENT_3D('',#488,#489,#490);
#413=CARTESIAN_POINT('',(0.0,0.0,5.9));
#414=DIRECTION('',(0.0,0.0,-1.0));
#415=DIRECTION('',(1.0,0.0,0.0));
#416=CARTESIAN_POINT('',(4.7,-5.75564986296517E-016,5.9));
#417=DIRECTION('',(-1.22460635382238E-016,-1.0,0.0));
#418=DIRECTION('',(1.0,-1.22460635382238E-016,-0.0));
#419=CARTESIAN_POINT('',(0.0,0.0,5.0));
#420=DIRECTION('',(0.0,0.0,1.0));
#421=DIRECTION('',(1.0,0.0,0.0));
#422=CARTESIAN_POINT('',(-4.7,5.75564986296517E-016,5.9));
#423=DIRECTION('',(-1.22460635382238E-016,-1.0,0.0));
#424=DIRECTION('',(-1.0,1.22460635382238E-016,0.0));
#425=CARTESIAN_POINT('',(0.0,0.0,5.9));
#426=DIRECTION('',(0.0,0.0,-1.0));
#427=DIRECTION('',(1.0,0.0,0.0));
#428=CARTESIAN_POINT('',(0.0,0.0,5.0));
#429=DIRECTION('',(0.0,0.0,1.0));
#430=DIRECTION('',(1.0,0.0,0.0));
#431=DIRECTION('',(0.866025403784439,-1.06054021204601E-016,-0.5));
#432=DIRECTION('',(0.866025403784439,-1.06054021204601E-016,0.5));
#433=CARTESIAN_POINT('',(0.0,0.0,1.5));
#434=DIRECTION('',(0.0,0.0,1.0));
#435=DIRECTION('',(1.0,0.0,0.0));
#436=DIRECTION('',(-0.0,0.0,1.0));
#437=CARTESIAN_POINT('',(0.0,0.0,1.5));
#438=DIRECTION('',(0.0,0.0,1.0));
#439=DIRECTION('',(1.0,0.0,0.0));
#440=DIRECTION('',(-0.0,0.0,-1.0));
#441=CARTESIAN_POINT('',(4.7,-5.75564986296517E-016,5.9));
#442=DIRECTION('',(-1.22460635382238E-016,-1.0,0.0));
#443=DIRECTION('',(1.0,-1.22460635382238E-016,-0.0));
#444=CARTESIAN_POINT('',(0.0,0.0,6.8));
#445=DIRECTION('',(0.0,0.0,1.0));
#446=DIRECTION('',(1.0,0.0,0.0));
#447=CARTESIAN_POINT('',(-4.7,5.75564986296517E-016,5.9));
#448=DIRECTION('',(-1.22460635382238E-016,-1.0,0.0));
#449=DIRECTION('',(-1.0,1.22460635382238E-016,0.0));
#450=DIRECTION('',(0.0,0.0,1.0));
#451=CARTESIAN_POINT('',(0.0,0.0,1.5));
#452=DIRECTION('',(0.0,0.0,1.0));
#453=DIRECTION('',(1.0,0.0,0.0));
#454=DIRECTION('',(-0.0,-0.0,-1.0));
#455=CARTESIAN_POINT('',(0.0,0.0,6.8));
#456=DIRECTION('',(0.0,0.0,1.0));
#457=DIRECTION('',(1.0,0.0,0.0));
#458=DIRECTION('',(-0.955606663526896,1.17024199191004E-016,0.294645387920793));
#459=CARTESIAN_POINT('',(0.0,0.0,-2.2));
#460=DIRECTION('',(0.0,0.0,1.0));
#461=DIRECTION('',(1.0,0.0,0.0));
#462=DIRECTION('',(-0.955606663526896,1.17024199191004E-016,-0.294645387920793));
#463=DIRECTION('',(0.0,0.0,1.0));
#464=CARTESIAN_POINT('',(0.0,0.0,-5.7));
#465=DIRECTION('',(0.0,0.0,1.0));
#466=DIRECTION('',(1.0,0.0,0.0));
#467=DIRECTION('',(-0.0,-0.0,-1.0));
#468=DIRECTION('',(0.707106781186548,-8.65927457071937E-017,0.707106781186547));
#469=CARTESIAN_POINT('',(0.0,0.0,-6.2));
#470=DIRECTION('',(0.0,0.0,1.0));
#471=DIRECTION('',(1.0,0.0,0.0));
#472=DIRECTION('',(0.707106781186548,-8.65927457071936E-017,-0.707106781186547));
#473=CARTESIAN_POINT('',(0.0,0.0,-6.2));
#474=DIRECTION('',(0.0,0.0,1.0));
#475=DIRECTION('',(1.0,0.0,0.0));
#476=CARTESIAN_POINT('',(0.0,0.0,-5.7));
#477=DIRECTION('',(0.0,0.0,1.0));
#478=DIRECTION('',(1.0,0.0,0.0));
#479=CARTESIAN_POINT('',(0.0,0.0,-2.2));
#480=DIRECTION('',(0.0,0.0,1.0));
#481=DIRECTION('',(1.0,0.0,0.0));
#482=CARTESIAN_POINT('',(0.0,0.0,1.5));
#483=DIRECTION('',(0.0,0.0,1.0));
#484=DIRECTION('',(1.0,0.0,0.0));
#485=CARTESIAN_POINT('',(0.0,0.0,6.8));
#486=DIRECTION('',(0.0,0.0,1.0));
#487=DIRECTION('',(1.0,0.0,0.0));
#488=CARTESIAN_POINT('',(0.0,0.0,6.8));
#489=DIRECTION('',(0.0,0.0,1.0));
#490=DIRECTION('',(1.0,0.0,0.0));
ENDSEC;
END-ISO-10303-21;
