ISO-10303-21;
HEADER;
FILE_DESCRIPTION(('STEP AP214'),'1');
FILE_NAME(' ','  ',('TraceParts'),('TraceParts S.A.'),'XStep 1.0',' ',' ');
FILE_SCHEMA(('automotive_design'));
ENDSEC;
DATA;
#1=MECHANICAL_DESIGN_GEOMETRIC_PRESENTATION_REPRESENTATION(' ',(#10,#11,#12,#13,#14,#15,#16,#17,#18,#19,#20,#21,#22,#23,#24,#25,#26,#27,#28,#29,#30,#31,#32,#33,#34,#35,#36,#37,#38,#39,#40,#41,#42,#43,#44,#45,#46,#47,#48,#49,#50,#51,#52,#53,#54,#55,#56,#57),#6);
#2=PRODUCT_DEFINITION_CONTEXT('',#58,'design');
#3=APPLICATION_PROTOCOL_DEFINITION('INTERNATIONAL STANDARD','automotive_design',1994,#58);
#4=PRODUCT_CATEGORY_RELATIONSHIP('NONE','NONE',#59,#60);
#5=SHAPE_DEFINITION_REPRESENTATION(#61,#62);
#6= (GEOMETRIC_REPRESENTATION_CONTEXT(3)GLOBAL_UNCERTAINTY_ASSIGNED_CONTEXT((#65))GLOBAL_UNIT_ASSIGNED_CONTEXT((#67,#68,#69))REPRESENTATION_CONTEXT('NONE','WORKSPACE'));
#10=STYLED_ITEM('',(#71),#72);
#11=STYLED_ITEM('',(#73),#74);
#12=STYLED_ITEM('',(#75),#76);
#13=STYLED_ITEM('',(#77),#78);
#14=STYLED_ITEM('',(#79),#80);
#15=STYLED_ITEM('',(#81),#82);
#16=STYLED_ITEM('',(#83),#84);
#17=STYLED_ITEM('',(#85),#86);
#18=STYLED_ITEM('',(#87),#88);
#19=STYLED_ITEM('',(#89),#90);
#20=STYLED_ITEM('',(#91),#92);
#21=STYLED_ITEM('',(#93),#94);
#22=STYLED_ITEM('',(#95),#96);
#23=STYLED_ITEM('',(#97),#98);
#24=STYLED_ITEM('',(#99),#100);
#25=STYLED_ITEM('',(#101),#102);
#26=STYLED_ITEM('',(#103),#104);
#27=STYLED_ITEM('',(#105),#106);
#28=STYLED_ITEM('',(#107),#108);
#29=STYLED_ITEM('',(#109),#110);
#30=STYLED_ITEM('',(#111),#112);
#31=STYLED_ITEM('',(#113),#114);
#32=STYLED_ITEM('',(#115),#116);
#33=STYLED_ITEM('',(#117),#118);
#34=STYLED_ITEM('',(#119),#120);
#35=STYLED_ITEM('',(#121),#122);
#36=STYLED_ITEM('',(#123),#124);
#37=STYLED_ITEM('',(#125),#126);
#38=STYLED_ITEM('',(#127),#128);
#39=STYLED_ITEM('',(#129),#130);
#40=STYLED_ITEM('',(#131),#132);
#41=STYLED_ITEM('',(#133),#134);
#42=STYLED_ITEM('',(#135),#136);
#43=STYLED_ITEM('',(#137),#138);
#44=STYLED_ITEM('',(#139),#140);
#45=STYLED_ITEM('',(#141),#142);
#46=STYLED_ITEM('',(#143),#144);
#47=STYLED_ITEM('',(#145),#146);
#48=STYLED_ITEM('',(#147),#148);
#49=STYLED_ITEM('',(#149),#150);
#50=STYLED_ITEM('',(#151),#152);
#51=STYLED_ITEM('',(#153),#154);
#52=STYLED_ITEM('',(#155),#156);
#53=STYLED_ITEM('',(#157),#158);
#54=STYLED_ITEM('',(#159),#160);
#55=STYLED_ITEM('',(#161),#162);
#56=STYLED_ITEM('',(#163),#164);
#57=STYLED_ITEM('',(#165),#166);
#58=APPLICATION_CONTEXT(' ');
#59=PRODUCT_CATEGORY('part','NONE');
#60=PRODUCT_RELATED_PRODUCT_CATEGORY('detail',' ',(#167));
#61=PRODUCT_DEFINITION_SHAPE('NONE','NONE',#168);
#62=ADVANCED_BREP_SHAPE_REPRESENTATION('1',(#112,#169),#6);
#65=UNCERTAINTY_MEASURE_WITH_UNIT(LENGTH_MEASURE(1.0E-006),#67,'','');
#67= (CONVERSION_BASED_UNIT('MILLIMETRE',#172)LENGTH_UNIT()NAMED_UNIT(#175));
#68= (NAMED_UNIT(#177)PLANE_ANGLE_UNIT()SI_UNIT($,.RADIAN.));
#69= (NAMED_UNIT(#177)SOLID_ANGLE_UNIT()SI_UNIT($,.STERADIAN.));
#71=PRESENTATION_STYLE_ASSIGNMENT((#183));
#72=ADVANCED_FACE('',(#184),#185,.T.);
#73=PRESENTATION_STYLE_ASSIGNMENT((#186));
#74=VERTEX_POINT('',#187);
#75=PRESENTATION_STYLE_ASSIGNMENT((#188));
#76=VERTEX_POINT('',#189);
#77=PRESENTATION_STYLE_ASSIGNMENT((#190));
#78=ADVANCED_FACE('',(#191),#192,.T.);
#79=PRESENTATION_STYLE_ASSIGNMENT((#193));
#80=EDGE_CURVE('',#108,#92,#194,.T.);
#81=PRESENTATION_STYLE_ASSIGNMENT((#195));
#82=EDGE_CURVE('',#130,#158,#196,.T.);
#83=PRESENTATION_STYLE_ASSIGNMENT((#197));
#84=EDGE_CURVE('',#86,#144,#198,.T.);
#85=PRESENTATION_STYLE_ASSIGNMENT((#199));
#86=VERTEX_POINT('',#200);
#87=PRESENTATION_STYLE_ASSIGNMENT((#201));
#88=EDGE_CURVE('',#158,#86,#202,.T.);
#89=PRESENTATION_STYLE_ASSIGNMENT((#203));
#90=EDGE_CURVE('',#76,#132,#204,.T.);
#91=PRESENTATION_STYLE_ASSIGNMENT((#205));
#92=VERTEX_POINT('',#206);
#93=PRESENTATION_STYLE_ASSIGNMENT((#207));
#94=EDGE_CURVE('',#92,#104,#208,.T.);
#95=PRESENTATION_STYLE_ASSIGNMENT((#209));
#96=ADVANCED_FACE('',(#210),#211,.F.);
#97=PRESENTATION_STYLE_ASSIGNMENT((#212));
#98=EDGE_CURVE('',#122,#104,#213,.T.);
#99=PRESENTATION_STYLE_ASSIGNMENT((#214));
#100=ADVANCED_FACE('',(#215,#216),#217,.T.);
#101=PRESENTATION_STYLE_ASSIGNMENT((#218));
#102=EDGE_CURVE('',#122,#108,#219,.T.);
#103=PRESENTATION_STYLE_ASSIGNMENT((#220));
#104=VERTEX_POINT('',#221);
#105=PRESENTATION_STYLE_ASSIGNMENT((#222));
#106=ADVANCED_FACE('',(#223),#224,.F.);
#107=PRESENTATION_STYLE_ASSIGNMENT((#225));
#108=VERTEX_POINT('',#226);
#109=PRESENTATION_STYLE_ASSIGNMENT((#227));
#110=EDGE_CURVE('',#144,#86,#228,.T.);
#111=PRESENTATION_STYLE_ASSIGNMENT((#229));
#112=MANIFOLD_SOLID_BREP('1',#230);
#113=PRESENTATION_STYLE_ASSIGNMENT((#231));
#114=ADVANCED_FACE('',(#232,#233),#234,.T.);
#115=PRESENTATION_STYLE_ASSIGNMENT((#235));
#116=ADVANCED_FACE('',(#236),#237,.T.);
#117=PRESENTATION_STYLE_ASSIGNMENT((#238));
#118=EDGE_CURVE('',#162,#142,#239,.T.);
#119=PRESENTATION_STYLE_ASSIGNMENT((#240));
#120=EDGE_CURVE('',#162,#158,#241,.T.);
#121=PRESENTATION_STYLE_ASSIGNMENT((#242));
#122=VERTEX_POINT('',#243);
#123=PRESENTATION_STYLE_ASSIGNMENT((#244));
#124=EDGE_CURVE('',#104,#122,#245,.T.);
#125=PRESENTATION_STYLE_ASSIGNMENT((#246));
#126=EDGE_CURVE('',#92,#108,#247,.T.);
#127=PRESENTATION_STYLE_ASSIGNMENT((#248));
#128=ADVANCED_FACE('',(#249),#250,.T.);
#129=PRESENTATION_STYLE_ASSIGNMENT((#251));
#130=VERTEX_POINT('',#252);
#131=PRESENTATION_STYLE_ASSIGNMENT((#253));
#132=VERTEX_POINT('',#254);
#133=PRESENTATION_STYLE_ASSIGNMENT((#255));
#134=ADVANCED_FACE('',(#256),#257,.T.);
#135=PRESENTATION_STYLE_ASSIGNMENT((#258));
#136=EDGE_CURVE('',#158,#130,#259,.T.);
#137=PRESENTATION_STYLE_ASSIGNMENT((#260));
#138=EDGE_CURVE('',#148,#132,#261,.T.);
#139=PRESENTATION_STYLE_ASSIGNMENT((#262));
#140=EDGE_CURVE('',#132,#148,#263,.T.);
#141=PRESENTATION_STYLE_ASSIGNMENT((#264));
#142=VERTEX_POINT('',#265);
#143=PRESENTATION_STYLE_ASSIGNMENT((#266));
#144=VERTEX_POINT('',#267);
#145=PRESENTATION_STYLE_ASSIGNMENT((#268));
#146=EDGE_CURVE('',#148,#74,#269,.T.);
#147=PRESENTATION_STYLE_ASSIGNMENT((#270));
#148=VERTEX_POINT('',#271);
#149=PRESENTATION_STYLE_ASSIGNMENT((#272));
#150=EDGE_CURVE('',#76,#74,#273,.T.);
#151=PRESENTATION_STYLE_ASSIGNMENT((#274));
#152=EDGE_CURVE('',#74,#76,#275,.T.);
#153=PRESENTATION_STYLE_ASSIGNMENT((#276));
#154=EDGE_CURVE('',#142,#162,#277,.T.);
#155=PRESENTATION_STYLE_ASSIGNMENT((#278));
#156=ADVANCED_FACE('',(#279),#280,.T.);
#157=PRESENTATION_STYLE_ASSIGNMENT((#281));
#158=VERTEX_POINT('',#282);
#159=PRESENTATION_STYLE_ASSIGNMENT((#283));
#160=EDGE_CURVE('',#144,#130,#284,.T.);
#161=PRESENTATION_STYLE_ASSIGNMENT((#285));
#162=VERTEX_POINT('',#286);
#163=PRESENTATION_STYLE_ASSIGNMENT((#287));
#164=EDGE_CURVE('',#130,#142,#288,.T.);
#165=PRESENTATION_STYLE_ASSIGNMENT((#289));
#166=ADVANCED_FACE('',(#290,#291),#292,.T.);
#167=PRODUCT('1','1','PART-1-DESC',(#293));
#168=PRODUCT_DEFINITION('NONE','NONE',#294,#2);
#169=AXIS2_PLACEMENT_3D('',#295,#296,#297);
#172=LENGTH_MEASURE_WITH_UNIT(LENGTH_MEASURE(1.0),#298);
#175=DIMENSIONAL_EXPONENTS(1.0,0.0,0.0,0.0,0.0,0.0,0.0);
#177=DIMENSIONAL_EXPONENTS(0.0,0.0,0.0,0.0,0.0,0.0,0.0);
#183=SURFACE_STYLE_USAGE(.BOTH.,#299);
#184=FACE_OUTER_BOUND('',#300,.T.);
#185=CYLINDRICAL_SURFACE('',#301,11.5);
#186=POINT_STYLE(' ',#302,POSITIVE_LENGTH_MEASURE(1.0E-006),#303);
#187=CARTESIAN_POINT('',(-5.85144999999994,3.4066440602075E-015,2.99999999999997));
#188=POINT_STYLE(' ',#304,POSITIVE_LENGTH_MEASURE(1.0E-006),#305);
#189=CARTESIAN_POINT('',(5.85145000000006,5.46299076732334E-015,2.99999999999997));
#190=SURFACE_STYLE_USAGE(.BOTH.,#306);
#191=FACE_OUTER_BOUND('',#307,.T.);
#192=CONICAL_SURFACE('',#308,11.25,0.785398163397477);
#193=CURVE_STYLE('',#309,POSITIVE_LENGTH_MEASURE(1.0E-006),#310);
#194=CIRCLE('',#311,10.0);
#195=CURVE_STYLE('',#312,POSITIVE_LENGTH_MEASURE(1.0E-006),#313);
#196=CIRCLE('',#314,11.5);
#197=CURVE_STYLE('',#315,POSITIVE_LENGTH_MEASURE(1.0E-006),#316);
#198=CIRCLE('',#317,11.5);
#199=POINT_STYLE(' ',#318,POSITIVE_LENGTH_MEASURE(1.0E-006),#319);
#200=CARTESIAN_POINT('',(11.5000000000001,5.97102483623832E-015,-2.8421709430404E-014));
#201=CURVE_STYLE('',#320,POSITIVE_LENGTH_MEASURE(1.0E-006),#321);
#202=LINE('',#322,#323);
#203=CURVE_STYLE('',#324,POSITIVE_LENGTH_MEASURE(1.0E-006),#325);
#204=LINE('',#326,#327);
#205=POINT_STYLE(' ',#328,POSITIVE_LENGTH_MEASURE(1.0E-006),#329);
#206=CARTESIAN_POINT('',(-9.99999999999997,2.4567733137681E-015,-10.0));
#207=CURVE_STYLE('',#330,POSITIVE_LENGTH_MEASURE(1.0E-006),#331);
#208=LINE('',#332,#333);
#209=SURFACE_STYLE_USAGE(.BOTH.,#334);
#210=FACE_OUTER_BOUND('',#335,.T.);
#211=CONICAL_SURFACE('',#336,4.99572499999999,0.130897238863);
#212=CURVE_STYLE('',#337,POSITIVE_LENGTH_MEASURE(1.0E-006),#338);
#213=CIRCLE('',#339,10.0);
#214=SURFACE_STYLE_USAGE(.BOTH.,#340);
#215=FACE_BOUND('',#341,.T.);
#216=FACE_OUTER_BOUND('',#342,.T.);
#217=PLANE('',#343);
#218=CURVE_STYLE('',#344,POSITIVE_LENGTH_MEASURE(1.0E-006),#345);
#219=LINE('',#346,#347);
#220=POINT_STYLE(' ',#348,POSITIVE_LENGTH_MEASURE(1.0E-006),#349);
#221=CARTESIAN_POINT('',(-9.99999999999997,2.4567733137681E-015,-2.8421709430404E-014));
#222=SURFACE_STYLE_USAGE(.BOTH.,#350);
#223=FACE_OUTER_BOUND('',#351,.T.);
#224=CONICAL_SURFACE('',#352,4.99572499999999,0.130897238863);
#225=POINT_STYLE(' ',#353,POSITIVE_LENGTH_MEASURE(1.0E-006),#354);
#226=CARTESIAN_POINT('',(10.0000000000001,5.17503070625378E-015,-10.0));
#227=CURVE_STYLE('',#355,POSITIVE_LENGTH_MEASURE(1.0E-006),#356);
#228=CIRCLE('',#357,11.5);
#229=SURFACE_STYLE_USAGE(.BOTH.,#358);
#230=CLOSED_SHELL('',(#72,#78,#96,#156,#100,#134,#166,#106,#114,#128,#116));
#231=SURFACE_STYLE_USAGE(.BOTH.,#359);
#232=FACE_OUTER_BOUND('',#360,.T.);
#233=FACE_BOUND('',#361,.T.);
#234=PLANE('',#362);
#235=SURFACE_STYLE_USAGE(.BOTH.,#363);
#236=FACE_OUTER_BOUND('',#364,.T.);
#237=CYLINDRICAL_SURFACE('',#365,11.5);
#238=CURVE_STYLE('',#366,POSITIVE_LENGTH_MEASURE(1.0E-006),#367);
#239=CIRCLE('',#368,11.0);
#240=CURVE_STYLE('',#369,POSITIVE_LENGTH_MEASURE(1.0E-006),#370);
#241=LINE('',#371,#372);
#242=POINT_STYLE(' ',#373,POSITIVE_LENGTH_MEASURE(1.0E-006),#374);
#243=CARTESIAN_POINT('',(10.0000000000001,5.78733388316497E-015,-2.8421709430404E-014));
#244=CURVE_STYLE('',#375,POSITIVE_LENGTH_MEASURE(1.0E-006),#376);
#245=CIRCLE('',#377,10.0);
#246=CURVE_STYLE('',#378,POSITIVE_LENGTH_MEASURE(1.0E-006),#379);
#247=CIRCLE('',#380,10.0);
#248=SURFACE_STYLE_USAGE(.BOTH.,#381);
#249=FACE_OUTER_BOUND('',#382,.T.);
#250=CONICAL_SURFACE('',#383,11.25,0.785398163397477);
#251=POINT_STYLE(' ',#384,POSITIVE_LENGTH_MEASURE(1.0E-006),#385);
#252=CARTESIAN_POINT('',(-11.4999999999999,2.11332653847093E-015,2.49999999999997));
#253=POINT_STYLE(' ',#386,POSITIVE_LENGTH_MEASURE(1.0E-006),#387);
#254=CARTESIAN_POINT('',(4.14000000000004,4.45741138291386E-015,-10.0));
#255=SURFACE_STYLE_USAGE(.BOTH.,#388);
#256=FACE_OUTER_BOUND('',#389,.T.);
#257=CYLINDRICAL_SURFACE('',#390,10.0);
#258=CURVE_STYLE('',#391,POSITIVE_LENGTH_MEASURE(1.0E-006),#392);
#259=CIRCLE('',#393,11.5);
#260=CURVE_STYLE('',#394,POSITIVE_LENGTH_MEASURE(1.0E-006),#395);
#261=CIRCLE('',#396,4.13999999999999);
#262=CURVE_STYLE('',#397,POSITIVE_LENGTH_MEASURE(1.0E-006),#398);
#263=CIRCLE('',#399,4.13999999999999);
#264=POINT_STYLE(' ',#400,POSITIVE_LENGTH_MEASURE(1.0E-006),#401);
#265=CARTESIAN_POINT('',(-10.9999999999999,2.22780879690333E-015,2.99999999999997));
#266=POINT_STYLE(' ',#402,POSITIVE_LENGTH_MEASURE(1.0E-006),#403);
#267=CARTESIAN_POINT('',(-11.4999999999999,2.11332653847093E-015,-2.8421709430404E-014));
#268=CURVE_STYLE('',#404,POSITIVE_LENGTH_MEASURE(1.0E-006),#405);
#269=LINE('',#406,#407);
#270=POINT_STYLE(' ',#408,POSITIVE_LENGTH_MEASURE(1.0E-006),#409);
#271=CARTESIAN_POINT('',(-4.13999999999993,3.79850538259574E-015,-10.0));
#272=CURVE_STYLE('',#410,POSITIVE_LENGTH_MEASURE(1.0E-006),#411);
#273=CIRCLE('',#412,5.85145);
#274=CURVE_STYLE('',#413,POSITIVE_LENGTH_MEASURE(1.0E-006),#414);
#275=CIRCLE('',#415,5.85145);
#276=CURVE_STYLE('',#416,POSITIVE_LENGTH_MEASURE(1.0E-006),#417);
#277=CIRCLE('',#418,11.0);
#278=SURFACE_STYLE_USAGE(.BOTH.,#419);
#279=FACE_OUTER_BOUND('',#420,.T.);
#280=CYLINDRICAL_SURFACE('',#421,10.0);
#281=POINT_STYLE(' ',#422,POSITIVE_LENGTH_MEASURE(1.0E-006),#423);
#282=CARTESIAN_POINT('',(11.5000000000001,6.12410063046612E-015,2.49999999999997));
#283=CURVE_STYLE('',#424,POSITIVE_LENGTH_MEASURE(1.0E-006),#425);
#284=LINE('',#426,#427);
#285=POINT_STYLE(' ',#428,POSITIVE_LENGTH_MEASURE(1.0E-006),#429);
#286=CARTESIAN_POINT('',(11.0,6.09348547162055E-015,2.99999999999997));
#287=CURVE_STYLE('',#430,POSITIVE_LENGTH_MEASURE(1.0E-006),#431);
#288=LINE('',#432,#433);
#289=SURFACE_STYLE_USAGE(.BOTH.,#434);
#290=FACE_BOUND('',#435,.T.);
#291=FACE_OUTER_BOUND('',#436,.T.);
#292=PLANE('',#437);
#293=PRODUCT_CONTEXT('',#58,'mechanical');
#294=PRODUCT_DEFINITION_FORMATION_WITH_SPECIFIED_SOURCE(' ','NONE',#167,.NOT_KNOWN.);
#295=CARTESIAN_POINT('',(0.0,0.0,0.0));
#296=DIRECTION('',(0.0,0.0,1.0));
#297=DIRECTION('',(1.0,0.0,0.0));
#298= (NAMED_UNIT(#175)LENGTH_UNIT()SI_UNIT(.MILLI.,.METRE.));
#299=SURFACE_SIDE_STYLE('',(#439));
#300=EDGE_LOOP('',(#440,#441,#442,#443));
#301=AXIS2_PLACEMENT_3D('',#444,#445,#446);
#302=PRE_DEFINED_MARKER('');
#303=COLOUR_RGB('',0.509803950786591,0.509803950786591,0.588235318660736);
#304=PRE_DEFINED_MARKER('');
#305=COLOUR_RGB('',0.509803950786591,0.509803950786591,0.588235318660736);
#306=SURFACE_SIDE_STYLE('',(#447));
#307=EDGE_LOOP('',(#448,#449,#450,#451));
#308=AXIS2_PLACEMENT_3D('',#452,#453,#454);
#309=DRAUGHTING_PRE_DEFINED_CURVE_FONT('continuous');
#310=COLOUR_RGB('',0.509803950786591,0.509803950786591,0.588235318660736);
#311=AXIS2_PLACEMENT_3D('',#455,#456,#457);
#312=DRAUGHTING_PRE_DEFINED_CURVE_FONT('continuous');
#313=COLOUR_RGB('',0.509803950786591,0.509803950786591,0.588235318660736);
#314=AXIS2_PLACEMENT_3D('',#458,#459,#460);
#315=DRAUGHTING_PRE_DEFINED_CURVE_FONT('continuous');
#316=COLOUR_RGB('',0.509803950786591,0.509803950786591,0.588235318660736);
#317=AXIS2_PLACEMENT_3D('',#461,#462,#463);
#318=PRE_DEFINED_MARKER('');
#319=COLOUR_RGB('',0.509803950786591,0.509803950786591,0.588235318660736);
#320=DRAUGHTING_PRE_DEFINED_CURVE_FONT('continuous');
#321=COLOUR_RGB('',0.509803950786591,0.509803950786591,0.588235318660736);
#322=CARTESIAN_POINT('',(11.5000000000001,7.37951042636095E-015,1.24999999999997));
#323=VECTOR('',#464,1.0);
#324=DRAUGHTING_PRE_DEFINED_CURVE_FONT('continuous');
#325=COLOUR_RGB('',0.509803950786591,0.509803950786591,0.588235318660736);
#326=CARTESIAN_POINT('',(4.99572500000005,5.89026224343026E-015,-3.50000000000003));
#327=VECTOR('',#465,1.0);
#328=PRE_DEFINED_MARKER('');
#329=COLOUR_RGB('',0.509803950786591,0.509803950786591,0.588235318660736);
#330=DRAUGHTING_PRE_DEFINED_CURVE_FONT('continuous');
#331=COLOUR_RGB('',0.509803950786591,0.509803950786591,0.588235318660736);
#332=CARTESIAN_POINT('',(-9.99999999999997,2.4567733137681E-015,-5.00000000000003));
#333=VECTOR('',#466,1.0);
#334=SURFACE_SIDE_STYLE('',(#467));
#335=EDGE_LOOP('',(#468,#469,#470,#471));
#336=AXIS2_PLACEMENT_3D('',#472,#473,#474);
#337=DRAUGHTING_PRE_DEFINED_CURVE_FONT('continuous');
#338=COLOUR_RGB('',0.509803950786591,0.509803950786591,0.588235318660736);
#339=AXIS2_PLACEMENT_3D('',#475,#476,#477);
#340=SURFACE_SIDE_STYLE('',(#478));
#341=EDGE_LOOP('',(#479,#480));
#342=EDGE_LOOP('',(#481,#482));
#343=AXIS2_PLACEMENT_3D('',#483,#484,#485);
#344=DRAUGHTING_PRE_DEFINED_CURVE_FONT('continuous');
#345=COLOUR_RGB('',0.509803950786591,0.509803950786591,0.588235318660736);
#346=CARTESIAN_POINT('',(10.0000000000001,7.03606365106378E-015,-5.00000000000003));
#347=VECTOR('',#486,1.0);
#348=PRE_DEFINED_MARKER('');
#349=COLOUR_RGB('',0.509803950786591,0.509803950786591,0.588235318660736);
#350=SURFACE_SIDE_STYLE('',(#487));
#351=EDGE_LOOP('',(#488,#489,#490,#491));
#352=AXIS2_PLACEMENT_3D('',#492,#493,#494);
#353=PRE_DEFINED_MARKER('');
#354=COLOUR_RGB('',0.509803950786591,0.509803950786591,0.588235318660736);
#355=DRAUGHTING_PRE_DEFINED_CURVE_FONT('continuous');
#356=COLOUR_RGB('',0.509803950786591,0.509803950786591,0.588235318660736);
#357=AXIS2_PLACEMENT_3D('',#495,#496,#497);
#358=SURFACE_SIDE_STYLE('',(#498));
#359=SURFACE_SIDE_STYLE('',(#499));
#360=EDGE_LOOP('',(#500,#501));
#361=EDGE_LOOP('',(#502,#503));
#362=AXIS2_PLACEMENT_3D('',#504,#505,#506);
#363=SURFACE_SIDE_STYLE('',(#507));
#364=EDGE_LOOP('',(#508,#509,#510,#511));
#365=AXIS2_PLACEMENT_3D('',#512,#513,#514);
#366=DRAUGHTING_PRE_DEFINED_CURVE_FONT('continuous');
#367=COLOUR_RGB('',0.509803950786591,0.509803950786591,0.588235318660736);
#368=AXIS2_PLACEMENT_3D('',#515,#516,#517);
#369=DRAUGHTING_PRE_DEFINED_CURVE_FONT('continuous');
#370=COLOUR_RGB('',0.509803950786591,0.509803950786591,0.588235318660736);
#371=CARTESIAN_POINT('',(11.25,7.32226929714475E-015,2.74999999999997));
#372=VECTOR('',#518,1.0);
#373=PRE_DEFINED_MARKER('');
#374=COLOUR_RGB('',0.509803950786591,0.509803950786591,0.588235318660736);
#375=DRAUGHTING_PRE_DEFINED_CURVE_FONT('continuous');
#376=COLOUR_RGB('',0.509803950786591,0.509803950786591,0.588235318660736);
#377=AXIS2_PLACEMENT_3D('',#519,#520,#521);
#378=DRAUGHTING_PRE_DEFINED_CURVE_FONT('continuous');
#379=COLOUR_RGB('',0.509803950786591,0.509803950786591,0.588235318660736);
#380=AXIS2_PLACEMENT_3D('',#522,#523,#524);
#381=SURFACE_SIDE_STYLE('',(#525));
#382=EDGE_LOOP('',(#526,#527,#528,#529));
#383=AXIS2_PLACEMENT_3D('',#530,#531,#532);
#384=PRE_DEFINED_MARKER('');
#385=COLOUR_RGB('',0.509803950786591,0.509803950786591,0.588235318660736);
#386=PRE_DEFINED_MARKER('');
#387=COLOUR_RGB('',0.509803950786591,0.509803950786591,0.588235318660736);
#388=SURFACE_SIDE_STYLE('',(#533));
#389=EDGE_LOOP('',(#534,#535,#536,#537));
#390=AXIS2_PLACEMENT_3D('',#538,#539,#540);
#391=DRAUGHTING_PRE_DEFINED_CURVE_FONT('continuous');
#392=COLOUR_RGB('',0.509803950786591,0.509803950786591,0.588235318660736);
#393=AXIS2_PLACEMENT_3D('',#541,#542,#543);
#394=DRAUGHTING_PRE_DEFINED_CURVE_FONT('continuous');
#395=COLOUR_RGB('',0.509803950786591,0.509803950786591,0.588235318660736);
#396=AXIS2_PLACEMENT_3D('',#544,#545,#546);
#397=DRAUGHTING_PRE_DEFINED_CURVE_FONT('continuous');
#398=COLOUR_RGB('',0.509803950786591,0.509803950786591,0.588235318660736);
#399=AXIS2_PLACEMENT_3D('',#547,#548,#549);
#400=PRE_DEFINED_MARKER('');
#401=COLOUR_RGB('',0.509803950786591,0.509803950786591,0.588235318660736);
#402=PRE_DEFINED_MARKER('');
#403=COLOUR_RGB('',0.509803950786591,0.509803950786591,0.588235318660736);
#404=DRAUGHTING_PRE_DEFINED_CURVE_FONT('continuous');
#405=COLOUR_RGB('',0.509803950786591,0.509803950786591,0.588235318660736);
#406=CARTESIAN_POINT('',(-4.99572499999994,3.60257472140162E-015,-3.50000000000003));
#407=VECTOR('',#550,1.0);
#408=PRE_DEFINED_MARKER('');
#409=COLOUR_RGB('',0.509803950786591,0.509803950786591,0.588235318660736);
#410=DRAUGHTING_PRE_DEFINED_CURVE_FONT('continuous');
#411=COLOUR_RGB('',0.509803950786591,0.509803950786591,0.588235318660736);
#412=AXIS2_PLACEMENT_3D('',#551,#552,#553);
#413=DRAUGHTING_PRE_DEFINED_CURVE_FONT('continuous');
#414=COLOUR_RGB('',0.509803950786591,0.509803950786591,0.588235318660736);
#415=AXIS2_PLACEMENT_3D('',#554,#555,#556);
#416=DRAUGHTING_PRE_DEFINED_CURVE_FONT('continuous');
#417=COLOUR_RGB('',0.509803950786591,0.509803950786591,0.588235318660736);
#418=AXIS2_PLACEMENT_3D('',#557,#558,#559);
#419=SURFACE_SIDE_STYLE('',(#560));
#420=EDGE_LOOP('',(#561,#562,#563,#564));
#421=AXIS2_PLACEMENT_3D('',#565,#566,#567);
#422=PRE_DEFINED_MARKER('');
#423=COLOUR_RGB('',0.509803950786591,0.509803950786591,0.588235318660736);
#424=DRAUGHTING_PRE_DEFINED_CURVE_FONT('continuous');
#425=COLOUR_RGB('',0.509803950786591,0.509803950786591,0.588235318660736);
#426=CARTESIAN_POINT('',(-11.4999999999999,2.11332653847093E-015,1.24999999999997));
#427=VECTOR('',#568,1.0);
#428=PRE_DEFINED_MARKER('');
#429=COLOUR_RGB('',0.509803950786591,0.509803950786591,0.588235318660736);
#430=DRAUGHTING_PRE_DEFINED_CURVE_FONT('continuous');
#431=COLOUR_RGB('',0.509803950786591,0.509803950786591,0.588235318660736);
#432=CARTESIAN_POINT('',(-11.2499999999999,2.17056766768713E-015,2.74999999999997));
#433=VECTOR('',#569,1.0);
#434=SURFACE_SIDE_STYLE('',(#570));
#435=EDGE_LOOP('',(#571,#572));
#436=EDGE_LOOP('',(#573,#574));
#437=AXIS2_PLACEMENT_3D('',#575,#576,#577);
#439=SURFACE_STYLE_FILL_AREA(#578);
#440=ORIENTED_EDGE('',*,*,#88,.F.);
#441=ORIENTED_EDGE('',*,*,#136,.T.);
#442=ORIENTED_EDGE('',*,*,#160,.F.);
#443=ORIENTED_EDGE('',*,*,#84,.F.);
#444=CARTESIAN_POINT('',(5.6843418860808E-014,4.74641848241594E-015,1.24999999999997));
#445=DIRECTION('',(-0.0,-0.0,1.0));
#446=DIRECTION('',(1.0,1.06503881482546E-016,0.0));
#447=SURFACE_STYLE_FILL_AREA(#579);
#448=ORIENTED_EDGE('',*,*,#120,.F.);
#449=ORIENTED_EDGE('',*,*,#118,.T.);
#450=ORIENTED_EDGE('',*,*,#164,.F.);
#451=ORIENTED_EDGE('',*,*,#136,.F.);
#452=CARTESIAN_POINT('',(5.6843418860808E-014,4.74641848241594E-015,2.74999999999997));
#453=DIRECTION('',(0.0,-0.0,-1.0));
#454=DIRECTION('',(1.0,1.06503881482546E-016,0.0));
#455=CARTESIAN_POINT('',(5.6843418860808E-014,4.74641848241594E-015,-10.0));
#456=DIRECTION('',(0.0,0.0,-1.0));
#457=DIRECTION('',(1.0,1.06503881482546E-016,0.0));
#458=CARTESIAN_POINT('',(5.6843418860808E-014,4.74641848241594E-015,2.49999999999997));
#459=DIRECTION('',(0.0,0.0,-1.0));
#460=DIRECTION('',(1.0,1.06503881482546E-016,0.0));
#461=CARTESIAN_POINT('',(5.6843418860808E-014,4.74641848241594E-015,-2.8421709430404E-014));
#462=DIRECTION('',(0.0,0.0,-1.0));
#463=DIRECTION('',(1.0,1.06503881482546E-016,0.0));
#464=DIRECTION('',(0.0,0.0,-1.0));
#465=DIRECTION('',(-0.130523758186262,-2.98853092324932E-017,-0.991445181817398));
#466=DIRECTION('',(-0.0,-0.0,1.0));
#467=SURFACE_STYLE_FILL_AREA(#580);
#468=ORIENTED_EDGE('',*,*,#90,.F.);
#469=ORIENTED_EDGE('',*,*,#152,.F.);
#470=ORIENTED_EDGE('',*,*,#146,.F.);
#471=ORIENTED_EDGE('',*,*,#138,.T.);
#472=CARTESIAN_POINT('',(5.6843418860808E-014,4.74641848241594E-015,-3.50000000000003));
#473=DIRECTION('',(-0.0,-0.0,1.0));
#474=DIRECTION('',(1.0,1.06503881482546E-016,0.0));
#475=CARTESIAN_POINT('',(5.6843418860808E-014,4.74641848241594E-015,-2.8421709430404E-014));
#476=DIRECTION('',(0.0,0.0,-1.0));
#477=DIRECTION('',(1.0,1.06503881482546E-016,0.0));
#478=SURFACE_STYLE_FILL_AREA(#581);
#479=ORIENTED_EDGE('',*,*,#98,.F.);
#480=ORIENTED_EDGE('',*,*,#124,.F.);
#481=ORIENTED_EDGE('',*,*,#84,.T.);
#482=ORIENTED_EDGE('',*,*,#110,.T.);
#483=CARTESIAN_POINT('',(10.7500000000001,5.87917935970164E-015,-2.8421709430404E-014));
#484=DIRECTION('',(0.0,0.0,-1.0));
#485=DIRECTION('',(1.0,1.22460635382238E-016,0.0));
#486=DIRECTION('',(0.0,0.0,-1.0));
#487=SURFACE_STYLE_FILL_AREA(#582);
#488=ORIENTED_EDGE('',*,*,#90,.T.);
#489=ORIENTED_EDGE('',*,*,#140,.T.);
#490=ORIENTED_EDGE('',*,*,#146,.T.);
#491=ORIENTED_EDGE('',*,*,#150,.F.);
#492=CARTESIAN_POINT('',(5.6843418860808E-014,4.74641848241594E-015,-3.50000000000003));
#493=DIRECTION('',(-0.0,-0.0,1.0));
#494=DIRECTION('',(1.0,1.06503881482546E-016,0.0));
#495=CARTESIAN_POINT('',(5.6843418860808E-014,4.74641848241594E-015,-2.8421709430404E-014));
#496=DIRECTION('',(0.0,0.0,-1.0));
#497=DIRECTION('',(1.0,1.06503881482546E-016,0.0));
#498=SURFACE_STYLE_FILL_AREA(#583);
#499=SURFACE_STYLE_FILL_AREA(#584);
#500=ORIENTED_EDGE('',*,*,#118,.F.);
#501=ORIENTED_EDGE('',*,*,#154,.F.);
#502=ORIENTED_EDGE('',*,*,#150,.T.);
#503=ORIENTED_EDGE('',*,*,#152,.T.);
#504=CARTESIAN_POINT('',(8.42572500000004,5.77823811947194E-015,2.99999999999997));
#505=DIRECTION('',(0.0,0.0,1.0));
#506=DIRECTION('',(-1.0,-1.22460635382238E-016,0.0));
#507=SURFACE_STYLE_FILL_AREA(#585);
#508=ORIENTED_EDGE('',*,*,#88,.T.);
#509=ORIENTED_EDGE('',*,*,#110,.F.);
#510=ORIENTED_EDGE('',*,*,#160,.T.);
#511=ORIENTED_EDGE('',*,*,#82,.T.);
#512=CARTESIAN_POINT('',(5.6843418860808E-014,4.74641848241594E-015,1.24999999999997));
#513=DIRECTION('',(-0.0,-0.0,1.0));
#514=DIRECTION('',(1.0,1.06503881482546E-016,0.0));
#515=CARTESIAN_POINT('',(5.6843418860808E-014,4.74641848241594E-015,2.99999999999997));
#516=DIRECTION('',(0.0,0.0,-1.0));
#517=DIRECTION('',(1.0,1.06503881482546E-016,0.0));
#518=DIRECTION('',(0.707106781186568,1.61902362526195E-016,-0.707106781186527));
#519=CARTESIAN_POINT('',(5.6843418860808E-014,4.74641848241594E-015,-2.8421709430404E-014));
#520=DIRECTION('',(0.0,0.0,-1.0));
#521=DIRECTION('',(1.0,1.06503881482546E-016,0.0));
#522=CARTESIAN_POINT('',(5.6843418860808E-014,4.74641848241594E-015,-10.0));
#523=DIRECTION('',(0.0,0.0,-1.0));
#524=DIRECTION('',(1.0,1.06503881482546E-016,0.0));
#525=SURFACE_STYLE_FILL_AREA(#586);
#526=ORIENTED_EDGE('',*,*,#120,.T.);
#527=ORIENTED_EDGE('',*,*,#82,.F.);
#528=ORIENTED_EDGE('',*,*,#164,.T.);
#529=ORIENTED_EDGE('',*,*,#154,.T.);
#530=CARTESIAN_POINT('',(5.6843418860808E-014,4.74641848241594E-015,2.74999999999997));
#531=DIRECTION('',(0.0,-0.0,-1.0));
#532=DIRECTION('',(1.0,1.06503881482546E-016,0.0));
#533=SURFACE_STYLE_FILL_AREA(#587);
#534=ORIENTED_EDGE('',*,*,#102,.T.);
#535=ORIENTED_EDGE('',*,*,#126,.F.);
#536=ORIENTED_EDGE('',*,*,#94,.T.);
#537=ORIENTED_EDGE('',*,*,#124,.T.);
#538=CARTESIAN_POINT('',(5.6843418860808E-014,4.74641848241594E-015,-5.00000000000003));
#539=DIRECTION('',(-0.0,-0.0,1.0));
#540=DIRECTION('',(1.0,1.06503881482546E-016,0.0));
#541=CARTESIAN_POINT('',(5.6843418860808E-014,4.74641848241594E-015,2.49999999999997));
#542=DIRECTION('',(0.0,0.0,-1.0));
#543=DIRECTION('',(1.0,1.06503881482546E-016,0.0));
#544=CARTESIAN_POINT('',(5.6843418860808E-014,4.74641848241594E-015,-10.0));
#545=DIRECTION('',(0.0,0.0,-1.0));
#546=DIRECTION('',(1.0,1.06503881482546E-016,0.0));
#547=CARTESIAN_POINT('',(5.6843418860808E-014,4.74641848241594E-015,-10.0));
#548=DIRECTION('',(0.0,0.0,-1.0));
#549=DIRECTION('',(1.0,1.06503881482546E-016,0.0));
#550=DIRECTION('',(-0.130523758186262,-2.98853092324932E-017,0.991445181817398));
#551=CARTESIAN_POINT('',(5.6843418860808E-014,4.74641848241594E-015,2.99999999999997));
#552=DIRECTION('',(0.0,0.0,-1.0));
#553=DIRECTION('',(1.0,1.06503881482546E-016,0.0));
#554=CARTESIAN_POINT('',(5.6843418860808E-014,4.74641848241594E-015,2.99999999999997));
#555=DIRECTION('',(0.0,0.0,-1.0));
#556=DIRECTION('',(1.0,1.06503881482546E-016,0.0));
#557=CARTESIAN_POINT('',(5.6843418860808E-014,4.74641848241594E-015,2.99999999999997));
#558=DIRECTION('',(0.0,0.0,-1.0));
#559=DIRECTION('',(1.0,1.06503881482546E-016,0.0));
#560=SURFACE_STYLE_FILL_AREA(#588);
#561=ORIENTED_EDGE('',*,*,#102,.F.);
#562=ORIENTED_EDGE('',*,*,#98,.T.);
#563=ORIENTED_EDGE('',*,*,#94,.F.);
#564=ORIENTED_EDGE('',*,*,#80,.F.);
#565=CARTESIAN_POINT('',(5.6843418860808E-014,4.74641848241594E-015,-5.00000000000003));
#566=DIRECTION('',(-0.0,-0.0,1.0));
#567=DIRECTION('',(1.0,1.06503881482546E-016,0.0));
#568=DIRECTION('',(-0.0,-0.0,1.0));
#569=DIRECTION('',(0.707106781186568,1.61902362526195E-016,0.707106781186527));
#570=SURFACE_STYLE_FILL_AREA(#589);
#571=ORIENTED_EDGE('',*,*,#140,.F.);
#572=ORIENTED_EDGE('',*,*,#138,.F.);
#573=ORIENTED_EDGE('',*,*,#80,.T.);
#574=ORIENTED_EDGE('',*,*,#126,.T.);
#575=CARTESIAN_POINT('',(7.07000000000006,4.81622104458382E-015,-10.0));
#576=DIRECTION('',(0.0,0.0,-1.0));
#577=DIRECTION('',(1.0,1.22460635382238E-016,0.0));
#578=FILL_AREA_STYLE('',(#590));
#579=FILL_AREA_STYLE('',(#591));
#580=FILL_AREA_STYLE('',(#592));
#581=FILL_AREA_STYLE('',(#593));
#582=FILL_AREA_STYLE('',(#594));
#583=FILL_AREA_STYLE('',(#595));
#584=FILL_AREA_STYLE('',(#596));
#585=FILL_AREA_STYLE('',(#597));
#586=FILL_AREA_STYLE('',(#598));
#587=FILL_AREA_STYLE('',(#599));
#588=FILL_AREA_STYLE('',(#600));
#589=FILL_AREA_STYLE('',(#601));
#590=FILL_AREA_STYLE_COLOUR('',#602);
#591=FILL_AREA_STYLE_COLOUR('',#603);
#592=FILL_AREA_STYLE_COLOUR('',#604);
#593=FILL_AREA_STYLE_COLOUR('',#605);
#594=FILL_AREA_STYLE_COLOUR('',#606);
#595=FILL_AREA_STYLE_COLOUR('',#607);
#596=FILL_AREA_STYLE_COLOUR('',#608);
#597=FILL_AREA_STYLE_COLOUR('',#609);
#598=FILL_AREA_STYLE_COLOUR('',#610);
#599=FILL_AREA_STYLE_COLOUR('',#611);
#600=FILL_AREA_STYLE_COLOUR('',#612);
#601=FILL_AREA_STYLE_COLOUR('',#613);
#602=COLOUR_RGB('',0.509803950786591,0.509803950786591,0.588235318660736);
#603=COLOUR_RGB('',0.509803950786591,0.509803950786591,0.588235318660736);
#604=COLOUR_RGB('',0.509803950786591,0.509803950786591,0.588235318660736);
#605=COLOUR_RGB('',0.509803950786591,0.509803950786591,0.588235318660736);
#606=COLOUR_RGB('',0.509803950786591,0.509803950786591,0.588235318660736);
#607=COLOUR_RGB('',0.509803950786591,0.509803950786591,0.588235318660736);
#608=COLOUR_RGB('',0.509803950786591,0.509803950786591,0.588235318660736);
#609=COLOUR_RGB('',0.509803950786591,0.509803950786591,0.588235318660736);
#610=COLOUR_RGB('',0.509803950786591,0.509803950786591,0.588235318660736);
#611=COLOUR_RGB('',0.509803950786591,0.509803950786591,0.588235318660736);
#612=COLOUR_RGB('',0.509803950786591,0.509803950786591,0.588235318660736);
#613=COLOUR_RGB('',0.509803950786591,0.509803950786591,0.588235318660736);
ENDSEC;
END-ISO-10303-21;
