ISO-10303-21;
HEADER;
FILE_DESCRIPTION(('STEP AP214'),'1');
FILE_NAME(' ','  ',('TraceParts'),('TraceParts S.A.'),'XStep 1.0',' ',' ');
FILE_SCHEMA(('automotive_design'));
ENDSEC;
DATA;
#1=MECHANICAL_DESIGN_GEOMETRIC_PRESENTATION_REPRESENTATION(' ',(#10,#11,#12,#13,#14,#15,#16,#17,#18,#19,#20,#21,#22,#23,#24,#25,#26,#27,#28,#29,#30,#31,#32,#33,#34,#35,#36,#37,#38,#39,#40,#41,#42,#43,#44,#45,#46,#47,#48,#49,#50,#51,#52,#53,#54,#55,#56,#57),#6);
#2=PRODUCT_DEFINITION_CONTEXT('',#58,'design');
#3=APPLICATION_PROTOCOL_DEFINITION('INTERNATIONAL STANDARD','automotive_design',1994,#58);
#4=PRODUCT_CATEGORY_RELATIONSHIP('NONE','NONE',#59,#60);
#5=SHAPE_DEFINITION_REPRESENTATION(#61,#62);
#6= (GEOMETRIC_REPRESENTATION_CONTEXT(3)GLOBAL_UNCERTAINTY_ASSIGNED_CONTEXT((#65))GLOBAL_UNIT_ASSIGNED_CONTEXT((#67,#68,#69))REPRESENTATION_CONTEXT('NONE','WORKSPACE'));
#10=STYLED_ITEM('',(#71),#72);
#11=STYLED_ITEM('',(#73),#74);
#12=STYLED_ITEM('',(#75),#76);
#13=STYLED_ITEM('',(#77),#78);
#14=STYLED_ITEM('',(#79),#80);
#15=STYLED_ITEM('',(#81),#82);
#16=STYLED_ITEM('',(#83),#84);
#17=STYLED_ITEM('',(#85),#86);
#18=STYLED_ITEM('',(#87),#88);
#19=STYLED_ITEM('',(#89),#90);
#20=STYLED_ITEM('',(#91),#92);
#21=STYLED_ITEM('',(#93),#94);
#22=STYLED_ITEM('',(#95),#96);
#23=STYLED_ITEM('',(#97),#98);
#24=STYLED_ITEM('',(#99),#100);
#25=STYLED_ITEM('',(#101),#102);
#26=STYLED_ITEM('',(#103),#104);
#27=STYLED_ITEM('',(#105),#106);
#28=STYLED_ITEM('',(#107),#108);
#29=STYLED_ITEM('',(#109),#110);
#30=STYLED_ITEM('',(#111),#112);
#31=STYLED_ITEM('',(#113),#114);
#32=STYLED_ITEM('',(#115),#116);
#33=STYLED_ITEM('',(#117),#118);
#34=STYLED_ITEM('',(#119),#120);
#35=STYLED_ITEM('',(#121),#122);
#36=STYLED_ITEM('',(#123),#124);
#37=STYLED_ITEM('',(#125),#126);
#38=STYLED_ITEM('',(#127),#128);
#39=STYLED_ITEM('',(#129),#130);
#40=STYLED_ITEM('',(#131),#132);
#41=STYLED_ITEM('',(#133),#134);
#42=STYLED_ITEM('',(#135),#136);
#43=STYLED_ITEM('',(#137),#138);
#44=STYLED_ITEM('',(#139),#140);
#45=STYLED_ITEM('',(#141),#142);
#46=STYLED_ITEM('',(#143),#144);
#47=STYLED_ITEM('',(#145),#146);
#48=STYLED_ITEM('',(#147),#148);
#49=STYLED_ITEM('',(#149),#150);
#50=STYLED_ITEM('',(#151),#152);
#51=STYLED_ITEM('',(#153),#154);
#52=STYLED_ITEM('',(#155),#156);
#53=STYLED_ITEM('',(#157),#158);
#54=STYLED_ITEM('',(#159),#160);
#55=STYLED_ITEM('',(#161),#162);
#56=STYLED_ITEM('',(#163),#164);
#57=STYLED_ITEM('',(#165),#166);
#58=APPLICATION_CONTEXT(' ');
#59=PRODUCT_CATEGORY('part','NONE');
#60=PRODUCT_RELATED_PRODUCT_CATEGORY('detail',' ',(#167));
#61=PRODUCT_DEFINITION_SHAPE('NONE','NONE',#168);
#62=ADVANCED_BREP_SHAPE_REPRESENTATION('1',(#92,#169),#6);
#65=UNCERTAINTY_MEASURE_WITH_UNIT(LENGTH_MEASURE(1.0E-006),#67,'','');
#67= (CONVERSION_BASED_UNIT('MILLIMETRE',#172)LENGTH_UNIT()NAMED_UNIT(#175));
#68= (NAMED_UNIT(#177)PLANE_ANGLE_UNIT()SI_UNIT($,.RADIAN.));
#69= (NAMED_UNIT(#177)SOLID_ANGLE_UNIT()SI_UNIT($,.STERADIAN.));
#71=PRESENTATION_STYLE_ASSIGNMENT((#183));
#72=VERTEX_POINT('',#184);
#73=PRESENTATION_STYLE_ASSIGNMENT((#185));
#74=VERTEX_POINT('',#186);
#75=PRESENTATION_STYLE_ASSIGNMENT((#187));
#76=ADVANCED_FACE('',(#188),#189,.T.);
#77=PRESENTATION_STYLE_ASSIGNMENT((#190));
#78=ADVANCED_FACE('',(#191),#192,.T.);
#79=PRESENTATION_STYLE_ASSIGNMENT((#193));
#80=EDGE_CURVE('',#84,#112,#194,.T.);
#81=PRESENTATION_STYLE_ASSIGNMENT((#195));
#82=EDGE_CURVE('',#128,#100,#196,.T.);
#83=PRESENTATION_STYLE_ASSIGNMENT((#197));
#84=VERTEX_POINT('',#198);
#85=PRESENTATION_STYLE_ASSIGNMENT((#199));
#86=EDGE_CURVE('',#72,#96,#200,.T.);
#87=PRESENTATION_STYLE_ASSIGNMENT((#201));
#88=ADVANCED_FACE('',(#202),#203,.T.);
#89=PRESENTATION_STYLE_ASSIGNMENT((#204));
#90=VERTEX_POINT('',#205);
#91=PRESENTATION_STYLE_ASSIGNMENT((#206));
#92=MANIFOLD_SOLID_BREP('1',#207);
#93=PRESENTATION_STYLE_ASSIGNMENT((#208));
#94=EDGE_CURVE('',#74,#138,#209,.T.);
#95=PRESENTATION_STYLE_ASSIGNMENT((#210));
#96=VERTEX_POINT('',#211);
#97=PRESENTATION_STYLE_ASSIGNMENT((#212));
#98=EDGE_CURVE('',#108,#166,#213,.T.);
#99=PRESENTATION_STYLE_ASSIGNMENT((#214));
#100=VERTEX_POINT('',#215);
#101=PRESENTATION_STYLE_ASSIGNMENT((#216));
#102=ADVANCED_FACE('',(#217,#218),#219,.T.);
#103=PRESENTATION_STYLE_ASSIGNMENT((#220));
#104=VERTEX_POINT('',#221);
#105=PRESENTATION_STYLE_ASSIGNMENT((#222));
#106=ADVANCED_FACE('',(#223,#224),#225,.T.);
#107=PRESENTATION_STYLE_ASSIGNMENT((#226));
#108=VERTEX_POINT('',#227);
#109=PRESENTATION_STYLE_ASSIGNMENT((#228));
#110=EDGE_CURVE('',#136,#104,#229,.T.);
#111=PRESENTATION_STYLE_ASSIGNMENT((#230));
#112=VERTEX_POINT('',#231);
#113=PRESENTATION_STYLE_ASSIGNMENT((#232));
#114=ADVANCED_FACE('',(#233),#234,.T.);
#115=PRESENTATION_STYLE_ASSIGNMENT((#235));
#116=EDGE_CURVE('',#90,#132,#236,.T.);
#117=PRESENTATION_STYLE_ASSIGNMENT((#237));
#118=EDGE_CURVE('',#112,#84,#238,.T.);
#119=PRESENTATION_STYLE_ASSIGNMENT((#239));
#120=EDGE_CURVE('',#136,#108,#240,.T.);
#121=PRESENTATION_STYLE_ASSIGNMENT((#241));
#122=ADVANCED_FACE('',(#242),#243,.F.);
#123=PRESENTATION_STYLE_ASSIGNMENT((#244));
#124=EDGE_CURVE('',#96,#72,#245,.T.);
#125=PRESENTATION_STYLE_ASSIGNMENT((#246));
#126=EDGE_CURVE('',#90,#72,#247,.T.);
#127=PRESENTATION_STYLE_ASSIGNMENT((#248));
#128=VERTEX_POINT('',#249);
#129=PRESENTATION_STYLE_ASSIGNMENT((#250));
#130=EDGE_CURVE('',#100,#138,#251,.T.);
#131=PRESENTATION_STYLE_ASSIGNMENT((#252));
#132=VERTEX_POINT('',#253);
#133=PRESENTATION_STYLE_ASSIGNMENT((#254));
#134=ADVANCED_FACE('',(#255,#256),#257,.T.);
#135=PRESENTATION_STYLE_ASSIGNMENT((#258));
#136=VERTEX_POINT('',#259);
#137=PRESENTATION_STYLE_ASSIGNMENT((#260));
#138=VERTEX_POINT('',#261);
#139=PRESENTATION_STYLE_ASSIGNMENT((#262));
#140=EDGE_CURVE('',#138,#74,#263,.T.);
#141=PRESENTATION_STYLE_ASSIGNMENT((#264));
#142=EDGE_CURVE('',#166,#104,#265,.T.);
#143=PRESENTATION_STYLE_ASSIGNMENT((#266));
#144=ADVANCED_FACE('',(#267),#268,.F.);
#145=PRESENTATION_STYLE_ASSIGNMENT((#269));
#146=EDGE_CURVE('',#132,#90,#270,.T.);
#147=PRESENTATION_STYLE_ASSIGNMENT((#271));
#148=ADVANCED_FACE('',(#272),#273,.T.);
#149=PRESENTATION_STYLE_ASSIGNMENT((#274));
#150=EDGE_CURVE('',#74,#128,#275,.T.);
#151=PRESENTATION_STYLE_ASSIGNMENT((#276));
#152=EDGE_CURVE('',#166,#108,#277,.T.);
#153=PRESENTATION_STYLE_ASSIGNMENT((#278));
#154=EDGE_CURVE('',#100,#128,#279,.T.);
#155=PRESENTATION_STYLE_ASSIGNMENT((#280));
#156=EDGE_CURVE('',#104,#112,#281,.T.);
#157=PRESENTATION_STYLE_ASSIGNMENT((#282));
#158=EDGE_CURVE('',#104,#136,#283,.T.);
#159=PRESENTATION_STYLE_ASSIGNMENT((#284));
#160=ADVANCED_FACE('',(#285),#286,.T.);
#161=PRESENTATION_STYLE_ASSIGNMENT((#287));
#162=EDGE_CURVE('',#84,#136,#288,.T.);
#163=PRESENTATION_STYLE_ASSIGNMENT((#289));
#164=EDGE_CURVE('',#96,#132,#290,.T.);
#165=PRESENTATION_STYLE_ASSIGNMENT((#291));
#166=VERTEX_POINT('',#292);
#167=PRODUCT('1','1','PART-1-DESC',(#293));
#168=PRODUCT_DEFINITION('NONE','NONE',#294,#2);
#169=AXIS2_PLACEMENT_3D('',#295,#296,#297);
#172=LENGTH_MEASURE_WITH_UNIT(LENGTH_MEASURE(1.0),#298);
#175=DIMENSIONAL_EXPONENTS(1.0,0.0,0.0,0.0,0.0,0.0,0.0);
#177=DIMENSIONAL_EXPONENTS(0.0,0.0,0.0,0.0,0.0,0.0,0.0);
#183=POINT_STYLE(' ',#299,POSITIVE_LENGTH_MEASURE(1.0E-006),#300);
#184=CARTESIAN_POINT('',(3.55000000000004,4.82479328906057E-015,-8.50000000000003));
#185=POINT_STYLE(' ',#301,POSITIVE_LENGTH_MEASURE(1.0E-006),#302);
#186=CARTESIAN_POINT('',(8.00000000000006,5.89020081688604E-015,-2.8421709430404E-014));
#187=SURFACE_STYLE_USAGE(.BOTH.,#303);
#188=FACE_OUTER_BOUND('',#304,.T.);
#189=CYLINDRICAL_SURFACE('',#305,9.5);
#190=SURFACE_STYLE_USAGE(.BOTH.,#306);
#191=FACE_OUTER_BOUND('',#307,.T.);
#192=CYLINDRICAL_SURFACE('',#308,8.00000000000003);
#193=CURVE_STYLE('',#309,POSITIVE_LENGTH_MEASURE(1.0E-006),#310);
#194=CIRCLE('',#311,9.0);
#195=CURVE_STYLE('',#312,POSITIVE_LENGTH_MEASURE(1.0E-006),#313);
#196=CIRCLE('',#314,8.00000000000003);
#197=POINT_STYLE(' ',#315,POSITIVE_LENGTH_MEASURE(1.0E-006),#316);
#198=CARTESIAN_POINT('',(9.00000000000003,6.16573724649607E-015,2.49999999999997));
#199=CURVE_STYLE('',#317,POSITIVE_LENGTH_MEASURE(1.0E-006),#318);
#200=CIRCLE('',#319,3.55000000000001);
#201=SURFACE_STYLE_USAGE(.BOTH.,#320);
#202=FACE_OUTER_BOUND('',#321,.T.);
#203=CONICAL_SURFACE('',#322,9.25,0.785398163397448);
#204=POINT_STYLE(' ',#323,POSITIVE_LENGTH_MEASURE(1.0E-006),#324);
#205=CARTESIAN_POINT('',(4.99817500000003,5.67567121430755E-015,2.49999999999997));
#206=SURFACE_STYLE_USAGE(.BOTH.,#325);
#207=CLOSED_SHELL('',(#76,#88,#122,#78,#134,#114,#106,#144,#102,#160,#148));
#208=CURVE_STYLE('',#326,POSITIVE_LENGTH_MEASURE(1.0E-006),#327);
#209=CIRCLE('',#328,8.00000000000003);
#210=POINT_STYLE(' ',#329,POSITIVE_LENGTH_MEASURE(1.0E-006),#330);
#211=CARTESIAN_POINT('',(-3.54999999999998,4.25126673738355E-015,-8.50000000000003));
#212=CURVE_STYLE('',#331,POSITIVE_LENGTH_MEASURE(1.0E-006),#332);
#213=CIRCLE('',#333,9.5);
#214=POINT_STYLE(' ',#334,POSITIVE_LENGTH_MEASURE(1.0E-006),#335);
#215=CARTESIAN_POINT('',(-8.0,3.23300045048436E-015,-8.50000000000003));
#216=SURFACE_STYLE_USAGE(.BOTH.,#336);
#217=FACE_OUTER_BOUND('',#337,.T.);
#218=FACE_BOUND('',#338,.T.);
#219=PLANE('',#339);
#220=POINT_STYLE(' ',#340,POSITIVE_LENGTH_MEASURE(1.0E-006),#341);
#221=CARTESIAN_POINT('',(-9.49999999999997,2.88976462343969E-015,1.99999999999997));
#222=SURFACE_STYLE_USAGE(.BOTH.,#342);
#223=FACE_BOUND('',#343,.T.);
#224=FACE_OUTER_BOUND('',#344,.T.);
#225=PLANE('',#345);
#226=POINT_STYLE(' ',#346,POSITIVE_LENGTH_MEASURE(1.0E-006),#347);
#227=CARTESIAN_POINT('',(9.50000000000003,6.0738917699594E-015,-2.8421709430404E-014));
#228=CURVE_STYLE('',#348,POSITIVE_LENGTH_MEASURE(1.0E-006),#349);
#229=CIRCLE('',#350,9.5);
#230=POINT_STYLE(' ',#351,POSITIVE_LENGTH_MEASURE(1.0E-006),#352);
#231=CARTESIAN_POINT('',(-8.99999999999997,3.00417656578792E-015,2.49999999999997));
#232=SURFACE_STYLE_USAGE(.BOTH.,#353);
#233=FACE_OUTER_BOUND('',#354,.T.);
#234=CYLINDRICAL_SURFACE('',#355,8.00000000000003);
#235=CURVE_STYLE('',#356,POSITIVE_LENGTH_MEASURE(1.0E-006),#357);
#236=CIRCLE('',#358,4.998175);
#237=CURVE_STYLE('',#359,POSITIVE_LENGTH_MEASURE(1.0E-006),#360);
#238=CIRCLE('',#361,9.0);
#239=CURVE_STYLE('',#362,POSITIVE_LENGTH_MEASURE(1.0E-006),#363);
#240=LINE('',#364,#365);
#241=SURFACE_STYLE_USAGE(.BOTH.,#366);
#242=FACE_OUTER_BOUND('',#367,.T.);
#243=CONICAL_SURFACE('',#368,4.27408750000001,0.130899472870406);
#244=CURVE_STYLE('',#369,POSITIVE_LENGTH_MEASURE(1.0E-006),#370);
#245=CIRCLE('',#371,3.55000000000001);
#246=CURVE_STYLE('',#372,POSITIVE_LENGTH_MEASURE(1.0E-006),#373);
#247=LINE('',#374,#375);
#248=POINT_STYLE(' ',#376,POSITIVE_LENGTH_MEASURE(1.0E-006),#377);
#249=CARTESIAN_POINT('',(8.00000000000006,5.36974311651153E-015,-8.50000000000003));
#250=CURVE_STYLE('',#378,POSITIVE_LENGTH_MEASURE(1.0E-006),#379);
#251=LINE('',#380,#381);
#252=POINT_STYLE(' ',#382,POSITIVE_LENGTH_MEASURE(1.0E-006),#383);
#253=CARTESIAN_POINT('',(-4.99817499999997,3.91988970816327E-015,2.49999999999997));
#254=SURFACE_STYLE_USAGE(.BOTH.,#384);
#255=FACE_BOUND('',#385,.T.);
#256=FACE_OUTER_BOUND('',#386,.T.);
#257=PLANE('',#387);
#258=POINT_STYLE(' ',#388,POSITIVE_LENGTH_MEASURE(1.0E-006),#389);
#259=CARTESIAN_POINT('',(9.50000000000003,6.19635240534163E-015,1.99999999999997));
#260=POINT_STYLE(' ',#390,POSITIVE_LENGTH_MEASURE(1.0E-006),#391);
#261=CARTESIAN_POINT('',(-8.0,3.23300045048436E-015,-2.8421709430404E-014));
#262=CURVE_STYLE('',#392,POSITIVE_LENGTH_MEASURE(1.0E-006),#393);
#263=CIRCLE('',#394,8.00000000000003);
#264=CURVE_STYLE('',#395,POSITIVE_LENGTH_MEASURE(1.0E-006),#396);
#265=LINE('',#397,#398);
#266=SURFACE_STYLE_USAGE(.BOTH.,#399);
#267=FACE_OUTER_BOUND('',#400,.T.);
#268=CONICAL_SURFACE('',#401,4.27408750000001,0.130899472870406);
#269=CURVE_STYLE('',#402,POSITIVE_LENGTH_MEASURE(1.0E-006),#403);
#270=CIRCLE('',#404,4.998175);
#271=SURFACE_STYLE_USAGE(.BOTH.,#405);
#272=FACE_OUTER_BOUND('',#406,.T.);
#273=CYLINDRICAL_SURFACE('',#407,9.5);
#274=CURVE_STYLE('',#408,POSITIVE_LENGTH_MEASURE(1.0E-006),#409);
#275=LINE('',#410,#411);
#276=CURVE_STYLE('',#412,POSITIVE_LENGTH_MEASURE(1.0E-006),#413);
#277=CIRCLE('',#414,9.5);
#278=CURVE_STYLE('',#415,POSITIVE_LENGTH_MEASURE(1.0E-006),#416);
#279=CIRCLE('',#417,8.00000000000003);
#280=CURVE_STYLE('',#418,POSITIVE_LENGTH_MEASURE(1.0E-006),#419);
#281=LINE('',#420,#421);
#282=CURVE_STYLE('',#422,POSITIVE_LENGTH_MEASURE(1.0E-006),#423);
#283=CIRCLE('',#424,9.5);
#284=SURFACE_STYLE_USAGE(.BOTH.,#425);
#285=FACE_OUTER_BOUND('',#426,.T.);
#286=CONICAL_SURFACE('',#427,9.25,0.785398163397448);
#287=CURVE_STYLE('',#428,POSITIVE_LENGTH_MEASURE(1.0E-006),#429);
#288=LINE('',#430,#431);
#289=CURVE_STYLE('',#432,POSITIVE_LENGTH_MEASURE(1.0E-006),#433);
#290=LINE('',#434,#435);
#291=POINT_STYLE(' ',#436,POSITIVE_LENGTH_MEASURE(1.0E-006),#437);
#292=CARTESIAN_POINT('',(-9.49999999999997,2.88976462343969E-015,-2.8421709430404E-014));
#293=PRODUCT_CONTEXT('',#58,'mechanical');
#294=PRODUCT_DEFINITION_FORMATION_WITH_SPECIFIED_SOURCE(' ','NONE',#167,.NOT_KNOWN.);
#295=CARTESIAN_POINT('',(0.0,0.0,0.0));
#296=DIRECTION('',(0.0,0.0,1.0));
#297=DIRECTION('',(1.0,0.0,0.0));
#298= (NAMED_UNIT(#175)LENGTH_UNIT()SI_UNIT(.MILLI.,.METRE.));
#299=PRE_DEFINED_MARKER('');
#300=COLOUR_RGB('',0.509803950786591,0.509803950786591,0.588235318660736);
#301=PRE_DEFINED_MARKER('');
#302=COLOUR_RGB('',0.509803950786591,0.509803950786591,0.588235318660736);
#303=SURFACE_SIDE_STYLE('',(#439));
#304=EDGE_LOOP('',(#440,#441,#442,#443));
#305=AXIS2_PLACEMENT_3D('',#444,#445,#446);
#306=SURFACE_SIDE_STYLE('',(#447));
#307=EDGE_LOOP('',(#448,#449,#450,#451));
#308=AXIS2_PLACEMENT_3D('',#452,#453,#454);
#309=DRAUGHTING_PRE_DEFINED_CURVE_FONT('continuous');
#310=COLOUR_RGB('',0.509803950786591,0.509803950786591,0.588235318660736);
#311=AXIS2_PLACEMENT_3D('',#455,#456,#457);
#312=DRAUGHTING_PRE_DEFINED_CURVE_FONT('continuous');
#313=COLOUR_RGB('',0.509803950786591,0.509803950786591,0.588235318660736);
#314=AXIS2_PLACEMENT_3D('',#458,#459,#460);
#315=PRE_DEFINED_MARKER('');
#316=COLOUR_RGB('',0.509803950786591,0.509803950786591,0.588235318660736);
#317=DRAUGHTING_PRE_DEFINED_CURVE_FONT('continuous');
#318=COLOUR_RGB('',0.509803950786591,0.509803950786591,0.588235318660736);
#319=AXIS2_PLACEMENT_3D('',#461,#462,#463);
#320=SURFACE_SIDE_STYLE('',(#464));
#321=EDGE_LOOP('',(#465,#466,#467,#468));
#322=AXIS2_PLACEMENT_3D('',#469,#470,#471);
#323=PRE_DEFINED_MARKER('');
#324=COLOUR_RGB('',0.509803950786591,0.509803950786591,0.588235318660736);
#325=SURFACE_SIDE_STYLE('',(#472));
#326=DRAUGHTING_PRE_DEFINED_CURVE_FONT('continuous');
#327=COLOUR_RGB('',0.509803950786591,0.509803950786591,0.588235318660736);
#328=AXIS2_PLACEMENT_3D('',#473,#474,#475);
#329=PRE_DEFINED_MARKER('');
#330=COLOUR_RGB('',0.509803950786591,0.509803950786591,0.588235318660736);
#331=DRAUGHTING_PRE_DEFINED_CURVE_FONT('continuous');
#332=COLOUR_RGB('',0.509803950786591,0.509803950786591,0.588235318660736);
#333=AXIS2_PLACEMENT_3D('',#476,#477,#478);
#334=PRE_DEFINED_MARKER('');
#335=COLOUR_RGB('',0.509803950786591,0.509803950786591,0.588235318660736);
#336=SURFACE_SIDE_STYLE('',(#479));
#337=EDGE_LOOP('',(#480,#481));
#338=EDGE_LOOP('',(#482,#483));
#339=AXIS2_PLACEMENT_3D('',#484,#485,#486);
#340=PRE_DEFINED_MARKER('');
#341=COLOUR_RGB('',0.509803950786591,0.509803950786591,0.588235318660736);
#342=SURFACE_SIDE_STYLE('',(#487));
#343=EDGE_LOOP('',(#488,#489));
#344=EDGE_LOOP('',(#490,#491));
#345=AXIS2_PLACEMENT_3D('',#492,#493,#494);
#346=PRE_DEFINED_MARKER('');
#347=COLOUR_RGB('',0.509803950786591,0.509803950786591,0.588235318660736);
#348=DRAUGHTING_PRE_DEFINED_CURVE_FONT('continuous');
#349=COLOUR_RGB('',0.509803950786591,0.509803950786591,0.588235318660736);
#350=AXIS2_PLACEMENT_3D('',#495,#496,#497);
#351=PRE_DEFINED_MARKER('');
#352=COLOUR_RGB('',0.509803950786591,0.509803950786591,0.588235318660736);
#353=SURFACE_SIDE_STYLE('',(#498));
#354=EDGE_LOOP('',(#499,#500,#501,#502));
#355=AXIS2_PLACEMENT_3D('',#503,#504,#505);
#356=DRAUGHTING_PRE_DEFINED_CURVE_FONT('continuous');
#357=COLOUR_RGB('',0.509803950786591,0.509803950786591,0.588235318660736);
#358=AXIS2_PLACEMENT_3D('',#506,#507,#508);
#359=DRAUGHTING_PRE_DEFINED_CURVE_FONT('continuous');
#360=COLOUR_RGB('',0.509803950786591,0.509803950786591,0.588235318660736);
#361=AXIS2_PLACEMENT_3D('',#509,#510,#511);
#362=DRAUGHTING_PRE_DEFINED_CURVE_FONT('continuous');
#363=COLOUR_RGB('',0.509803950786591,0.509803950786591,0.588235318660736);
#364=CARTESIAN_POINT('',(9.50000000000003,7.23741843267217E-015,0.999999999999972));
#365=VECTOR('',#512,1.0);
#366=SURFACE_SIDE_STYLE('',(#513));
#367=EDGE_LOOP('',(#514,#515,#516,#517));
#368=AXIS2_PLACEMENT_3D('',#518,#519,#520);
#369=DRAUGHTING_PRE_DEFINED_CURVE_FONT('continuous');
#370=COLOUR_RGB('',0.509803950786591,0.509803950786591,0.588235318660736);
#371=AXIS2_PLACEMENT_3D('',#521,#522,#523);
#372=DRAUGHTING_PRE_DEFINED_CURVE_FONT('continuous');
#373=COLOUR_RGB('',0.509803950786591,0.509803950786591,0.588235318660736);
#374=CARTESIAN_POINT('',(4.27408750000004,6.04160483333846E-015,-3.00000000000003));
#375=VECTOR('',#524,1.0);
#376=PRE_DEFINED_MARKER('');
#377=COLOUR_RGB('',0.509803950786591,0.509803950786591,0.588235318660736);
#378=DRAUGHTING_PRE_DEFINED_CURVE_FONT('continuous');
#379=COLOUR_RGB('',0.509803950786591,0.509803950786591,0.588235318660736);
#380=CARTESIAN_POINT('',(-8.0,3.23300045048436E-015,-4.25000000000003));
#381=VECTOR('',#525,1.0);
#382=PRE_DEFINED_MARKER('');
#383=COLOUR_RGB('',0.509803950786591,0.509803950786591,0.588235318660736);
#384=SURFACE_SIDE_STYLE('',(#526));
#385=EDGE_LOOP('',(#527,#528));
#386=EDGE_LOOP('',(#529,#530));
#387=AXIS2_PLACEMENT_3D('',#531,#532,#533);
#388=PRE_DEFINED_MARKER('');
#389=COLOUR_RGB('',0.509803950786591,0.509803950786591,0.588235318660736);
#390=PRE_DEFINED_MARKER('');
#391=COLOUR_RGB('',0.509803950786591,0.509803950786591,0.588235318660736);
#392=DRAUGHTING_PRE_DEFINED_CURVE_FONT('continuous');
#393=COLOUR_RGB('',0.509803950786591,0.509803950786591,0.588235318660736);
#394=AXIS2_PLACEMENT_3D('',#534,#535,#536);
#395=DRAUGHTING_PRE_DEFINED_CURVE_FONT('continuous');
#396=COLOUR_RGB('',0.509803950786591,0.509803950786591,0.588235318660736);
#397=CARTESIAN_POINT('',(-9.49999999999997,2.88976462343969E-015,0.999999999999972));
#398=VECTOR('',#537,1.0);
#399=SURFACE_SIDE_STYLE('',(#538));
#400=EDGE_LOOP('',(#539,#540,#541,#542));
#401=AXIS2_PLACEMENT_3D('',#543,#544,#545);
#402=DRAUGHTING_PRE_DEFINED_CURVE_FONT('continuous');
#403=COLOUR_RGB('',0.509803950786591,0.509803950786591,0.588235318660736);
#404=AXIS2_PLACEMENT_3D('',#546,#547,#548);
#405=SURFACE_SIDE_STYLE('',(#549));
#406=EDGE_LOOP('',(#550,#551,#552,#553));
#407=AXIS2_PLACEMENT_3D('',#554,#555,#556);
#408=DRAUGHTING_PRE_DEFINED_CURVE_FONT('continuous');
#409=COLOUR_RGB('',0.509803950786591,0.509803950786591,0.588235318660736);
#410=CARTESIAN_POINT('',(8.00000000000006,6.89418260562751E-015,-4.25000000000003));
#411=VECTOR('',#557,1.0);
#412=DRAUGHTING_PRE_DEFINED_CURVE_FONT('continuous');
#413=COLOUR_RGB('',0.509803950786591,0.509803950786591,0.588235318660736);
#414=AXIS2_PLACEMENT_3D('',#558,#559,#560);
#415=DRAUGHTING_PRE_DEFINED_CURVE_FONT('continuous');
#416=COLOUR_RGB('',0.509803950786591,0.509803950786591,0.588235318660736);
#417=AXIS2_PLACEMENT_3D('',#561,#562,#563);
#418=DRAUGHTING_PRE_DEFINED_CURVE_FONT('continuous');
#419=COLOUR_RGB('',0.509803950786591,0.509803950786591,0.588235318660736);
#420=CARTESIAN_POINT('',(-9.24999999999997,2.94697059461381E-015,2.24999999999997));
#421=VECTOR('',#564,1.0);
#422=DRAUGHTING_PRE_DEFINED_CURVE_FONT('continuous');
#423=COLOUR_RGB('',0.509803950786591,0.509803950786591,0.588235318660736);
#424=AXIS2_PLACEMENT_3D('',#565,#566,#567);
#425=SURFACE_SIDE_STYLE('',(#568));
#426=EDGE_LOOP('',(#569,#570,#571,#572));
#427=AXIS2_PLACEMENT_3D('',#573,#574,#575);
#428=DRAUGHTING_PRE_DEFINED_CURVE_FONT('continuous');
#429=COLOUR_RGB('',0.509803950786591,0.509803950786591,0.588235318660736);
#430=CARTESIAN_POINT('',(9.25000000000003,7.18021246149806E-015,2.24999999999997));
#431=VECTOR('',#576,1.0);
#432=DRAUGHTING_PRE_DEFINED_CURVE_FONT('continuous');
#433=COLOUR_RGB('',0.509803950786591,0.509803950786591,0.588235318660736);
#434=CARTESIAN_POINT('',(-4.27408749999998,4.08557822277341E-015,-3.00000000000003));
#435=VECTOR('',#577,1.0);
#436=PRE_DEFINED_MARKER('');
#437=COLOUR_RGB('',0.509803950786591,0.509803950786591,0.588235318660736);
#439=SURFACE_STYLE_FILL_AREA(#578);
#440=ORIENTED_EDGE('',*,*,#120,.F.);
#441=ORIENTED_EDGE('',*,*,#110,.T.);
#442=ORIENTED_EDGE('',*,*,#142,.F.);
#443=ORIENTED_EDGE('',*,*,#98,.F.);
#444=CARTESIAN_POINT('',(2.8421709430404E-014,5.06359152805593E-015,0.999999999999972));
#445=DIRECTION('',(-0.0,-0.0,1.0));
#446=DIRECTION('',(1.0,1.06363249314209E-016,0.0));
#447=SURFACE_STYLE_FILL_AREA(#579);
#448=ORIENTED_EDGE('',*,*,#150,.F.);
#449=ORIENTED_EDGE('',*,*,#94,.T.);
#450=ORIENTED_EDGE('',*,*,#130,.F.);
#451=ORIENTED_EDGE('',*,*,#82,.F.);
#452=CARTESIAN_POINT('',(2.8421709430404E-014,5.06359152805593E-015,-4.25000000000003));
#453=DIRECTION('',(-0.0,-0.0,1.0));
#454=DIRECTION('',(1.0,1.06363249314209E-016,0.0));
#455=CARTESIAN_POINT('',(2.8421709430404E-014,5.06359152805593E-015,2.49999999999997));
#456=DIRECTION('',(0.0,0.0,-1.0));
#457=DIRECTION('',(1.0,1.06363249314209E-016,0.0));
#458=CARTESIAN_POINT('',(2.8421709430404E-014,5.06359152805593E-015,-8.50000000000003));
#459=DIRECTION('',(0.0,0.0,-1.0));
#460=DIRECTION('',(1.0,1.06363249314209E-016,0.0));
#461=CARTESIAN_POINT('',(2.8421709430404E-014,5.06359152805593E-015,-8.50000000000003));
#462=DIRECTION('',(0.0,0.0,-1.0));
#463=DIRECTION('',(1.0,1.06363249314209E-016,0.0));
#464=SURFACE_STYLE_FILL_AREA(#580);
#465=ORIENTED_EDGE('',*,*,#162,.F.);
#466=ORIENTED_EDGE('',*,*,#80,.T.);
#467=ORIENTED_EDGE('',*,*,#156,.F.);
#468=ORIENTED_EDGE('',*,*,#110,.F.);
#469=CARTESIAN_POINT('',(2.8421709430404E-014,5.06359152805593E-015,2.24999999999997));
#470=DIRECTION('',(0.0,-0.0,-1.0));
#471=DIRECTION('',(1.0,1.06363249314209E-016,0.0));
#472=SURFACE_STYLE_FILL_AREA(#581);
#473=CARTESIAN_POINT('',(2.8421709430404E-014,5.06359152805593E-015,-2.8421709430404E-014));
#474=DIRECTION('',(0.0,0.0,-1.0));
#475=DIRECTION('',(1.0,1.06363249314209E-016,0.0));
#476=CARTESIAN_POINT('',(2.8421709430404E-014,5.06359152805593E-015,-2.8421709430404E-014));
#477=DIRECTION('',(0.0,0.0,-1.0));
#478=DIRECTION('',(1.0,1.06363249314209E-016,0.0));
#479=SURFACE_STYLE_FILL_AREA(#582);
#480=ORIENTED_EDGE('',*,*,#80,.F.);
#481=ORIENTED_EDGE('',*,*,#118,.F.);
#482=ORIENTED_EDGE('',*,*,#116,.T.);
#483=ORIENTED_EDGE('',*,*,#146,.T.);
#484=CARTESIAN_POINT('',(6.99908750000003,5.92070423040181E-015,2.49999999999997));
#485=DIRECTION('',(0.0,0.0,1.0));
#486=DIRECTION('',(-1.0,-1.22460635382238E-016,0.0));
#487=SURFACE_STYLE_FILL_AREA(#583);
#488=ORIENTED_EDGE('',*,*,#86,.F.);
#489=ORIENTED_EDGE('',*,*,#124,.F.);
#490=ORIENTED_EDGE('',*,*,#82,.T.);
#491=ORIENTED_EDGE('',*,*,#154,.T.);
#492=CARTESIAN_POINT('',(5.77500000000005,5.09726820278605E-015,-8.50000000000003));
#493=DIRECTION('',(0.0,0.0,-1.0));
#494=DIRECTION('',(1.0,1.22460635382238E-016,0.0));
#495=CARTESIAN_POINT('',(2.8421709430404E-014,5.06359152805593E-015,1.99999999999997));
#496=DIRECTION('',(0.0,0.0,-1.0));
#497=DIRECTION('',(1.0,1.06363249314209E-016,0.0));
#498=SURFACE_STYLE_FILL_AREA(#584);
#499=ORIENTED_EDGE('',*,*,#150,.T.);
#500=ORIENTED_EDGE('',*,*,#154,.F.);
#501=ORIENTED_EDGE('',*,*,#130,.T.);
#502=ORIENTED_EDGE('',*,*,#140,.T.);
#503=CARTESIAN_POINT('',(2.8421709430404E-014,5.06359152805593E-015,-4.25000000000003));
#504=DIRECTION('',(-0.0,-0.0,1.0));
#505=DIRECTION('',(1.0,1.06363249314209E-016,0.0));
#506=CARTESIAN_POINT('',(2.8421709430404E-014,5.06359152805593E-015,2.49999999999997));
#507=DIRECTION('',(0.0,0.0,-1.0));
#508=DIRECTION('',(1.0,1.06363249314209E-016,0.0));
#509=CARTESIAN_POINT('',(2.8421709430404E-014,5.06359152805593E-015,2.49999999999997));
#510=DIRECTION('',(0.0,0.0,-1.0));
#511=DIRECTION('',(1.0,1.06363249314209E-016,0.0));
#512=DIRECTION('',(0.0,0.0,-1.0));
#513=SURFACE_STYLE_FILL_AREA(#585);
#514=ORIENTED_EDGE('',*,*,#126,.F.);
#515=ORIENTED_EDGE('',*,*,#146,.F.);
#516=ORIENTED_EDGE('',*,*,#164,.F.);
#517=ORIENTED_EDGE('',*,*,#124,.T.);
#518=CARTESIAN_POINT('',(2.8421709430404E-014,5.06359152805593E-015,-3.00000000000003));
#519=DIRECTION('',(-0.0,-0.0,1.0));
#520=DIRECTION('',(1.0,1.06363249314209E-016,0.0));
#521=CARTESIAN_POINT('',(2.8421709430404E-014,5.06359152805593E-015,-8.50000000000003));
#522=DIRECTION('',(0.0,0.0,-1.0));
#523=DIRECTION('',(1.0,1.06363249314209E-016,0.0));
#524=DIRECTION('',(-0.130525973081815,-2.98674602143646E-017,-0.991444890223882));
#525=DIRECTION('',(-0.0,-0.0,1.0));
#526=SURFACE_STYLE_FILL_AREA(#586);
#527=ORIENTED_EDGE('',*,*,#94,.F.);
#528=ORIENTED_EDGE('',*,*,#140,.F.);
#529=ORIENTED_EDGE('',*,*,#98,.T.);
#530=ORIENTED_EDGE('',*,*,#152,.T.);
#531=CARTESIAN_POINT('',(8.75000000000004,5.98204629342272E-015,-2.8421709430404E-014));
#532=DIRECTION('',(0.0,0.0,-1.0));
#533=DIRECTION('',(1.0,1.22460635382238E-016,0.0));
#534=CARTESIAN_POINT('',(2.8421709430404E-014,5.06359152805593E-015,-2.8421709430404E-014));
#535=DIRECTION('',(0.0,0.0,-1.0));
#536=DIRECTION('',(1.0,1.06363249314209E-016,0.0));
#537=DIRECTION('',(-0.0,-0.0,1.0));
#538=SURFACE_STYLE_FILL_AREA(#587);
#539=ORIENTED_EDGE('',*,*,#126,.T.);
#540=ORIENTED_EDGE('',*,*,#86,.T.);
#541=ORIENTED_EDGE('',*,*,#164,.T.);
#542=ORIENTED_EDGE('',*,*,#116,.F.);
#543=CARTESIAN_POINT('',(2.8421709430404E-014,5.06359152805593E-015,-3.00000000000003));
#544=DIRECTION('',(-0.0,-0.0,1.0));
#545=DIRECTION('',(1.0,1.06363249314209E-016,0.0));
#546=CARTESIAN_POINT('',(2.8421709430404E-014,5.06359152805593E-015,2.49999999999997));
#547=DIRECTION('',(0.0,0.0,-1.0));
#548=DIRECTION('',(1.0,1.06363249314209E-016,0.0));
#549=SURFACE_STYLE_FILL_AREA(#588);
#550=ORIENTED_EDGE('',*,*,#120,.T.);
#551=ORIENTED_EDGE('',*,*,#152,.F.);
#552=ORIENTED_EDGE('',*,*,#142,.T.);
#553=ORIENTED_EDGE('',*,*,#158,.T.);
#554=CARTESIAN_POINT('',(2.8421709430404E-014,5.06359152805593E-015,0.999999999999972));
#555=DIRECTION('',(-0.0,-0.0,1.0));
#556=DIRECTION('',(1.0,1.06363249314209E-016,0.0));
#557=DIRECTION('',(0.0,0.0,-1.0));
#558=CARTESIAN_POINT('',(2.8421709430404E-014,5.06359152805593E-015,-2.8421709430404E-014));
#559=DIRECTION('',(0.0,0.0,-1.0));
#560=DIRECTION('',(1.0,1.06363249314209E-016,0.0));
#561=CARTESIAN_POINT('',(2.8421709430404E-014,5.06359152805593E-015,-8.50000000000003));
#562=DIRECTION('',(0.0,0.0,-1.0));
#563=DIRECTION('',(1.0,1.06363249314209E-016,0.0));
#564=DIRECTION('',(0.707106781186548,1.61802920566306E-016,0.707106781186547));
#565=CARTESIAN_POINT('',(2.8421709430404E-014,5.06359152805593E-015,1.99999999999997));
#566=DIRECTION('',(0.0,0.0,-1.0));
#567=DIRECTION('',(1.0,1.06363249314209E-016,0.0));
#568=SURFACE_STYLE_FILL_AREA(#589);
#569=ORIENTED_EDGE('',*,*,#162,.T.);
#570=ORIENTED_EDGE('',*,*,#158,.F.);
#571=ORIENTED_EDGE('',*,*,#156,.T.);
#572=ORIENTED_EDGE('',*,*,#118,.T.);
#573=CARTESIAN_POINT('',(2.8421709430404E-014,5.06359152805593E-015,2.24999999999997));
#574=DIRECTION('',(0.0,-0.0,-1.0));
#575=DIRECTION('',(1.0,1.06363249314209E-016,0.0));
#576=DIRECTION('',(0.707106781186548,1.61802920566306E-016,-0.707106781186547));
#577=DIRECTION('',(-0.130525973081815,-2.98674602143646E-017,0.991444890223882));
#578=FILL_AREA_STYLE('',(#590));
#579=FILL_AREA_STYLE('',(#591));
#580=FILL_AREA_STYLE('',(#592));
#581=FILL_AREA_STYLE('',(#593));
#582=FILL_AREA_STYLE('',(#594));
#583=FILL_AREA_STYLE('',(#595));
#584=FILL_AREA_STYLE('',(#596));
#585=FILL_AREA_STYLE('',(#597));
#586=FILL_AREA_STYLE('',(#598));
#587=FILL_AREA_STYLE('',(#599));
#588=FILL_AREA_STYLE('',(#600));
#589=FILL_AREA_STYLE('',(#601));
#590=FILL_AREA_STYLE_COLOUR('',#602);
#591=FILL_AREA_STYLE_COLOUR('',#603);
#592=FILL_AREA_STYLE_COLOUR('',#604);
#593=FILL_AREA_STYLE_COLOUR('',#605);
#594=FILL_AREA_STYLE_COLOUR('',#606);
#595=FILL_AREA_STYLE_COLOUR('',#607);
#596=FILL_AREA_STYLE_COLOUR('',#608);
#597=FILL_AREA_STYLE_COLOUR('',#609);
#598=FILL_AREA_STYLE_COLOUR('',#610);
#599=FILL_AREA_STYLE_COLOUR('',#611);
#600=FILL_AREA_STYLE_COLOUR('',#612);
#601=FILL_AREA_STYLE_COLOUR('',#613);
#602=COLOUR_RGB('',0.509803950786591,0.509803950786591,0.588235318660736);
#603=COLOUR_RGB('',0.509803950786591,0.509803950786591,0.588235318660736);
#604=COLOUR_RGB('',0.509803950786591,0.509803950786591,0.588235318660736);
#605=COLOUR_RGB('',0.509803950786591,0.509803950786591,0.588235318660736);
#606=COLOUR_RGB('',0.509803950786591,0.509803950786591,0.588235318660736);
#607=COLOUR_RGB('',0.509803950786591,0.509803950786591,0.588235318660736);
#608=COLOUR_RGB('',0.509803950786591,0.509803950786591,0.588235318660736);
#609=COLOUR_RGB('',0.509803950786591,0.509803950786591,0.588235318660736);
#610=COLOUR_RGB('',0.509803950786591,0.509803950786591,0.588235318660736);
#611=COLOUR_RGB('',0.509803950786591,0.509803950786591,0.588235318660736);
#612=COLOUR_RGB('',0.509803950786591,0.509803950786591,0.588235318660736);
#613=COLOUR_RGB('',0.509803950786591,0.509803950786591,0.588235318660736);
ENDSEC;
END-ISO-10303-21;
