ISO-10303-21;
HEADER;
FILE_DESCRIPTION(('STEP AP214'),'1');
FILE_NAME(' ','  ',('TraceParts'),('TraceParts S.A.'),'XStep 1.0',' ',' ');
FILE_SCHEMA(('automotive_design'));
ENDSEC;
DATA;
#1=MECHANICAL_DESIGN_GEOMETRIC_PRESENTATION_REPRESENTATION(' ',(#10,#11,#12,#13,#14,#15,#16,#17,#18,#19,#20,#21,#22,#23,#24,#25,#26,#27,#28,#29,#30,#31,#32,#33,#34,#35,#36,#37,#38,#39,#40,#41,#42,#43,#44,#45,#46,#47,#48,#49,#50,#51,#52,#53,#54,#55,#56,#57),#6);
#2=PRODUCT_DEFINITION_CONTEXT('',#58,'design');
#3=APPLICATION_PROTOCOL_DEFINITION('INTERNATIONAL STANDARD','automotive_design',1994,#58);
#4=PRODUCT_CATEGORY_RELATIONSHIP('NONE','NONE',#59,#60);
#5=SHAPE_DEFINITION_REPRESENTATION(#61,#62);
#6= (GEOMETRIC_REPRESENTATION_CONTEXT(3)GLOBAL_UNCERTAINTY_ASSIGNED_CONTEXT((#65))GLOBAL_UNIT_ASSIGNED_CONTEXT((#67,#68,#69))REPRESENTATION_CONTEXT('NONE','WORKSPACE'));
#10=STYLED_ITEM('',(#71),#72);
#11=STYLED_ITEM('',(#73),#74);
#12=STYLED_ITEM('',(#75),#76);
#13=STYLED_ITEM('',(#77),#78);
#14=STYLED_ITEM('',(#79),#80);
#15=STYLED_ITEM('',(#81),#82);
#16=STYLED_ITEM('',(#83),#84);
#17=STYLED_ITEM('',(#85),#86);
#18=STYLED_ITEM('',(#87),#88);
#19=STYLED_ITEM('',(#89),#90);
#20=STYLED_ITEM('',(#91),#92);
#21=STYLED_ITEM('',(#93),#94);
#22=STYLED_ITEM('',(#95),#96);
#23=STYLED_ITEM('',(#97),#98);
#24=STYLED_ITEM('',(#99),#100);
#25=STYLED_ITEM('',(#101),#102);
#26=STYLED_ITEM('',(#103),#104);
#27=STYLED_ITEM('',(#105),#106);
#28=STYLED_ITEM('',(#107),#108);
#29=STYLED_ITEM('',(#109),#110);
#30=STYLED_ITEM('',(#111),#112);
#31=STYLED_ITEM('',(#113),#114);
#32=STYLED_ITEM('',(#115),#116);
#33=STYLED_ITEM('',(#117),#118);
#34=STYLED_ITEM('',(#119),#120);
#35=STYLED_ITEM('',(#121),#122);
#36=STYLED_ITEM('',(#123),#124);
#37=STYLED_ITEM('',(#125),#126);
#38=STYLED_ITEM('',(#127),#128);
#39=STYLED_ITEM('',(#129),#130);
#40=STYLED_ITEM('',(#131),#132);
#41=STYLED_ITEM('',(#133),#134);
#42=STYLED_ITEM('',(#135),#136);
#43=STYLED_ITEM('',(#137),#138);
#44=STYLED_ITEM('',(#139),#140);
#45=STYLED_ITEM('',(#141),#142);
#46=STYLED_ITEM('',(#143),#144);
#47=STYLED_ITEM('',(#145),#146);
#48=STYLED_ITEM('',(#147),#148);
#49=STYLED_ITEM('',(#149),#150);
#50=STYLED_ITEM('',(#151),#152);
#51=STYLED_ITEM('',(#153),#154);
#52=STYLED_ITEM('',(#155),#156);
#53=STYLED_ITEM('',(#157),#158);
#54=STYLED_ITEM('',(#159),#160);
#55=STYLED_ITEM('',(#161),#162);
#56=STYLED_ITEM('',(#163),#164);
#57=STYLED_ITEM('',(#165),#166);
#58=APPLICATION_CONTEXT(' ');
#59=PRODUCT_CATEGORY('part','NONE');
#60=PRODUCT_RELATED_PRODUCT_CATEGORY('detail',' ',(#167));
#61=PRODUCT_DEFINITION_SHAPE('NONE','NONE',#168);
#62=ADVANCED_BREP_SHAPE_REPRESENTATION('1',(#72,#169),#6);
#65=UNCERTAINTY_MEASURE_WITH_UNIT(LENGTH_MEASURE(1.0E-006),#67,'','');
#67= (CONVERSION_BASED_UNIT('MILLIMETRE',#172)LENGTH_UNIT()NAMED_UNIT(#175));
#68= (NAMED_UNIT(#177)PLANE_ANGLE_UNIT()SI_UNIT($,.RADIAN.));
#69= (NAMED_UNIT(#177)SOLID_ANGLE_UNIT()SI_UNIT($,.STERADIAN.));
#71=PRESENTATION_STYLE_ASSIGNMENT((#183));
#72=MANIFOLD_SOLID_BREP('1',#184);
#73=PRESENTATION_STYLE_ASSIGNMENT((#185));
#74=EDGE_CURVE('',#96,#126,#186,.T.);
#75=PRESENTATION_STYLE_ASSIGNMENT((#187));
#76=EDGE_CURVE('',#152,#144,#188,.T.);
#77=PRESENTATION_STYLE_ASSIGNMENT((#189));
#78=EDGE_CURVE('',#126,#96,#190,.T.);
#79=PRESENTATION_STYLE_ASSIGNMENT((#191));
#80=EDGE_CURVE('',#132,#100,#192,.T.);
#81=PRESENTATION_STYLE_ASSIGNMENT((#193));
#82=EDGE_CURVE('',#86,#150,#194,.T.);
#83=PRESENTATION_STYLE_ASSIGNMENT((#195));
#84=EDGE_CURVE('',#100,#132,#196,.T.);
#85=PRESENTATION_STYLE_ASSIGNMENT((#197));
#86=VERTEX_POINT('',#198);
#87=PRESENTATION_STYLE_ASSIGNMENT((#199));
#88=ADVANCED_FACE('',(#200),#201,.T.);
#89=PRESENTATION_STYLE_ASSIGNMENT((#202));
#90=ADVANCED_FACE('',(#203,#204),#205,.T.);
#91=PRESENTATION_STYLE_ASSIGNMENT((#206));
#92=EDGE_CURVE('',#144,#152,#207,.T.);
#93=PRESENTATION_STYLE_ASSIGNMENT((#208));
#94=EDGE_CURVE('',#100,#126,#209,.T.);
#95=PRESENTATION_STYLE_ASSIGNMENT((#210));
#96=VERTEX_POINT('',#211);
#97=PRESENTATION_STYLE_ASSIGNMENT((#212));
#98=EDGE_CURVE('',#152,#150,#213,.T.);
#99=PRESENTATION_STYLE_ASSIGNMENT((#214));
#100=VERTEX_POINT('',#215);
#101=PRESENTATION_STYLE_ASSIGNMENT((#216));
#102=ADVANCED_FACE('',(#217),#218,.F.);
#103=PRESENTATION_STYLE_ASSIGNMENT((#219));
#104=ADVANCED_FACE('',(#220),#221,.F.);
#105=PRESENTATION_STYLE_ASSIGNMENT((#222));
#106=VERTEX_POINT('',#223);
#107=PRESENTATION_STYLE_ASSIGNMENT((#224));
#108=EDGE_CURVE('',#138,#162,#225,.T.);
#109=PRESENTATION_STYLE_ASSIGNMENT((#226));
#110=ADVANCED_FACE('',(#227),#228,.T.);
#111=PRESENTATION_STYLE_ASSIGNMENT((#229));
#112=ADVANCED_FACE('',(#230,#231),#232,.T.);
#113=PRESENTATION_STYLE_ASSIGNMENT((#233));
#114=EDGE_CURVE('',#146,#120,#234,.T.);
#115=PRESENTATION_STYLE_ASSIGNMENT((#235));
#116=ADVANCED_FACE('',(#236),#237,.T.);
#117=PRESENTATION_STYLE_ASSIGNMENT((#238));
#118=EDGE_CURVE('',#140,#106,#239,.T.);
#119=PRESENTATION_STYLE_ASSIGNMENT((#240));
#120=VERTEX_POINT('',#241);
#121=PRESENTATION_STYLE_ASSIGNMENT((#242));
#122=EDGE_CURVE('',#96,#132,#243,.T.);
#123=PRESENTATION_STYLE_ASSIGNMENT((#244));
#124=ADVANCED_FACE('',(#245,#246),#247,.T.);
#125=PRESENTATION_STYLE_ASSIGNMENT((#248));
#126=VERTEX_POINT('',#249);
#127=PRESENTATION_STYLE_ASSIGNMENT((#250));
#128=ADVANCED_FACE('',(#251),#252,.T.);
#129=PRESENTATION_STYLE_ASSIGNMENT((#253));
#130=EDGE_CURVE('',#162,#138,#254,.T.);
#131=PRESENTATION_STYLE_ASSIGNMENT((#255));
#132=VERTEX_POINT('',#256);
#133=PRESENTATION_STYLE_ASSIGNMENT((#257));
#134=EDGE_CURVE('',#138,#140,#258,.T.);
#135=PRESENTATION_STYLE_ASSIGNMENT((#259));
#136=EDGE_CURVE('',#120,#146,#260,.T.);
#137=PRESENTATION_STYLE_ASSIGNMENT((#261));
#138=VERTEX_POINT('',#262);
#139=PRESENTATION_STYLE_ASSIGNMENT((#263));
#140=VERTEX_POINT('',#264);
#141=PRESENTATION_STYLE_ASSIGNMENT((#265));
#142=EDGE_CURVE('',#150,#86,#266,.T.);
#143=PRESENTATION_STYLE_ASSIGNMENT((#267));
#144=VERTEX_POINT('',#268);
#145=PRESENTATION_STYLE_ASSIGNMENT((#269));
#146=VERTEX_POINT('',#270);
#147=PRESENTATION_STYLE_ASSIGNMENT((#271));
#148=ADVANCED_FACE('',(#272),#273,.T.);
#149=PRESENTATION_STYLE_ASSIGNMENT((#274));
#150=VERTEX_POINT('',#275);
#151=PRESENTATION_STYLE_ASSIGNMENT((#276));
#152=VERTEX_POINT('',#277);
#153=PRESENTATION_STYLE_ASSIGNMENT((#278));
#154=EDGE_CURVE('',#106,#140,#279,.T.);
#155=PRESENTATION_STYLE_ASSIGNMENT((#280));
#156=EDGE_CURVE('',#126,#120,#281,.T.);
#157=PRESENTATION_STYLE_ASSIGNMENT((#282));
#158=ADVANCED_FACE('',(#283),#284,.T.);
#159=PRESENTATION_STYLE_ASSIGNMENT((#285));
#160=EDGE_CURVE('',#146,#96,#286,.T.);
#161=PRESENTATION_STYLE_ASSIGNMENT((#287));
#162=VERTEX_POINT('',#288);
#163=PRESENTATION_STYLE_ASSIGNMENT((#289));
#164=EDGE_CURVE('',#86,#144,#290,.T.);
#165=PRESENTATION_STYLE_ASSIGNMENT((#291));
#166=EDGE_CURVE('',#106,#162,#292,.T.);
#167=PRODUCT('1','1','PART-1-DESC',(#293));
#168=PRODUCT_DEFINITION('NONE','NONE',#294,#2);
#169=AXIS2_PLACEMENT_3D('',#295,#296,#297);
#172=LENGTH_MEASURE_WITH_UNIT(LENGTH_MEASURE(1.0),#298);
#175=DIMENSIONAL_EXPONENTS(1.0,0.0,0.0,0.0,0.0,0.0,0.0);
#177=DIMENSIONAL_EXPONENTS(0.0,0.0,0.0,0.0,0.0,0.0,0.0);
#183=SURFACE_STYLE_USAGE(.BOTH.,#299);
#184=CLOSED_SHELL('',(#88,#158,#104,#128,#124,#110,#90,#102,#112,#148,#116));
#185=CURVE_STYLE('',#300,POSITIVE_LENGTH_MEASURE(1.0E-006),#301);
#186=CIRCLE('',#302,16.5);
#187=CURVE_STYLE('',#303,POSITIVE_LENGTH_MEASURE(1.0E-006),#304);
#188=CIRCLE('',#305,10.0);
#189=CURVE_STYLE('',#306,POSITIVE_LENGTH_MEASURE(1.0E-006),#307);
#190=CIRCLE('',#308,16.5);
#191=CURVE_STYLE('',#309,POSITIVE_LENGTH_MEASURE(1.0E-006),#310);
#192=CIRCLE('',#311,15.5);
#193=CURVE_STYLE('',#312,POSITIVE_LENGTH_MEASURE(1.0E-006),#313);
#194=CIRCLE('',#314,10.0);
#195=CURVE_STYLE('',#315,POSITIVE_LENGTH_MEASURE(1.0E-006),#316);
#196=CIRCLE('',#317,15.5);
#197=POINT_STYLE(' ',#318,POSITIVE_LENGTH_MEASURE(1.0E-006),#319);
#198=CARTESIAN_POINT('',(10.0,4.88602360675169E-015,2.99999999999994));
#199=SURFACE_STYLE_USAGE(.BOTH.,#320);
#200=FACE_OUTER_BOUND('',#321,.T.);
#201=CYLINDRICAL_SURFACE('',#322,16.5);
#202=SURFACE_STYLE_USAGE(.BOTH.,#323);
#203=FACE_BOUND('',#324,.T.);
#204=FACE_OUTER_BOUND('',#325,.T.);
#205=PLANE('',#326);
#206=CURVE_STYLE('',#327,POSITIVE_LENGTH_MEASURE(1.0E-006),#328);
#207=CIRCLE('',#329,10.0);
#208=CURVE_STYLE('',#330,POSITIVE_LENGTH_MEASURE(1.0E-006),#331);
#209=LINE('',#332,#333);
#210=POINT_STYLE(' ',#334,POSITIVE_LENGTH_MEASURE(1.0E-006),#335);
#211=CARTESIAN_POINT('',(-16.5,-1.96243388192696E-016,1.99999999999994));
#212=CURVE_STYLE('',#336,POSITIVE_LENGTH_MEASURE(1.0E-006),#337);
#213=LINE('',#338,#339);
#214=POINT_STYLE(' ',#340,POSITIVE_LENGTH_MEASURE(1.0E-006),#341);
#215=CARTESIAN_POINT('',(15.5,5.559557101354E-015,2.99999999999994));
#216=SURFACE_STYLE_USAGE(.BOTH.,#342);
#217=FACE_OUTER_BOUND('',#343,.T.);
#218=CYLINDRICAL_SURFACE('',#344,10.0);
#219=SURFACE_STYLE_USAGE(.BOTH.,#345);
#220=FACE_OUTER_BOUND('',#346,.T.);
#221=CYLINDRICAL_SURFACE('',#347,10.0);
#222=POINT_STYLE(' ',#348,POSITIVE_LENGTH_MEASURE(1.0E-006),#349);
#223=CARTESIAN_POINT('',(15.0,5.31463583058953E-015,-5.6843418860808E-014));
#224=CURVE_STYLE('',#350,POSITIVE_LENGTH_MEASURE(1.0E-006),#351);
#225=CIRCLE('',#352,15.0);
#226=SURFACE_STYLE_USAGE(.BOTH.,#353);
#227=FACE_OUTER_BOUND('',#354,.T.);
#228=CYLINDRICAL_SURFACE('',#355,15.0);
#229=SURFACE_STYLE_USAGE(.BOTH.,#356);
#230=FACE_OUTER_BOUND('',#357,.T.);
#231=FACE_BOUND('',#358,.T.);
#232=PLANE('',#359);
#233=CURVE_STYLE('',#360,POSITIVE_LENGTH_MEASURE(1.0E-006),#361);
#234=CIRCLE('',#362,16.5);
#235=SURFACE_STYLE_USAGE(.BOTH.,#363);
#236=FACE_OUTER_BOUND('',#364,.T.);
#237=CYLINDRICAL_SURFACE('',#365,16.5);
#238=CURVE_STYLE('',#366,POSITIVE_LENGTH_MEASURE(1.0E-006),#367);
#239=CIRCLE('',#368,15.0);
#240=POINT_STYLE(' ',#369,POSITIVE_LENGTH_MEASURE(1.0E-006),#370);
#241=CARTESIAN_POINT('',(16.5,5.49832678366288E-015,-5.6843418860808E-014));
#242=CURVE_STYLE('',#371,POSITIVE_LENGTH_MEASURE(1.0E-006),#372);
#243=LINE('',#373,#374);
#244=SURFACE_STYLE_USAGE(.BOTH.,#375);
#245=FACE_BOUND('',#376,.T.);
#246=FACE_OUTER_BOUND('',#377,.T.);
#247=PLANE('',#378);
#248=POINT_STYLE(' ',#379,POSITIVE_LENGTH_MEASURE(1.0E-006),#380);
#249=CARTESIAN_POINT('',(16.5,5.62078741904512E-015,1.99999999999994));
#250=SURFACE_STYLE_USAGE(.BOTH.,#381);
#251=FACE_OUTER_BOUND('',#382,.T.);
#252=CYLINDRICAL_SURFACE('',#383,15.0);
#253=CURVE_STYLE('',#384,POSITIVE_LENGTH_MEASURE(1.0E-006),#385);
#254=CIRCLE('',#386,15.0);
#255=POINT_STYLE(' ',#387,POSITIVE_LENGTH_MEASURE(1.0E-006),#388);
#256=CARTESIAN_POINT('',(-15.5,3.75542264207527E-017,2.99999999999994));
#257=CURVE_STYLE('',#389,POSITIVE_LENGTH_MEASURE(1.0E-006),#390);
#258=LINE('',#391,#392);
#259=CURVE_STYLE('',#393,POSITIVE_LENGTH_MEASURE(1.0E-006),#394);
#260=CIRCLE('',#395,16.5);
#261=POINT_STYLE(' ',#396,POSITIVE_LENGTH_MEASURE(1.0E-006),#397);
#262=CARTESIAN_POINT('',(-15.0,1.5445303372748E-016,-13.0000000000001));
#263=POINT_STYLE(' ',#398,POSITIVE_LENGTH_MEASURE(1.0E-006),#399);
#264=CARTESIAN_POINT('',(-15.0,1.5445303372748E-016,-5.6843418860808E-014));
#265=CURVE_STYLE('',#400,POSITIVE_LENGTH_MEASURE(1.0E-006),#401);
#266=CIRCLE('',#402,10.0);
#267=POINT_STYLE(' ',#403,POSITIVE_LENGTH_MEASURE(1.0E-006),#404);
#268=CARTESIAN_POINT('',(10.0,3.90633852369379E-015,-13.0000000000001));
#269=POINT_STYLE(' ',#405,POSITIVE_LENGTH_MEASURE(1.0E-006),#406);
#270=CARTESIAN_POINT('',(-16.5,-1.96243388192696E-016,-5.6843418860808E-014));
#271=SURFACE_STYLE_USAGE(.BOTH.,#407);
#272=FACE_OUTER_BOUND('',#408,.T.);
#273=CONICAL_SURFACE('',#409,16.0,0.785398163397434);
#274=POINT_STYLE(' ',#410,POSITIVE_LENGTH_MEASURE(1.0E-006),#411);
#275=CARTESIAN_POINT('',(-10.0,1.32344110679476E-015,2.99999999999994));
#276=POINT_STYLE(' ',#412,POSITIVE_LENGTH_MEASURE(1.0E-006),#413);
#277=CARTESIAN_POINT('',(-10.0,1.32344110679476E-015,-13.0000000000001));
#278=CURVE_STYLE('',#414,POSITIVE_LENGTH_MEASURE(1.0E-006),#415);
#279=CIRCLE('',#416,15.0);
#280=CURVE_STYLE('',#417,POSITIVE_LENGTH_MEASURE(1.0E-006),#418);
#281=LINE('',#419,#420);
#282=SURFACE_STYLE_USAGE(.BOTH.,#421);
#283=FACE_OUTER_BOUND('',#422,.T.);
#284=CONICAL_SURFACE('',#423,16.0,0.785398163397434);
#285=CURVE_STYLE('',#424,POSITIVE_LENGTH_MEASURE(1.0E-006),#425);
#286=LINE('',#426,#427);
#287=POINT_STYLE(' ',#428,POSITIVE_LENGTH_MEASURE(1.0E-006),#429);
#288=CARTESIAN_POINT('',(15.0,4.51864170060498E-015,-13.0000000000001));
#289=CURVE_STYLE('',#430,POSITIVE_LENGTH_MEASURE(1.0E-006),#431);
#290=LINE('',#432,#433);
#291=CURVE_STYLE('',#434,POSITIVE_LENGTH_MEASURE(1.0E-006),#435);
#292=LINE('',#436,#437);
#293=PRODUCT_CONTEXT('',#58,'mechanical');
#294=PRODUCT_DEFINITION_FORMATION_WITH_SPECIFIED_SOURCE(' ','NONE',#167,.NOT_KNOWN.);
#295=CARTESIAN_POINT('',(0.0,0.0,0.0));
#296=DIRECTION('',(0.0,0.0,1.0));
#297=DIRECTION('',(1.0,0.0,0.0));
#298= (NAMED_UNIT(#175)LENGTH_UNIT()SI_UNIT(.MILLI.,.METRE.));
#299=SURFACE_SIDE_STYLE('',(#439));
#300=DRAUGHTING_PRE_DEFINED_CURVE_FONT('continuous');
#301=COLOUR_RGB('',0.509803950786591,0.509803950786591,0.588235318660736);
#302=AXIS2_PLACEMENT_3D('',#440,#441,#442);
#303=DRAUGHTING_PRE_DEFINED_CURVE_FONT('continuous');
#304=COLOUR_RGB('',0.509803950786591,0.509803950786591,0.588235318660736);
#305=AXIS2_PLACEMENT_3D('',#443,#444,#445);
#306=DRAUGHTING_PRE_DEFINED_CURVE_FONT('continuous');
#307=COLOUR_RGB('',0.509803950786591,0.509803950786591,0.588235318660736);
#308=AXIS2_PLACEMENT_3D('',#446,#447,#448);
#309=DRAUGHTING_PRE_DEFINED_CURVE_FONT('continuous');
#310=COLOUR_RGB('',0.509803950786591,0.509803950786591,0.588235318660736);
#311=AXIS2_PLACEMENT_3D('',#449,#450,#451);
#312=DRAUGHTING_PRE_DEFINED_CURVE_FONT('continuous');
#313=COLOUR_RGB('',0.509803950786591,0.509803950786591,0.588235318660736);
#314=AXIS2_PLACEMENT_3D('',#452,#453,#454);
#315=DRAUGHTING_PRE_DEFINED_CURVE_FONT('continuous');
#316=COLOUR_RGB('',0.509803950786591,0.509803950786591,0.588235318660736);
#317=AXIS2_PLACEMENT_3D('',#455,#456,#457);
#318=PRE_DEFINED_MARKER('');
#319=COLOUR_RGB('',0.509803950786591,0.509803950786591,0.588235318660736);
#320=SURFACE_SIDE_STYLE('',(#458));
#321=EDGE_LOOP('',(#459,#460,#461,#462));
#322=AXIS2_PLACEMENT_3D('',#463,#464,#465);
#323=SURFACE_SIDE_STYLE('',(#466));
#324=EDGE_LOOP('',(#467,#468));
#325=EDGE_LOOP('',(#469,#470));
#326=AXIS2_PLACEMENT_3D('',#471,#472,#473);
#327=DRAUGHTING_PRE_DEFINED_CURVE_FONT('continuous');
#328=COLOUR_RGB('',0.509803950786591,0.509803950786591,0.588235318660736);
#329=AXIS2_PLACEMENT_3D('',#474,#475,#476);
#330=DRAUGHTING_PRE_DEFINED_CURVE_FONT('continuous');
#331=COLOUR_RGB('',0.509803950786591,0.509803950786591,0.588235318660736);
#332=CARTESIAN_POINT('',(16.0,7.4021790867446E-015,2.49999999999994));
#333=VECTOR('',#477,1.0);
#334=PRE_DEFINED_MARKER('');
#335=COLOUR_RGB('',0.509803950786591,0.509803950786591,0.588235318660736);
#336=DRAUGHTING_PRE_DEFINED_CURVE_FONT('continuous');
#337=COLOUR_RGB('',0.509803950786591,0.509803950786591,0.588235318660736);
#338=CARTESIAN_POINT('',(-10.0,1.32344110679476E-015,-5.00000000000006));
#339=VECTOR('',#478,1.0);
#340=PRE_DEFINED_MARKER('');
#341=COLOUR_RGB('',0.509803950786591,0.509803950786591,0.588235318660736);
#342=SURFACE_SIDE_STYLE('',(#479));
#343=EDGE_LOOP('',(#480,#481,#482,#483));
#344=AXIS2_PLACEMENT_3D('',#484,#485,#486);
#345=SURFACE_SIDE_STYLE('',(#487));
#346=EDGE_LOOP('',(#488,#489,#490,#491));
#347=AXIS2_PLACEMENT_3D('',#492,#493,#494);
#348=PRE_DEFINED_MARKER('');
#349=COLOUR_RGB('',0.509803950786591,0.509803950786591,0.588235318660736);
#350=DRAUGHTING_PRE_DEFINED_CURVE_FONT('continuous');
#351=COLOUR_RGB('',0.509803950786591,0.509803950786591,0.588235318660736);
#352=AXIS2_PLACEMENT_3D('',#495,#496,#497);
#353=SURFACE_SIDE_STYLE('',(#498));
#354=EDGE_LOOP('',(#499,#500,#501,#502));
#355=AXIS2_PLACEMENT_3D('',#503,#504,#505);
#356=SURFACE_SIDE_STYLE('',(#506));
#357=EDGE_LOOP('',(#507,#508));
#358=EDGE_LOOP('',(#509,#510));
#359=AXIS2_PLACEMENT_3D('',#511,#512,#513);
#360=DRAUGHTING_PRE_DEFINED_CURVE_FONT('continuous');
#361=COLOUR_RGB('',0.509803950786591,0.509803950786591,0.588235318660736);
#362=AXIS2_PLACEMENT_3D('',#514,#515,#516);
#363=SURFACE_SIDE_STYLE('',(#517));
#364=EDGE_LOOP('',(#518,#519,#520,#521));
#365=AXIS2_PLACEMENT_3D('',#522,#523,#524);
#366=DRAUGHTING_PRE_DEFINED_CURVE_FONT('continuous');
#367=COLOUR_RGB('',0.509803950786591,0.509803950786591,0.588235318660736);
#368=AXIS2_PLACEMENT_3D('',#525,#526,#527);
#369=PRE_DEFINED_MARKER('');
#370=COLOUR_RGB('',0.509803950786591,0.509803950786591,0.588235318660736);
#371=DRAUGHTING_PRE_DEFINED_CURVE_FONT('continuous');
#372=COLOUR_RGB('',0.509803950786591,0.509803950786591,0.588235318660736);
#373=CARTESIAN_POINT('',(-16.0,-7.93445808859714E-017,2.49999999999994));
#374=VECTOR('',#528,1.0);
#375=SURFACE_SIDE_STYLE('',(#529));
#376=EDGE_LOOP('',(#530,#531));
#377=EDGE_LOOP('',(#532,#533));
#378=AXIS2_PLACEMENT_3D('',#534,#535,#536);
#379=PRE_DEFINED_MARKER('');
#380=COLOUR_RGB('',0.509803950786591,0.509803950786591,0.588235318660736);
#381=SURFACE_SIDE_STYLE('',(#537));
#382=EDGE_LOOP('',(#538,#539,#540,#541));
#383=AXIS2_PLACEMENT_3D('',#542,#543,#544);
#384=DRAUGHTING_PRE_DEFINED_CURVE_FONT('continuous');
#385=COLOUR_RGB('',0.509803950786591,0.509803950786591,0.588235318660736);
#386=AXIS2_PLACEMENT_3D('',#545,#546,#547);
#387=PRE_DEFINED_MARKER('');
#388=COLOUR_RGB('',0.509803950786591,0.509803950786591,0.588235318660736);
#389=DRAUGHTING_PRE_DEFINED_CURVE_FONT('continuous');
#390=COLOUR_RGB('',0.509803950786591,0.509803950786591,0.588235318660736);
#391=CARTESIAN_POINT('',(-15.0,1.5445303372748E-016,-6.50000000000006));
#392=VECTOR('',#548,1.0);
#393=DRAUGHTING_PRE_DEFINED_CURVE_FONT('continuous');
#394=COLOUR_RGB('',0.509803950786591,0.509803950786591,0.588235318660736);
#395=AXIS2_PLACEMENT_3D('',#549,#550,#551);
#396=PRE_DEFINED_MARKER('');
#397=COLOUR_RGB('',0.509803950786591,0.509803950786591,0.588235318660736);
#398=PRE_DEFINED_MARKER('');
#399=COLOUR_RGB('',0.509803950786591,0.509803950786591,0.588235318660736);
#400=DRAUGHTING_PRE_DEFINED_CURVE_FONT('continuous');
#401=COLOUR_RGB('',0.509803950786591,0.509803950786591,0.588235318660736);
#402=AXIS2_PLACEMENT_3D('',#552,#553,#554);
#403=PRE_DEFINED_MARKER('');
#404=COLOUR_RGB('',0.509803950786591,0.509803950786591,0.588235318660736);
#405=PRE_DEFINED_MARKER('');
#406=COLOUR_RGB('',0.509803950786591,0.509803950786591,0.588235318660736);
#407=SURFACE_SIDE_STYLE('',(#555));
#408=EDGE_LOOP('',(#556,#557,#558,#559));
#409=AXIS2_PLACEMENT_3D('',#560,#561,#562);
#410=PRE_DEFINED_MARKER('');
#411=COLOUR_RGB('',0.509803950786591,0.509803950786591,0.588235318660736);
#412=PRE_DEFINED_MARKER('');
#413=COLOUR_RGB('',0.509803950786591,0.509803950786591,0.588235318660736);
#414=DRAUGHTING_PRE_DEFINED_CURVE_FONT('continuous');
#415=COLOUR_RGB('',0.509803950786591,0.509803950786591,0.588235318660736);
#416=AXIS2_PLACEMENT_3D('',#563,#564,#565);
#417=DRAUGHTING_PRE_DEFINED_CURVE_FONT('continuous');
#418=COLOUR_RGB('',0.509803950786591,0.509803950786591,0.588235318660736);
#419=CARTESIAN_POINT('',(16.5,7.51907789405132E-015,0.999999999999943));
#420=VECTOR('',#566,1.0);
#421=SURFACE_SIDE_STYLE('',(#567));
#422=EDGE_LOOP('',(#568,#569,#570,#571));
#423=AXIS2_PLACEMENT_3D('',#572,#573,#574);
#424=DRAUGHTING_PRE_DEFINED_CURVE_FONT('continuous');
#425=COLOUR_RGB('',0.509803950786591,0.509803950786591,0.588235318660736);
#426=CARTESIAN_POINT('',(-16.5,-1.96243388192696E-016,0.999999999999943));
#427=VECTOR('',#575,1.0);
#428=PRE_DEFINED_MARKER('');
#429=COLOUR_RGB('',0.509803950786591,0.509803950786591,0.588235318660736);
#430=DRAUGHTING_PRE_DEFINED_CURVE_FONT('continuous');
#431=COLOUR_RGB('',0.509803950786591,0.509803950786591,0.588235318660736);
#432=CARTESIAN_POINT('',(10.0,5.99939339906386E-015,-5.00000000000006));
#433=VECTOR('',#576,1.0);
#434=DRAUGHTING_PRE_DEFINED_CURVE_FONT('continuous');
#435=COLOUR_RGB('',0.509803950786591,0.509803950786591,0.588235318660736);
#436=CARTESIAN_POINT('',(15.0,7.16838147213114E-015,-6.50000000000006));
#437=VECTOR('',#577,1.0);
#439=SURFACE_STYLE_FILL_AREA(#578);
#440=CARTESIAN_POINT('',(0.0,3.66141725292931E-015,1.99999999999994));
#441=DIRECTION('',(0.0,0.0,-1.0));
#442=DIRECTION('',(1.0,1.11336979231217E-016,0.0));
#443=CARTESIAN_POINT('',(0.0,3.66141725292931E-015,-13.0000000000001));
#444=DIRECTION('',(0.0,0.0,-1.0));
#445=DIRECTION('',(1.0,1.11336979231217E-016,0.0));
#446=CARTESIAN_POINT('',(0.0,3.66141725292931E-015,1.99999999999994));
#447=DIRECTION('',(0.0,0.0,-1.0));
#448=DIRECTION('',(1.0,1.11336979231217E-016,0.0));
#449=CARTESIAN_POINT('',(0.0,3.66141725292931E-015,2.99999999999994));
#450=DIRECTION('',(0.0,0.0,-1.0));
#451=DIRECTION('',(1.0,1.11336979231217E-016,0.0));
#452=CARTESIAN_POINT('',(0.0,3.66141725292931E-015,2.99999999999994));
#453=DIRECTION('',(0.0,0.0,-1.0));
#454=DIRECTION('',(1.0,1.11336979231217E-016,0.0));
#455=CARTESIAN_POINT('',(0.0,3.66141725292931E-015,2.99999999999994));
#456=DIRECTION('',(0.0,0.0,-1.0));
#457=DIRECTION('',(1.0,1.11336979231217E-016,0.0));
#458=SURFACE_STYLE_FILL_AREA(#579);
#459=ORIENTED_EDGE('',*,*,#156,.F.);
#460=ORIENTED_EDGE('',*,*,#78,.T.);
#461=ORIENTED_EDGE('',*,*,#160,.F.);
#462=ORIENTED_EDGE('',*,*,#136,.F.);
#463=CARTESIAN_POINT('',(0.0,3.66141725292931E-015,0.999999999999943));
#464=DIRECTION('',(-0.0,-0.0,1.0));
#465=DIRECTION('',(1.0,1.11336979231217E-016,0.0));
#466=SURFACE_STYLE_FILL_AREA(#580);
#467=ORIENTED_EDGE('',*,*,#92,.F.);
#468=ORIENTED_EDGE('',*,*,#76,.F.);
#469=ORIENTED_EDGE('',*,*,#130,.T.);
#470=ORIENTED_EDGE('',*,*,#108,.T.);
#471=CARTESIAN_POINT('',(12.5,4.21249011214938E-015,-13.0000000000001));
#472=DIRECTION('',(0.0,0.0,-1.0));
#473=DIRECTION('',(1.0,1.22460635382238E-016,0.0));
#474=CARTESIAN_POINT('',(0.0,3.66141725292931E-015,-13.0000000000001));
#475=DIRECTION('',(0.0,0.0,-1.0));
#476=DIRECTION('',(1.0,1.11336979231217E-016,0.0));
#477=DIRECTION('',(0.707106781186537,1.65319878718411E-016,-0.707106781186558));
#478=DIRECTION('',(-0.0,-0.0,1.0));
#479=SURFACE_STYLE_FILL_AREA(#581);
#480=ORIENTED_EDGE('',*,*,#164,.T.);
#481=ORIENTED_EDGE('',*,*,#92,.T.);
#482=ORIENTED_EDGE('',*,*,#98,.T.);
#483=ORIENTED_EDGE('',*,*,#82,.F.);
#484=CARTESIAN_POINT('',(0.0,3.66141725292931E-015,-5.00000000000006));
#485=DIRECTION('',(-0.0,-0.0,1.0));
#486=DIRECTION('',(1.0,1.11336979231217E-016,0.0));
#487=SURFACE_STYLE_FILL_AREA(#582);
#488=ORIENTED_EDGE('',*,*,#164,.F.);
#489=ORIENTED_EDGE('',*,*,#142,.F.);
#490=ORIENTED_EDGE('',*,*,#98,.F.);
#491=ORIENTED_EDGE('',*,*,#76,.T.);
#492=CARTESIAN_POINT('',(0.0,3.66141725292931E-015,-5.00000000000006));
#493=DIRECTION('',(-0.0,-0.0,1.0));
#494=DIRECTION('',(1.0,1.11336979231217E-016,0.0));
#495=CARTESIAN_POINT('',(0.0,3.66141725292931E-015,-13.0000000000001));
#496=DIRECTION('',(0.0,0.0,-1.0));
#497=DIRECTION('',(1.0,1.11336979231217E-016,0.0));
#498=SURFACE_STYLE_FILL_AREA(#583);
#499=ORIENTED_EDGE('',*,*,#166,.T.);
#500=ORIENTED_EDGE('',*,*,#108,.F.);
#501=ORIENTED_EDGE('',*,*,#134,.T.);
#502=ORIENTED_EDGE('',*,*,#118,.T.);
#503=CARTESIAN_POINT('',(0.0,3.66141725292931E-015,-6.50000000000006));
#504=DIRECTION('',(-0.0,-0.0,1.0));
#505=DIRECTION('',(1.0,1.11336979231217E-016,0.0));
#506=SURFACE_STYLE_FILL_AREA(#584);
#507=ORIENTED_EDGE('',*,*,#84,.F.);
#508=ORIENTED_EDGE('',*,*,#80,.F.);
#509=ORIENTED_EDGE('',*,*,#82,.T.);
#510=ORIENTED_EDGE('',*,*,#142,.T.);
#511=CARTESIAN_POINT('',(12.75,5.22279035405285E-015,2.99999999999994));
#512=DIRECTION('',(0.0,0.0,1.0));
#513=DIRECTION('',(-1.0,-1.22460635382238E-016,0.0));
#514=CARTESIAN_POINT('',(0.0,3.66141725292931E-015,-5.6843418860808E-014));
#515=DIRECTION('',(0.0,0.0,-1.0));
#516=DIRECTION('',(1.0,1.11336979231217E-016,0.0));
#517=SURFACE_STYLE_FILL_AREA(#585);
#518=ORIENTED_EDGE('',*,*,#156,.T.);
#519=ORIENTED_EDGE('',*,*,#114,.F.);
#520=ORIENTED_EDGE('',*,*,#160,.T.);
#521=ORIENTED_EDGE('',*,*,#74,.T.);
#522=CARTESIAN_POINT('',(0.0,3.66141725292931E-015,0.999999999999943));
#523=DIRECTION('',(-0.0,-0.0,1.0));
#524=DIRECTION('',(1.0,1.11336979231217E-016,0.0));
#525=CARTESIAN_POINT('',(0.0,3.66141725292931E-015,-5.6843418860808E-014));
#526=DIRECTION('',(0.0,0.0,-1.0));
#527=DIRECTION('',(1.0,1.11336979231217E-016,0.0));
#528=DIRECTION('',(0.707106781186537,1.65319878718411E-016,0.707106781186558));
#529=SURFACE_STYLE_FILL_AREA(#586);
#530=ORIENTED_EDGE('',*,*,#154,.F.);
#531=ORIENTED_EDGE('',*,*,#118,.F.);
#532=ORIENTED_EDGE('',*,*,#136,.T.);
#533=ORIENTED_EDGE('',*,*,#114,.T.);
#534=CARTESIAN_POINT('',(15.75,5.4064813071262E-015,-5.6843418860808E-014));
#535=DIRECTION('',(0.0,0.0,-1.0));
#536=DIRECTION('',(1.0,1.22460635382238E-016,0.0));
#537=SURFACE_STYLE_FILL_AREA(#587);
#538=ORIENTED_EDGE('',*,*,#166,.F.);
#539=ORIENTED_EDGE('',*,*,#154,.T.);
#540=ORIENTED_EDGE('',*,*,#134,.F.);
#541=ORIENTED_EDGE('',*,*,#130,.F.);
#542=CARTESIAN_POINT('',(0.0,3.66141725292931E-015,-6.50000000000006));
#543=DIRECTION('',(-0.0,-0.0,1.0));
#544=DIRECTION('',(1.0,1.11336979231217E-016,0.0));
#545=CARTESIAN_POINT('',(0.0,3.66141725292931E-015,-13.0000000000001));
#546=DIRECTION('',(0.0,0.0,-1.0));
#547=DIRECTION('',(1.0,1.11336979231217E-016,0.0));
#548=DIRECTION('',(-0.0,-0.0,1.0));
#549=CARTESIAN_POINT('',(0.0,3.66141725292931E-015,-5.6843418860808E-014));
#550=DIRECTION('',(0.0,0.0,-1.0));
#551=DIRECTION('',(1.0,1.11336979231217E-016,0.0));
#552=CARTESIAN_POINT('',(0.0,3.66141725292931E-015,2.99999999999994));
#553=DIRECTION('',(0.0,0.0,-1.0));
#554=DIRECTION('',(1.0,1.11336979231217E-016,0.0));
#555=SURFACE_STYLE_FILL_AREA(#588);
#556=ORIENTED_EDGE('',*,*,#94,.T.);
#557=ORIENTED_EDGE('',*,*,#74,.F.);
#558=ORIENTED_EDGE('',*,*,#122,.T.);
#559=ORIENTED_EDGE('',*,*,#80,.T.);
#560=CARTESIAN_POINT('',(0.0,3.66141725292931E-015,2.49999999999994));
#561=DIRECTION('',(0.0,-0.0,-1.0));
#562=DIRECTION('',(1.0,1.11336979231217E-016,0.0));
#563=CARTESIAN_POINT('',(0.0,3.66141725292931E-015,-5.6843418860808E-014));
#564=DIRECTION('',(0.0,0.0,-1.0));
#565=DIRECTION('',(1.0,1.11336979231217E-016,0.0));
#566=DIRECTION('',(0.0,0.0,-1.0));
#567=SURFACE_STYLE_FILL_AREA(#589);
#568=ORIENTED_EDGE('',*,*,#94,.F.);
#569=ORIENTED_EDGE('',*,*,#84,.T.);
#570=ORIENTED_EDGE('',*,*,#122,.F.);
#571=ORIENTED_EDGE('',*,*,#78,.F.);
#572=CARTESIAN_POINT('',(0.0,3.66141725292931E-015,2.49999999999994));
#573=DIRECTION('',(0.0,-0.0,-1.0));
#574=DIRECTION('',(1.0,1.11336979231217E-016,0.0));
#575=DIRECTION('',(-0.0,-0.0,1.0));
#576=DIRECTION('',(-0.0,-0.0,-1.0));
#577=DIRECTION('',(0.0,0.0,-1.0));
#578=FILL_AREA_STYLE('',(#590));
#579=FILL_AREA_STYLE('',(#591));
#580=FILL_AREA_STYLE('',(#592));
#581=FILL_AREA_STYLE('',(#593));
#582=FILL_AREA_STYLE('',(#594));
#583=FILL_AREA_STYLE('',(#595));
#584=FILL_AREA_STYLE('',(#596));
#585=FILL_AREA_STYLE('',(#597));
#586=FILL_AREA_STYLE('',(#598));
#587=FILL_AREA_STYLE('',(#599));
#588=FILL_AREA_STYLE('',(#600));
#589=FILL_AREA_STYLE('',(#601));
#590=FILL_AREA_STYLE_COLOUR('',#602);
#591=FILL_AREA_STYLE_COLOUR('',#603);
#592=FILL_AREA_STYLE_COLOUR('',#604);
#593=FILL_AREA_STYLE_COLOUR('',#605);
#594=FILL_AREA_STYLE_COLOUR('',#606);
#595=FILL_AREA_STYLE_COLOUR('',#607);
#596=FILL_AREA_STYLE_COLOUR('',#608);
#597=FILL_AREA_STYLE_COLOUR('',#609);
#598=FILL_AREA_STYLE_COLOUR('',#610);
#599=FILL_AREA_STYLE_COLOUR('',#611);
#600=FILL_AREA_STYLE_COLOUR('',#612);
#601=FILL_AREA_STYLE_COLOUR('',#613);
#602=COLOUR_RGB('',0.509803950786591,0.509803950786591,0.588235318660736);
#603=COLOUR_RGB('',0.509803950786591,0.509803950786591,0.588235318660736);
#604=COLOUR_RGB('',0.509803950786591,0.509803950786591,0.588235318660736);
#605=COLOUR_RGB('',0.509803950786591,0.509803950786591,0.588235318660736);
#606=COLOUR_RGB('',0.509803950786591,0.509803950786591,0.588235318660736);
#607=COLOUR_RGB('',0.509803950786591,0.509803950786591,0.588235318660736);
#608=COLOUR_RGB('',0.509803950786591,0.509803950786591,0.588235318660736);
#609=COLOUR_RGB('',0.509803950786591,0.509803950786591,0.588235318660736);
#610=COLOUR_RGB('',0.509803950786591,0.509803950786591,0.588235318660736);
#611=COLOUR_RGB('',0.509803950786591,0.509803950786591,0.588235318660736);
#612=COLOUR_RGB('',0.509803950786591,0.509803950786591,0.588235318660736);
#613=COLOUR_RGB('',0.509803950786591,0.509803950786591,0.588235318660736);
ENDSEC;
END-ISO-10303-21;
