ISO-10303-21;
HEADER;
FILE_DESCRIPTION(('STEP AP214'),'1');
FILE_NAME(' ','  ',('TraceParts'),('TraceParts S.A.'),'XStep 1.0',' ',' ');
FILE_SCHEMA(('automotive_design'));
ENDSEC;
DATA;
#1=MECHANICAL_DESIGN_GEOMETRIC_PRESENTATION_REPRESENTATION(' ',(#10,#11,#12,#13,#14,#15,#16,#17,#18,#19,#20,#21,#22,#23,#24,#25,#26,#27,#28,#29,#30,#31,#32,#33,#34,#35,#36,#37,#38,#39,#40,#41,#42,#43,#44,#45,#46,#47,#48,#49,#50,#51,#52,#53,#54,#55,#56,#57),#6);
#2=PRODUCT_DEFINITION_CONTEXT('',#58,'design');
#3=APPLICATION_PROTOCOL_DEFINITION('INTERNATIONAL STANDARD','automotive_design',1994,#58);
#4=PRODUCT_CATEGORY_RELATIONSHIP('NONE','NONE',#59,#60);
#5=SHAPE_DEFINITION_REPRESENTATION(#61,#62);
#6= (GEOMETRIC_REPRESENTATION_CONTEXT(3)GLOBAL_UNCERTAINTY_ASSIGNED_CONTEXT((#65))GLOBAL_UNIT_ASSIGNED_CONTEXT((#67,#68,#69))REPRESENTATION_CONTEXT('NONE','WORKSPACE'));
#10=STYLED_ITEM('',(#71),#72);
#11=STYLED_ITEM('',(#73),#74);
#12=STYLED_ITEM('',(#75),#76);
#13=STYLED_ITEM('',(#77),#78);
#14=STYLED_ITEM('',(#79),#80);
#15=STYLED_ITEM('',(#81),#82);
#16=STYLED_ITEM('',(#83),#84);
#17=STYLED_ITEM('',(#85),#86);
#18=STYLED_ITEM('',(#87),#88);
#19=STYLED_ITEM('',(#89),#90);
#20=STYLED_ITEM('',(#91),#92);
#21=STYLED_ITEM('',(#93),#94);
#22=STYLED_ITEM('',(#95),#96);
#23=STYLED_ITEM('',(#97),#98);
#24=STYLED_ITEM('',(#99),#100);
#25=STYLED_ITEM('',(#101),#102);
#26=STYLED_ITEM('',(#103),#104);
#27=STYLED_ITEM('',(#105),#106);
#28=STYLED_ITEM('',(#107),#108);
#29=STYLED_ITEM('',(#109),#110);
#30=STYLED_ITEM('',(#111),#112);
#31=STYLED_ITEM('',(#113),#114);
#32=STYLED_ITEM('',(#115),#116);
#33=STYLED_ITEM('',(#117),#118);
#34=STYLED_ITEM('',(#119),#120);
#35=STYLED_ITEM('',(#121),#122);
#36=STYLED_ITEM('',(#123),#124);
#37=STYLED_ITEM('',(#125),#126);
#38=STYLED_ITEM('',(#127),#128);
#39=STYLED_ITEM('',(#129),#130);
#40=STYLED_ITEM('',(#131),#132);
#41=STYLED_ITEM('',(#133),#134);
#42=STYLED_ITEM('',(#135),#136);
#43=STYLED_ITEM('',(#137),#138);
#44=STYLED_ITEM('',(#139),#140);
#45=STYLED_ITEM('',(#141),#142);
#46=STYLED_ITEM('',(#143),#144);
#47=STYLED_ITEM('',(#145),#146);
#48=STYLED_ITEM('',(#147),#148);
#49=STYLED_ITEM('',(#149),#150);
#50=STYLED_ITEM('',(#151),#152);
#51=STYLED_ITEM('',(#153),#154);
#52=STYLED_ITEM('',(#155),#156);
#53=STYLED_ITEM('',(#157),#158);
#54=STYLED_ITEM('',(#159),#160);
#55=STYLED_ITEM('',(#161),#162);
#56=STYLED_ITEM('',(#163),#164);
#57=STYLED_ITEM('',(#165),#166);
#58=APPLICATION_CONTEXT(' ');
#59=PRODUCT_CATEGORY('part','NONE');
#60=PRODUCT_RELATED_PRODUCT_CATEGORY('detail',' ',(#167));
#61=PRODUCT_DEFINITION_SHAPE('NONE','NONE',#168);
#62=ADVANCED_BREP_SHAPE_REPRESENTATION('1',(#108,#169),#6);
#65=UNCERTAINTY_MEASURE_WITH_UNIT(LENGTH_MEASURE(1.0E-006),#67,'','');
#67= (CONVERSION_BASED_UNIT('MILLIMETRE',#172)LENGTH_UNIT()NAMED_UNIT(#175));
#68= (NAMED_UNIT(#177)PLANE_ANGLE_UNIT()SI_UNIT($,.RADIAN.));
#69= (NAMED_UNIT(#177)SOLID_ANGLE_UNIT()SI_UNIT($,.STERADIAN.));
#71=PRESENTATION_STYLE_ASSIGNMENT((#183));
#72=EDGE_CURVE('',#142,#80,#184,.T.);
#73=PRESENTATION_STYLE_ASSIGNMENT((#185));
#74=VERTEX_POINT('',#186);
#75=PRESENTATION_STYLE_ASSIGNMENT((#187));
#76=VERTEX_POINT('',#188);
#77=PRESENTATION_STYLE_ASSIGNMENT((#189));
#78=EDGE_CURVE('',#116,#80,#190,.T.);
#79=PRESENTATION_STYLE_ASSIGNMENT((#191));
#80=VERTEX_POINT('',#192);
#81=PRESENTATION_STYLE_ASSIGNMENT((#193));
#82=VERTEX_POINT('',#194);
#83=PRESENTATION_STYLE_ASSIGNMENT((#195));
#84=EDGE_CURVE('',#86,#158,#196,.T.);
#85=PRESENTATION_STYLE_ASSIGNMENT((#197));
#86=VERTEX_POINT('',#198);
#87=PRESENTATION_STYLE_ASSIGNMENT((#199));
#88=EDGE_CURVE('',#132,#116,#200,.T.);
#89=PRESENTATION_STYLE_ASSIGNMENT((#201));
#90=EDGE_CURVE('',#118,#116,#202,.T.);
#91=PRESENTATION_STYLE_ASSIGNMENT((#203));
#92=EDGE_CURVE('',#74,#154,#204,.T.);
#93=PRESENTATION_STYLE_ASSIGNMENT((#205));
#94=EDGE_CURVE('',#152,#134,#206,.T.);
#95=PRESENTATION_STYLE_ASSIGNMENT((#207));
#96=EDGE_CURVE('',#76,#158,#208,.T.);
#97=PRESENTATION_STYLE_ASSIGNMENT((#209));
#98=EDGE_CURVE('',#132,#166,#210,.T.);
#99=PRESENTATION_STYLE_ASSIGNMENT((#211));
#100=EDGE_CURVE('',#166,#132,#212,.T.);
#101=PRESENTATION_STYLE_ASSIGNMENT((#213));
#102=EDGE_CURVE('',#118,#166,#214,.T.);
#103=PRESENTATION_STYLE_ASSIGNMENT((#215));
#104=EDGE_CURVE('',#86,#82,#216,.T.);
#105=PRESENTATION_STYLE_ASSIGNMENT((#217));
#106=EDGE_CURVE('',#116,#118,#218,.T.);
#107=PRESENTATION_STYLE_ASSIGNMENT((#219));
#108=MANIFOLD_SOLID_BREP('1',#220);
#109=PRESENTATION_STYLE_ASSIGNMENT((#221));
#110=ADVANCED_FACE('',(#222,#223),#224,.T.);
#111=PRESENTATION_STYLE_ASSIGNMENT((#225));
#112=ADVANCED_FACE('',(#226),#227,.T.);
#113=PRESENTATION_STYLE_ASSIGNMENT((#228));
#114=EDGE_CURVE('',#82,#76,#229,.T.);
#115=PRESENTATION_STYLE_ASSIGNMENT((#230));
#116=VERTEX_POINT('',#231);
#117=PRESENTATION_STYLE_ASSIGNMENT((#232));
#118=VERTEX_POINT('',#233);
#119=PRESENTATION_STYLE_ASSIGNMENT((#234));
#120=ADVANCED_FACE('',(#235),#236,.T.);
#121=PRESENTATION_STYLE_ASSIGNMENT((#237));
#122=ADVANCED_FACE('',(#238),#239,.T.);
#123=PRESENTATION_STYLE_ASSIGNMENT((#240));
#124=ADVANCED_FACE('',(#241,#242),#243,.T.);
#125=PRESENTATION_STYLE_ASSIGNMENT((#244));
#126=EDGE_CURVE('',#142,#118,#245,.T.);
#127=PRESENTATION_STYLE_ASSIGNMENT((#246));
#128=EDGE_CURVE('',#76,#82,#247,.T.);
#129=PRESENTATION_STYLE_ASSIGNMENT((#248));
#130=EDGE_CURVE('',#158,#86,#249,.T.);
#131=PRESENTATION_STYLE_ASSIGNMENT((#250));
#132=VERTEX_POINT('',#251);
#133=PRESENTATION_STYLE_ASSIGNMENT((#252));
#134=VERTEX_POINT('',#253);
#135=PRESENTATION_STYLE_ASSIGNMENT((#254));
#136=EDGE_CURVE('',#134,#74,#255,.T.);
#137=PRESENTATION_STYLE_ASSIGNMENT((#256));
#138=EDGE_CURVE('',#154,#74,#257,.T.);
#139=PRESENTATION_STYLE_ASSIGNMENT((#258));
#140=ADVANCED_FACE('',(#259,#260),#261,.T.);
#141=PRESENTATION_STYLE_ASSIGNMENT((#262));
#142=VERTEX_POINT('',#263);
#143=PRESENTATION_STYLE_ASSIGNMENT((#264));
#144=ADVANCED_FACE('',(#265),#266,.T.);
#145=PRESENTATION_STYLE_ASSIGNMENT((#267));
#146=EDGE_CURVE('',#154,#152,#268,.T.);
#147=PRESENTATION_STYLE_ASSIGNMENT((#269));
#148=EDGE_CURVE('',#134,#152,#270,.T.);
#149=PRESENTATION_STYLE_ASSIGNMENT((#271));
#150=ADVANCED_FACE('',(#272),#273,.T.);
#151=PRESENTATION_STYLE_ASSIGNMENT((#274));
#152=VERTEX_POINT('',#275);
#153=PRESENTATION_STYLE_ASSIGNMENT((#276));
#154=VERTEX_POINT('',#277);
#155=PRESENTATION_STYLE_ASSIGNMENT((#278));
#156=ADVANCED_FACE('',(#279),#280,.F.);
#157=PRESENTATION_STYLE_ASSIGNMENT((#281));
#158=VERTEX_POINT('',#282);
#159=PRESENTATION_STYLE_ASSIGNMENT((#283));
#160=ADVANCED_FACE('',(#284),#285,.F.);
#161=PRESENTATION_STYLE_ASSIGNMENT((#286));
#162=EDGE_CURVE('',#80,#142,#287,.T.);
#163=PRESENTATION_STYLE_ASSIGNMENT((#288));
#164=ADVANCED_FACE('',(#289),#290,.T.);
#165=PRESENTATION_STYLE_ASSIGNMENT((#291));
#166=VERTEX_POINT('',#292);
#167=PRODUCT('1','1','PART-1-DESC',(#293));
#168=PRODUCT_DEFINITION('NONE','NONE',#294,#2);
#169=AXIS2_PLACEMENT_3D('',#295,#296,#297);
#172=LENGTH_MEASURE_WITH_UNIT(LENGTH_MEASURE(1.0),#298);
#175=DIMENSIONAL_EXPONENTS(1.0,0.0,0.0,0.0,0.0,0.0,0.0);
#177=DIMENSIONAL_EXPONENTS(0.0,0.0,0.0,0.0,0.0,0.0,0.0);
#183=CURVE_STYLE('',#299,POSITIVE_LENGTH_MEASURE(1.0E-006),#300);
#184=CIRCLE('',#301,9.00000000000003);
#185=POINT_STYLE(' ',#302,POSITIVE_LENGTH_MEASURE(1.0E-006),#303);
#186=CARTESIAN_POINT('',(5.0,4.82479328906057E-015,-8.50000000000006));
#187=POINT_STYLE(' ',#304,POSITIVE_LENGTH_MEASURE(1.0E-006),#305);
#188=CARTESIAN_POINT('',(8.00000000000003,5.7126328955818E-015,-5.6843418860808E-014));
#189=CURVE_STYLE('',#306,POSITIVE_LENGTH_MEASURE(1.0E-006),#307);
#190=LINE('',#308,#309);
#191=POINT_STYLE(' ',#310,POSITIVE_LENGTH_MEASURE(1.0E-006),#311);
#192=CARTESIAN_POINT('',(-9.00000000000003,2.82660864448367E-015,2.49999999999994));
#193=POINT_STYLE(' ',#312,POSITIVE_LENGTH_MEASURE(1.0E-006),#313);
#194=CARTESIAN_POINT('',(-8.00000000000003,3.05543252918011E-015,-5.6843418860808E-014));
#195=CURVE_STYLE('',#314,POSITIVE_LENGTH_MEASURE(1.0E-006),#315);
#196=CIRCLE('',#316,8.00000000000003);
#197=POINT_STYLE(' ',#317,POSITIVE_LENGTH_MEASURE(1.0E-006),#318);
#198=CARTESIAN_POINT('',(-8.00000000000003,3.05543252918011E-015,-8.50000000000006));
#199=CURVE_STYLE('',#319,POSITIVE_LENGTH_MEASURE(1.0E-006),#320);
#200=LINE('',#321,#322);
#201=CURVE_STYLE('',#323,POSITIVE_LENGTH_MEASURE(1.0E-006),#324);
#202=CIRCLE('',#325,9.5);
#203=CURVE_STYLE('',#326,POSITIVE_LENGTH_MEASURE(1.0E-006),#327);
#204=CIRCLE('',#328,5.0);
#205=CURVE_STYLE('',#329,POSITIVE_LENGTH_MEASURE(1.0E-006),#330);
#206=CIRCLE('',#331,5.0);
#207=CURVE_STYLE('',#332,POSITIVE_LENGTH_MEASURE(1.0E-006),#333);
#208=LINE('',#334,#335);
#209=CURVE_STYLE('',#336,POSITIVE_LENGTH_MEASURE(1.0E-006),#337);
#210=CIRCLE('',#338,9.5);
#211=CURVE_STYLE('',#339,POSITIVE_LENGTH_MEASURE(1.0E-006),#340);
#212=CIRCLE('',#341,9.5);
#213=CURVE_STYLE('',#342,POSITIVE_LENGTH_MEASURE(1.0E-006),#343);
#214=LINE('',#344,#345);
#215=CURVE_STYLE('',#346,POSITIVE_LENGTH_MEASURE(1.0E-006),#347);
#216=LINE('',#348,#349);
#217=CURVE_STYLE('',#350,POSITIVE_LENGTH_MEASURE(1.0E-006),#351);
#218=CIRCLE('',#352,9.5);
#219=SURFACE_STYLE_USAGE(.BOTH.,#353);
#220=CLOSED_SHELL('',(#112,#164,#160,#144,#110,#150,#124,#156,#140,#120,#122));
#221=SURFACE_STYLE_USAGE(.BOTH.,#354);
#222=FACE_BOUND('',#355,.T.);
#223=FACE_OUTER_BOUND('',#356,.T.);
#224=PLANE('',#357);
#225=SURFACE_STYLE_USAGE(.BOTH.,#358);
#226=FACE_OUTER_BOUND('',#359,.T.);
#227=CYLINDRICAL_SURFACE('',#360,9.5);
#228=CURVE_STYLE('',#361,POSITIVE_LENGTH_MEASURE(1.0E-006),#362);
#229=CIRCLE('',#363,8.00000000000003);
#230=POINT_STYLE(' ',#364,POSITIVE_LENGTH_MEASURE(1.0E-006),#365);
#231=CARTESIAN_POINT('',(-9.5,2.71219670213545E-015,1.99999999999994));
#232=POINT_STYLE(' ',#366,POSITIVE_LENGTH_MEASURE(1.0E-006),#367);
#233=CARTESIAN_POINT('',(9.5,6.01878448403739E-015,1.99999999999994));
#234=SURFACE_STYLE_USAGE(.BOTH.,#368);
#235=FACE_OUTER_BOUND('',#369,.T.);
#236=CONICAL_SURFACE('',#370,9.25000000000001,0.78539816339742);
#237=SURFACE_STYLE_USAGE(.BOTH.,#371);
#238=FACE_OUTER_BOUND('',#372,.T.);
#239=CYLINDRICAL_SURFACE('',#373,9.5);
#240=SURFACE_STYLE_USAGE(.BOTH.,#374);
#241=FACE_BOUND('',#375,.T.);
#242=FACE_OUTER_BOUND('',#376,.T.);
#243=PLANE('',#377);
#244=CURVE_STYLE('',#378,POSITIVE_LENGTH_MEASURE(1.0E-006),#379);
#245=LINE('',#380,#381);
#246=CURVE_STYLE('',#382,POSITIVE_LENGTH_MEASURE(1.0E-006),#383);
#247=CIRCLE('',#384,8.00000000000003);
#248=CURVE_STYLE('',#385,POSITIVE_LENGTH_MEASURE(1.0E-006),#386);
#249=CIRCLE('',#387,8.00000000000003);
#250=POINT_STYLE(' ',#388,POSITIVE_LENGTH_MEASURE(1.0E-006),#389);
#251=CARTESIAN_POINT('',(-9.5,2.71219670213545E-015,-5.6843418860808E-014));
#252=POINT_STYLE(' ',#390,POSITIVE_LENGTH_MEASURE(1.0E-006),#391);
#253=CARTESIAN_POINT('',(5.0,5.49832678366288E-015,2.49999999999994));
#254=CURVE_STYLE('',#392,POSITIVE_LENGTH_MEASURE(1.0E-006),#393);
#255=LINE('',#394,#395);
#256=CURVE_STYLE('',#396,POSITIVE_LENGTH_MEASURE(1.0E-006),#397);
#257=CIRCLE('',#398,5.0);
#258=SURFACE_STYLE_USAGE(.BOTH.,#399);
#259=FACE_OUTER_BOUND('',#400,.T.);
#260=FACE_BOUND('',#401,.T.);
#261=PLANE('',#402);
#262=POINT_STYLE(' ',#403,POSITIVE_LENGTH_MEASURE(1.0E-006),#404);
#263=CARTESIAN_POINT('',(9.00000000000003,5.98816932519183E-015,2.49999999999994));
#264=SURFACE_STYLE_USAGE(.BOTH.,#405);
#265=FACE_OUTER_BOUND('',#406,.T.);
#266=CYLINDRICAL_SURFACE('',#407,8.00000000000003);
#267=CURVE_STYLE('',#408,POSITIVE_LENGTH_MEASURE(1.0E-006),#409);
#268=LINE('',#410,#411);
#269=CURVE_STYLE('',#412,POSITIVE_LENGTH_MEASURE(1.0E-006),#413);
#270=CIRCLE('',#414,5.0);
#271=SURFACE_STYLE_USAGE(.BOTH.,#415);
#272=FACE_OUTER_BOUND('',#416,.T.);
#273=CYLINDRICAL_SURFACE('',#417,8.00000000000003);
#274=POINT_STYLE(' ',#418,POSITIVE_LENGTH_MEASURE(1.0E-006),#419);
#275=CARTESIAN_POINT('',(-5.0,3.74190418326946E-015,2.49999999999994));
#276=POINT_STYLE(' ',#420,POSITIVE_LENGTH_MEASURE(1.0E-006),#421);
#277=CARTESIAN_POINT('',(-5.0,3.74190418326946E-015,-8.50000000000006));
#278=SURFACE_STYLE_USAGE(.BOTH.,#422);
#279=FACE_OUTER_BOUND('',#423,.T.);
#280=CYLINDRICAL_SURFACE('',#424,5.0);
#281=POINT_STYLE(' ',#425,POSITIVE_LENGTH_MEASURE(1.0E-006),#426);
#282=CARTESIAN_POINT('',(8.00000000000003,5.19217519520729E-015,-8.50000000000006));
#283=SURFACE_STYLE_USAGE(.BOTH.,#427);
#284=FACE_OUTER_BOUND('',#428,.T.);
#285=CYLINDRICAL_SURFACE('',#429,5.0);
#286=CURVE_STYLE('',#430,POSITIVE_LENGTH_MEASURE(1.0E-006),#431);
#287=CIRCLE('',#432,9.00000000000003);
#288=SURFACE_STYLE_USAGE(.BOTH.,#433);
#289=FACE_OUTER_BOUND('',#434,.T.);
#290=CONICAL_SURFACE('',#435,9.25000000000001,0.78539816339742);
#291=POINT_STYLE(' ',#436,POSITIVE_LENGTH_MEASURE(1.0E-006),#437);
#292=CARTESIAN_POINT('',(9.5,5.89632384865515E-015,-5.6843418860808E-014));
#293=PRODUCT_CONTEXT('',#58,'mechanical');
#294=PRODUCT_DEFINITION_FORMATION_WITH_SPECIFIED_SOURCE(' ','NONE',#167,.NOT_KNOWN.);
#295=CARTESIAN_POINT('',(0.0,0.0,0.0));
#296=DIRECTION('',(0.0,0.0,1.0));
#297=DIRECTION('',(1.0,0.0,0.0));
#298= (NAMED_UNIT(#175)LENGTH_UNIT()SI_UNIT(.MILLI.,.METRE.));
#299=DRAUGHTING_PRE_DEFINED_CURVE_FONT('continuous');
#300=COLOUR_RGB('',0.509803950786591,0.509803950786591,0.588235318660736);
#301=AXIS2_PLACEMENT_3D('',#439,#440,#441);
#302=PRE_DEFINED_MARKER('');
#303=COLOUR_RGB('',0.509803950786591,0.509803950786591,0.588235318660736);
#304=PRE_DEFINED_MARKER('');
#305=COLOUR_RGB('',0.509803950786591,0.509803950786591,0.588235318660736);
#306=DRAUGHTING_PRE_DEFINED_CURVE_FONT('continuous');
#307=COLOUR_RGB('',0.509803950786591,0.509803950786591,0.588235318660736);
#308=CARTESIAN_POINT('',(-9.25000000000001,2.76940267330956E-015,2.24999999999994));
#309=VECTOR('',#442,1.0);
#310=PRE_DEFINED_MARKER('');
#311=COLOUR_RGB('',0.509803950786591,0.509803950786591,0.588235318660736);
#312=PRE_DEFINED_MARKER('');
#313=COLOUR_RGB('',0.509803950786591,0.509803950786591,0.588235318660736);
#314=DRAUGHTING_PRE_DEFINED_CURVE_FONT('continuous');
#315=COLOUR_RGB('',0.509803950786591,0.509803950786591,0.588235318660736);
#316=AXIS2_PLACEMENT_3D('',#443,#444,#445);
#317=PRE_DEFINED_MARKER('');
#318=COLOUR_RGB('',0.509803950786591,0.509803950786591,0.588235318660736);
#319=DRAUGHTING_PRE_DEFINED_CURVE_FONT('continuous');
#320=COLOUR_RGB('',0.509803950786591,0.509803950786591,0.588235318660736);
#321=CARTESIAN_POINT('',(-9.5,2.71219670213545E-015,0.999999999999943));
#322=VECTOR('',#446,1.0);
#323=DRAUGHTING_PRE_DEFINED_CURVE_FONT('continuous');
#324=COLOUR_RGB('',0.509803950786591,0.509803950786591,0.588235318660736);
#325=AXIS2_PLACEMENT_3D('',#447,#448,#449);
#326=DRAUGHTING_PRE_DEFINED_CURVE_FONT('continuous');
#327=COLOUR_RGB('',0.509803950786591,0.509803950786591,0.588235318660736);
#328=AXIS2_PLACEMENT_3D('',#450,#451,#452);
#329=DRAUGHTING_PRE_DEFINED_CURVE_FONT('continuous');
#330=COLOUR_RGB('',0.509803950786591,0.509803950786591,0.588235318660736);
#331=AXIS2_PLACEMENT_3D('',#453,#454,#455);
#332=DRAUGHTING_PRE_DEFINED_CURVE_FONT('continuous');
#333=COLOUR_RGB('',0.509803950786591,0.509803950786591,0.588235318660736);
#334=CARTESIAN_POINT('',(8.00000000000003,6.71661468432327E-015,-4.25000000000006));
#335=VECTOR('',#456,1.0);
#336=DRAUGHTING_PRE_DEFINED_CURVE_FONT('continuous');
#337=COLOUR_RGB('',0.509803950786591,0.509803950786591,0.588235318660736);
#338=AXIS2_PLACEMENT_3D('',#457,#458,#459);
#339=DRAUGHTING_PRE_DEFINED_CURVE_FONT('continuous');
#340=COLOUR_RGB('',0.509803950786591,0.509803950786591,0.588235318660736);
#341=AXIS2_PLACEMENT_3D('',#460,#461,#462);
#342=DRAUGHTING_PRE_DEFINED_CURVE_FONT('continuous');
#343=COLOUR_RGB('',0.509803950786591,0.509803950786591,0.588235318660736);
#344=CARTESIAN_POINT('',(9.5,7.05985051136793E-015,0.999999999999943));
#345=VECTOR('',#463,1.0);
#346=DRAUGHTING_PRE_DEFINED_CURVE_FONT('continuous');
#347=COLOUR_RGB('',0.509803950786591,0.509803950786591,0.588235318660736);
#348=CARTESIAN_POINT('',(-8.00000000000003,3.05543252918011E-015,-4.25000000000006));
#349=VECTOR('',#464,1.0);
#350=DRAUGHTING_PRE_DEFINED_CURVE_FONT('continuous');
#351=COLOUR_RGB('',0.509803950786591,0.509803950786591,0.588235318660736);
#352=AXIS2_PLACEMENT_3D('',#465,#466,#467);
#353=SURFACE_SIDE_STYLE('',(#468));
#354=SURFACE_SIDE_STYLE('',(#469));
#355=EDGE_LOOP('',(#470,#471));
#356=EDGE_LOOP('',(#472,#473));
#357=AXIS2_PLACEMENT_3D('',#474,#475,#476);
#358=SURFACE_SIDE_STYLE('',(#477));
#359=EDGE_LOOP('',(#478,#479,#480,#481));
#360=AXIS2_PLACEMENT_3D('',#482,#483,#484);
#361=DRAUGHTING_PRE_DEFINED_CURVE_FONT('continuous');
#362=COLOUR_RGB('',0.509803950786591,0.509803950786591,0.588235318660736);
#363=AXIS2_PLACEMENT_3D('',#485,#486,#487);
#364=PRE_DEFINED_MARKER('');
#365=COLOUR_RGB('',0.509803950786591,0.509803950786591,0.588235318660736);
#366=PRE_DEFINED_MARKER('');
#367=COLOUR_RGB('',0.509803950786591,0.509803950786591,0.588235318660736);
#368=SURFACE_SIDE_STYLE('',(#488));
#369=EDGE_LOOP('',(#489,#490,#491,#492));
#370=AXIS2_PLACEMENT_3D('',#493,#494,#495);
#371=SURFACE_SIDE_STYLE('',(#496));
#372=EDGE_LOOP('',(#497,#498,#499,#500));
#373=AXIS2_PLACEMENT_3D('',#501,#502,#503);
#374=SURFACE_SIDE_STYLE('',(#504));
#375=EDGE_LOOP('',(#505,#506));
#376=EDGE_LOOP('',(#507,#508));
#377=AXIS2_PLACEMENT_3D('',#509,#510,#511);
#378=DRAUGHTING_PRE_DEFINED_CURVE_FONT('continuous');
#379=COLOUR_RGB('',0.509803950786591,0.509803950786591,0.588235318660736);
#380=CARTESIAN_POINT('',(9.25000000000001,7.00264454019382E-015,2.24999999999994));
#381=VECTOR('',#512,1.0);
#382=DRAUGHTING_PRE_DEFINED_CURVE_FONT('continuous');
#383=COLOUR_RGB('',0.509803950786591,0.509803950786591,0.588235318660736);
#384=AXIS2_PLACEMENT_3D('',#513,#514,#515);
#385=DRAUGHTING_PRE_DEFINED_CURVE_FONT('continuous');
#386=COLOUR_RGB('',0.509803950786591,0.509803950786591,0.588235318660736);
#387=AXIS2_PLACEMENT_3D('',#516,#517,#518);
#388=PRE_DEFINED_MARKER('');
#389=COLOUR_RGB('',0.509803950786591,0.509803950786591,0.588235318660736);
#390=PRE_DEFINED_MARKER('');
#391=COLOUR_RGB('',0.509803950786591,0.509803950786591,0.588235318660736);
#392=DRAUGHTING_PRE_DEFINED_CURVE_FONT('continuous');
#393=COLOUR_RGB('',0.509803950786591,0.509803950786591,0.588235318660736);
#394=CARTESIAN_POINT('',(5.0,6.03014303023392E-015,-3.00000000000006));
#395=VECTOR('',#519,1.0);
#396=DRAUGHTING_PRE_DEFINED_CURVE_FONT('continuous');
#397=COLOUR_RGB('',0.509803950786591,0.509803950786591,0.588235318660736);
#398=AXIS2_PLACEMENT_3D('',#520,#521,#522);
#399=SURFACE_SIDE_STYLE('',(#523));
#400=EDGE_LOOP('',(#524,#525));
#401=EDGE_LOOP('',(#526,#527));
#402=AXIS2_PLACEMENT_3D('',#528,#529,#530);
#403=PRE_DEFINED_MARKER('');
#404=COLOUR_RGB('',0.509803950786591,0.509803950786591,0.588235318660736);
#405=SURFACE_SIDE_STYLE('',(#531));
#406=EDGE_LOOP('',(#532,#533,#534,#535));
#407=AXIS2_PLACEMENT_3D('',#536,#537,#538);
#408=DRAUGHTING_PRE_DEFINED_CURVE_FONT('continuous');
#409=COLOUR_RGB('',0.509803950786591,0.509803950786591,0.588235318660736);
#410=CARTESIAN_POINT('',(-5.0,3.74190418326946E-015,-3.00000000000006));
#411=VECTOR('',#539,1.0);
#412=DRAUGHTING_PRE_DEFINED_CURVE_FONT('continuous');
#413=COLOUR_RGB('',0.509803950786591,0.509803950786591,0.588235318660736);
#414=AXIS2_PLACEMENT_3D('',#540,#541,#542);
#415=SURFACE_SIDE_STYLE('',(#543));
#416=EDGE_LOOP('',(#544,#545,#546,#547));
#417=AXIS2_PLACEMENT_3D('',#548,#549,#550);
#418=PRE_DEFINED_MARKER('');
#419=COLOUR_RGB('',0.509803950786591,0.509803950786591,0.588235318660736);
#420=PRE_DEFINED_MARKER('');
#421=COLOUR_RGB('',0.509803950786591,0.509803950786591,0.588235318660736);
#422=SURFACE_SIDE_STYLE('',(#551));
#423=EDGE_LOOP('',(#552,#553,#554,#555));
#424=AXIS2_PLACEMENT_3D('',#556,#557,#558);
#425=PRE_DEFINED_MARKER('');
#426=COLOUR_RGB('',0.509803950786591,0.509803950786591,0.588235318660736);
#427=SURFACE_SIDE_STYLE('',(#559));
#428=EDGE_LOOP('',(#560,#561,#562,#563));
#429=AXIS2_PLACEMENT_3D('',#564,#565,#566);
#430=DRAUGHTING_PRE_DEFINED_CURVE_FONT('continuous');
#431=COLOUR_RGB('',0.509803950786591,0.509803950786591,0.588235318660736);
#432=AXIS2_PLACEMENT_3D('',#567,#568,#569);
#433=SURFACE_SIDE_STYLE('',(#570));
#434=EDGE_LOOP('',(#571,#572,#573,#574));
#435=AXIS2_PLACEMENT_3D('',#575,#576,#577);
#436=PRE_DEFINED_MARKER('');
#437=COLOUR_RGB('',0.509803950786591,0.509803950786591,0.588235318660736);
#439=CARTESIAN_POINT('',(0.0,4.88602360675169E-015,2.49999999999994));
#440=DIRECTION('',(0.0,0.0,-1.0));
#441=DIRECTION('',(1.0,1.06363249314209E-016,0.0));
#442=DIRECTION('',(0.707106781186527,1.61802920566301E-016,0.707106781186568));
#443=CARTESIAN_POINT('',(0.0,4.88602360675169E-015,-8.50000000000006));
#444=DIRECTION('',(0.0,0.0,-1.0));
#445=DIRECTION('',(1.0,1.06363249314209E-016,0.0));
#446=DIRECTION('',(-0.0,-0.0,1.0));
#447=CARTESIAN_POINT('',(0.0,4.88602360675169E-015,1.99999999999994));
#448=DIRECTION('',(0.0,0.0,-1.0));
#449=DIRECTION('',(1.0,1.06363249314209E-016,0.0));
#450=CARTESIAN_POINT('',(0.0,4.88602360675169E-015,-8.50000000000006));
#451=DIRECTION('',(0.0,0.0,-1.0));
#452=DIRECTION('',(1.0,1.06363249314209E-016,0.0));
#453=CARTESIAN_POINT('',(0.0,4.88602360675169E-015,2.49999999999994));
#454=DIRECTION('',(0.0,0.0,-1.0));
#455=DIRECTION('',(1.0,1.06363249314209E-016,0.0));
#456=DIRECTION('',(0.0,0.0,-1.0));
#457=CARTESIAN_POINT('',(0.0,4.88602360675169E-015,-5.6843418860808E-014));
#458=DIRECTION('',(0.0,0.0,-1.0));
#459=DIRECTION('',(1.0,1.06363249314209E-016,0.0));
#460=CARTESIAN_POINT('',(0.0,4.88602360675169E-015,-5.6843418860808E-014));
#461=DIRECTION('',(0.0,0.0,-1.0));
#462=DIRECTION('',(1.0,1.06363249314209E-016,0.0));
#463=DIRECTION('',(0.0,0.0,-1.0));
#464=DIRECTION('',(-0.0,-0.0,1.0));
#465=CARTESIAN_POINT('',(0.0,4.88602360675169E-015,1.99999999999994));
#466=DIRECTION('',(0.0,0.0,-1.0));
#467=DIRECTION('',(1.0,1.06363249314209E-016,0.0));
#468=SURFACE_STYLE_FILL_AREA(#578);
#469=SURFACE_STYLE_FILL_AREA(#579);
#470=ORIENTED_EDGE('',*,*,#128,.F.);
#471=ORIENTED_EDGE('',*,*,#114,.F.);
#472=ORIENTED_EDGE('',*,*,#100,.T.);
#473=ORIENTED_EDGE('',*,*,#98,.T.);
#474=CARTESIAN_POINT('',(8.75000000000001,5.80447837211847E-015,-5.6843418860808E-014));
#475=DIRECTION('',(0.0,0.0,-1.0));
#476=DIRECTION('',(1.0,1.22460635382238E-016,0.0));
#477=SURFACE_STYLE_FILL_AREA(#580);
#478=ORIENTED_EDGE('',*,*,#102,.F.);
#479=ORIENTED_EDGE('',*,*,#90,.T.);
#480=ORIENTED_EDGE('',*,*,#88,.F.);
#481=ORIENTED_EDGE('',*,*,#100,.F.);
#482=CARTESIAN_POINT('',(0.0,4.88602360675169E-015,0.999999999999943));
#483=DIRECTION('',(-0.0,-0.0,1.0));
#484=DIRECTION('',(1.0,1.06363249314209E-016,0.0));
#485=CARTESIAN_POINT('',(0.0,4.88602360675169E-015,-5.6843418860808E-014));
#486=DIRECTION('',(0.0,0.0,-1.0));
#487=DIRECTION('',(1.0,1.06363249314209E-016,0.0));
#488=SURFACE_STYLE_FILL_AREA(#581);
#489=ORIENTED_EDGE('',*,*,#126,.T.);
#490=ORIENTED_EDGE('',*,*,#106,.F.);
#491=ORIENTED_EDGE('',*,*,#78,.T.);
#492=ORIENTED_EDGE('',*,*,#162,.T.);
#493=CARTESIAN_POINT('',(0.0,4.88602360675169E-015,2.24999999999994));
#494=DIRECTION('',(0.0,-0.0,-1.0));
#495=DIRECTION('',(1.0,1.06363249314209E-016,0.0));
#496=SURFACE_STYLE_FILL_AREA(#582);
#497=ORIENTED_EDGE('',*,*,#102,.T.);
#498=ORIENTED_EDGE('',*,*,#98,.F.);
#499=ORIENTED_EDGE('',*,*,#88,.T.);
#500=ORIENTED_EDGE('',*,*,#106,.T.);
#501=CARTESIAN_POINT('',(0.0,4.88602360675169E-015,0.999999999999943));
#502=DIRECTION('',(-0.0,-0.0,1.0));
#503=DIRECTION('',(1.0,1.06363249314209E-016,0.0));
#504=SURFACE_STYLE_FILL_AREA(#583);
#505=ORIENTED_EDGE('',*,*,#92,.F.);
#506=ORIENTED_EDGE('',*,*,#138,.F.);
#507=ORIENTED_EDGE('',*,*,#130,.T.);
#508=ORIENTED_EDGE('',*,*,#84,.T.);
#509=CARTESIAN_POINT('',(6.50000000000001,5.00848424213393E-015,-8.50000000000006));
#510=DIRECTION('',(0.0,0.0,-1.0));
#511=DIRECTION('',(1.0,1.22460635382238E-016,0.0));
#512=DIRECTION('',(0.707106781186527,1.61802920566301E-016,-0.707106781186568));
#513=CARTESIAN_POINT('',(0.0,4.88602360675169E-015,-5.6843418860808E-014));
#514=DIRECTION('',(0.0,0.0,-1.0));
#515=DIRECTION('',(1.0,1.06363249314209E-016,0.0));
#516=CARTESIAN_POINT('',(0.0,4.88602360675169E-015,-8.50000000000006));
#517=DIRECTION('',(0.0,0.0,-1.0));
#518=DIRECTION('',(1.0,1.06363249314209E-016,0.0));
#519=DIRECTION('',(-0.0,-0.0,-1.0));
#520=CARTESIAN_POINT('',(0.0,4.88602360675169E-015,-8.50000000000006));
#521=DIRECTION('',(0.0,0.0,-1.0));
#522=DIRECTION('',(1.0,1.06363249314209E-016,0.0));
#523=SURFACE_STYLE_FILL_AREA(#584);
#524=ORIENTED_EDGE('',*,*,#72,.F.);
#525=ORIENTED_EDGE('',*,*,#162,.F.);
#526=ORIENTED_EDGE('',*,*,#148,.T.);
#527=ORIENTED_EDGE('',*,*,#94,.T.);
#528=CARTESIAN_POINT('',(7.00000000000001,5.74324805442736E-015,2.49999999999994));
#529=DIRECTION('',(0.0,0.0,1.0));
#530=DIRECTION('',(-1.0,-1.22460635382238E-016,0.0));
#531=SURFACE_STYLE_FILL_AREA(#585);
#532=ORIENTED_EDGE('',*,*,#96,.F.);
#533=ORIENTED_EDGE('',*,*,#128,.T.);
#534=ORIENTED_EDGE('',*,*,#104,.F.);
#535=ORIENTED_EDGE('',*,*,#130,.F.);
#536=CARTESIAN_POINT('',(0.0,4.88602360675169E-015,-4.25000000000006));
#537=DIRECTION('',(-0.0,-0.0,1.0));
#538=DIRECTION('',(1.0,1.06363249314209E-016,0.0));
#539=DIRECTION('',(-0.0,-0.0,1.0));
#540=CARTESIAN_POINT('',(0.0,4.88602360675169E-015,2.49999999999994));
#541=DIRECTION('',(0.0,0.0,-1.0));
#542=DIRECTION('',(1.0,1.06363249314209E-016,0.0));
#543=SURFACE_STYLE_FILL_AREA(#586);
#544=ORIENTED_EDGE('',*,*,#96,.T.);
#545=ORIENTED_EDGE('',*,*,#84,.F.);
#546=ORIENTED_EDGE('',*,*,#104,.T.);
#547=ORIENTED_EDGE('',*,*,#114,.T.);
#548=CARTESIAN_POINT('',(0.0,4.88602360675169E-015,-4.25000000000006));
#549=DIRECTION('',(-0.0,-0.0,1.0));
#550=DIRECTION('',(1.0,1.06363249314209E-016,0.0));
#551=SURFACE_STYLE_FILL_AREA(#587);
#552=ORIENTED_EDGE('',*,*,#136,.T.);
#553=ORIENTED_EDGE('',*,*,#92,.T.);
#554=ORIENTED_EDGE('',*,*,#146,.T.);
#555=ORIENTED_EDGE('',*,*,#148,.F.);
#556=CARTESIAN_POINT('',(0.0,4.88602360675169E-015,-3.00000000000006));
#557=DIRECTION('',(-0.0,-0.0,1.0));
#558=DIRECTION('',(1.0,1.06363249314209E-016,0.0));
#559=SURFACE_STYLE_FILL_AREA(#588);
#560=ORIENTED_EDGE('',*,*,#136,.F.);
#561=ORIENTED_EDGE('',*,*,#94,.F.);
#562=ORIENTED_EDGE('',*,*,#146,.F.);
#563=ORIENTED_EDGE('',*,*,#138,.T.);
#564=CARTESIAN_POINT('',(0.0,4.88602360675169E-015,-3.00000000000006));
#565=DIRECTION('',(-0.0,-0.0,1.0));
#566=DIRECTION('',(1.0,1.06363249314209E-016,0.0));
#567=CARTESIAN_POINT('',(0.0,4.88602360675169E-015,2.49999999999994));
#568=DIRECTION('',(0.0,0.0,-1.0));
#569=DIRECTION('',(1.0,1.06363249314209E-016,0.0));
#570=SURFACE_STYLE_FILL_AREA(#589);
#571=ORIENTED_EDGE('',*,*,#126,.F.);
#572=ORIENTED_EDGE('',*,*,#72,.T.);
#573=ORIENTED_EDGE('',*,*,#78,.F.);
#574=ORIENTED_EDGE('',*,*,#90,.F.);
#575=CARTESIAN_POINT('',(0.0,4.88602360675169E-015,2.24999999999994));
#576=DIRECTION('',(0.0,-0.0,-1.0));
#577=DIRECTION('',(1.0,1.06363249314209E-016,0.0));
#578=FILL_AREA_STYLE('',(#590));
#579=FILL_AREA_STYLE('',(#591));
#580=FILL_AREA_STYLE('',(#592));
#581=FILL_AREA_STYLE('',(#593));
#582=FILL_AREA_STYLE('',(#594));
#583=FILL_AREA_STYLE('',(#595));
#584=FILL_AREA_STYLE('',(#596));
#585=FILL_AREA_STYLE('',(#597));
#586=FILL_AREA_STYLE('',(#598));
#587=FILL_AREA_STYLE('',(#599));
#588=FILL_AREA_STYLE('',(#600));
#589=FILL_AREA_STYLE('',(#601));
#590=FILL_AREA_STYLE_COLOUR('',#602);
#591=FILL_AREA_STYLE_COLOUR('',#603);
#592=FILL_AREA_STYLE_COLOUR('',#604);
#593=FILL_AREA_STYLE_COLOUR('',#605);
#594=FILL_AREA_STYLE_COLOUR('',#606);
#595=FILL_AREA_STYLE_COLOUR('',#607);
#596=FILL_AREA_STYLE_COLOUR('',#608);
#597=FILL_AREA_STYLE_COLOUR('',#609);
#598=FILL_AREA_STYLE_COLOUR('',#610);
#599=FILL_AREA_STYLE_COLOUR('',#611);
#600=FILL_AREA_STYLE_COLOUR('',#612);
#601=FILL_AREA_STYLE_COLOUR('',#613);
#602=COLOUR_RGB('',0.509803950786591,0.509803950786591,0.588235318660736);
#603=COLOUR_RGB('',0.509803950786591,0.509803950786591,0.588235318660736);
#604=COLOUR_RGB('',0.509803950786591,0.509803950786591,0.588235318660736);
#605=COLOUR_RGB('',0.509803950786591,0.509803950786591,0.588235318660736);
#606=COLOUR_RGB('',0.509803950786591,0.509803950786591,0.588235318660736);
#607=COLOUR_RGB('',0.509803950786591,0.509803950786591,0.588235318660736);
#608=COLOUR_RGB('',0.509803950786591,0.509803950786591,0.588235318660736);
#609=COLOUR_RGB('',0.509803950786591,0.509803950786591,0.588235318660736);
#610=COLOUR_RGB('',0.509803950786591,0.509803950786591,0.588235318660736);
#611=COLOUR_RGB('',0.509803950786591,0.509803950786591,0.588235318660736);
#612=COLOUR_RGB('',0.509803950786591,0.509803950786591,0.588235318660736);
#613=COLOUR_RGB('',0.509803950786591,0.509803950786591,0.588235318660736);
ENDSEC;
END-ISO-10303-21;
