ISO-10303-21;
HEADER;
FILE_DESCRIPTION (( 'STEP AP214' ),
    '1' );
FILE_NAME ('1702.730.stp',
    '2018-03-26T11:14:14',
    ( '' ),
    ( '' ),
    'SwSTEP 2.0',
    'SolidWorks 2016',
    '' );
FILE_SCHEMA (( 'AUTOMOTIVE_DESIGN' ));
ENDSEC;

DATA;
#1 = FACE_OUTER_BOUND ( 'NONE', #288, .T. ) ;
#2 = EDGE_CURVE ( 'NONE', #342, #91, #133, .T. ) ;
#3 = VECTOR ( 'NONE', #250, 1000.000000000000000 ) ;
#4 = EDGE_LOOP ( 'NONE', ( #218, #80, #86, #101 ) ) ;
#5 = ORIENTED_EDGE ( 'NONE', *, *, #289, .T. ) ;
#6 = AXIS2_PLACEMENT_3D ( 'NONE', #328, #219, #108 ) ;
#7 = ADVANCED_FACE ( 'NONE', ( #1, #257 ), #341, .T. ) ;
#8 = CARTESIAN_POINT ( 'NONE',  ( 72.42907593463128500, 10.00000000000000200, -5.797958971132720400 ) ) ;
#9 = DIRECTION ( 'NONE',  ( 0.0000000000000000000, 0.0000000000000000000, -1.000000000000000000 ) ) ;
#10 = VECTOR ( 'NONE', #305, 1000.000000000000000 ) ;
#11 = ORIENTED_EDGE ( 'NONE', *, *, #210, .F. ) ;
#12 = DIRECTION ( 'NONE',  ( -1.000000000000000000, 0.0000000000000000000, 0.0000000000000000000 ) ) ;
#13 = DIRECTION ( 'NONE',  ( 1.000000000000000000, 0.0000000000000000000, 0.0000000000000000000 ) ) ;
#14 = AXIS2_PLACEMENT_3D ( 'NONE', #194, #109, #9 ) ;
#15 = DIRECTION ( 'NONE',  ( 0.7071067811865530100, -0.7071067811865421300, -7.965688469787423900E-017 ) ) ;
#16 = VERTEX_POINT ( 'NONE', #320 ) ;
#17 = ORIENTED_EDGE ( 'NONE', *, *, #308, .T. ) ;
#18 = DIRECTION ( 'NONE',  ( 1.000000000000000000, -0.0000000000000000000, -0.0000000000000000000 ) ) ;
#19 = DIRECTION ( 'NONE',  ( 0.7071067811865524600, 0.7071067811865426900, 2.389706540936228800E-016 ) ) ;
#20 = CYLINDRICAL_SURFACE ( 'NONE', #6, 5.500000000000002700 ) ;
#21 = ORIENTED_EDGE ( 'NONE', *, *, #139, .T. ) ;
#22 = APPLICATION_CONTEXT ( 'automotive_design' ) ;
#23 = EDGE_CURVE ( 'NONE', #312, #164, #40, .T. ) ;
#24 = DIRECTION ( 'NONE',  ( -0.0000000000000000000, 1.000000000000000000, 3.379555400283732900E-016 ) ) ;
#25 = ORIENTED_EDGE ( 'NONE', *, *, #315, .T. ) ;
#26 = VERTEX_POINT ( 'NONE', #82 ) ;
#27 = ORIENTED_EDGE ( 'NONE', *, *, #303, .F. ) ;
#28 = LINE ( 'NONE', #85, #247 ) ;
#29 = EDGE_CURVE ( 'NONE', #319, #77, #163, .T. ) ;
#30 = EDGE_LOOP ( 'NONE', ( #214, #159, #97, #227 ) ) ;
#31 = EDGE_CURVE ( 'NONE', #164, #16, #240, .T. ) ;
#32 = CARTESIAN_POINT ( 'NONE',  ( 72.42907593463128500, 6.442100848736361700E-016, 3.999999999999997300 ) ) ;
#33 = EDGE_LOOP ( 'NONE', ( #233, #5, #99, #27 ) ) ;
#34 = ORIENTED_EDGE ( 'NONE', *, *, #188, .F. ) ;
#35 = CARTESIAN_POINT ( 'NONE',  ( 50.42907593463128500, 9.500000000000005300, -6.283481900601572100 ) ) ;
#36 = CARTESIAN_POINT ( 'NONE',  ( 50.76786202300310400, -9.838786088371820800, -5.962497230685715800 ) ) ;
#37 = CARTESIAN_POINT ( 'NONE',  ( 72.42907593463128500, 10.00000000000000200, -5.797958971132721300 ) ) ;
#38 = COLOUR_RGB ( '',0.7529411764705882200, 0.7529411764705882200, 0.7529411764705882200 ) ;
#39 = CARTESIAN_POINT ( 'NONE',  ( 72.42907593463128500, -2.602085213965210600E-015, 5.007417855406813200E-030 ) ) ;
#40 = LINE ( 'NONE', #161, #197 ) ;
#41 = ADVANCED_FACE ( 'NONE', ( #267 ), #183, .T. ) ;
#42 = DIRECTION ( 'NONE',  ( -1.000000000000000000, 0.0000000000000000000, 0.0000000000000000000 ) ) ;
#43 = CARTESIAN_POINT ( 'NONE',  ( 72.42907593463128500, -10.00000000000000900, 25.00000000000000700 ) ) ;
#44 = MECHANICAL_DESIGN_GEOMETRIC_PRESENTATION_REPRESENTATION (  '', ( #326 ), #76 ) ;
#45 = CARTESIAN_POINT ( 'NONE',  ( 50.92907593463127800, -10.00000000000000900, 25.00000000000000700 ) ) ;
#46 = CARTESIAN_POINT ( 'NONE',  ( 72.42907593463128500, -2.602085213965210600E-015, 5.500000000000002700 ) ) ;
#47 =( LENGTH_UNIT ( ) NAMED_UNIT ( * ) SI_UNIT ( .MILLI., .METRE. ) );
#48 = DIRECTION ( 'NONE',  ( -0.0000000000000000000, -1.000000000000000000, -0.0000000000000000000 ) ) ;
#49 = PRESENTATION_STYLE_ASSIGNMENT (( #225 ) ) ;
#50 = ORIENTED_EDGE ( 'NONE', *, *, #123, .T. ) ;
#51 = CARTESIAN_POINT ( 'NONE',  ( 0.0000000000000000000, 0.0000000000000000000, 0.0000000000000000000 ) ) ;
#52 = PLANE ( 'NONE',  #206 ) ;
#53 = VERTEX_POINT ( 'NONE', #302 ) ;
#54 = ORIENTED_EDGE ( 'NONE', *, *, #31, .T. ) ;
#55 = PRODUCT_DEFINITION_FORMATION_WITH_SPECIFIED_SOURCE ( 'ANY', '', #182, .NOT_KNOWN. ) ;
#56 = PRODUCT_DEFINITION_SHAPE ( 'NONE', 'NONE',  #93 ) ;
#57 = LINE ( 'NONE', #344, #185 ) ;
#58 = VECTOR ( 'NONE', #189, 1000.000000000000000 ) ;
#59 = EDGE_CURVE ( 'NONE', #251, #53, #96, .T. ) ;
#60 = CARTESIAN_POINT ( 'NONE',  ( 72.42907593463128500, -2.602085213965210600E-015, 5.500000000000002700 ) ) ;
#61 = DIRECTION ( 'NONE',  ( 0.0000000000000000000, 0.0000000000000000000, 1.000000000000000000 ) ) ;
#62 = FACE_OUTER_BOUND ( 'NONE', #30, .T. ) ;
#63 = ORIENTED_EDGE ( 'NONE', *, *, #290, .T. ) ;
#64 = CARTESIAN_POINT ( 'NONE',  ( 72.42907593463128500, -10.00000000000000900, 25.00000000000000700 ) ) ;
#65 = ADVANCED_FACE ( 'NONE', ( #324, #287 ), #220, .F. ) ;
#66 = ORIENTED_EDGE ( 'NONE', *, *, #129, .F. ) ;
#67 = DIRECTION ( 'NONE',  ( -0.0000000000000000000, 3.379555400283732900E-016, -1.000000000000000000 ) ) ;
#68 = LINE ( 'NONE', #46, #298 ) ;
#69 = ORIENTED_EDGE ( 'NONE', *, *, #59, .T. ) ;
#70 = CARTESIAN_POINT ( 'NONE',  ( 72.42907593463128500, -9.999999999999998200, -5.797958971132722200 ) ) ;
#71 = DIRECTION ( 'NONE',  ( -1.000000000000000000, -0.0000000000000000000, -0.0000000000000000000 ) ) ;
#72 =( NAMED_UNIT ( * ) SI_UNIT ( $, .STERADIAN. ) SOLID_ANGLE_UNIT ( ) );
#73 = VERTEX_POINT ( 'NONE', #243 ) ;
#74 = B_SPLINE_CURVE_WITH_KNOTS ( 'NONE', 3,
 ( #140, #36, #195, #253 ),
 .UNSPECIFIED., .F., .F.,
 ( 4, 4 ),
 ( 0.0000000000000000000, 1.000000000000000000 ),
 .UNSPECIFIED. ) ;
#75 = ORIENTED_EDGE ( 'NONE', *, *, #106, .F. ) ;
#76 =( GEOMETRIC_REPRESENTATION_CONTEXT ( 3 ) GLOBAL_UNCERTAINTY_ASSIGNED_CONTEXT ( ( #322 ) ) GLOBAL_UNIT_ASSIGNED_CONTEXT ( ( #177, #124, #72 ) ) REPRESENTATION_CONTEXT ( 'NONE', 'WORKASPACE' ) );
#77 = VERTEX_POINT ( 'NONE', #162 ) ;
#78 = AXIS2_PLACEMENT_3D ( 'NONE', #32, #297, #61 ) ;
#79 = CIRCLE ( 'NONE', #295, 5.500000000000002700 ) ;
#80 = ORIENTED_EDGE ( 'NONE', *, *, #308, .F. ) ;
#81 = EDGE_LOOP ( 'NONE', ( #237, #167, #291, #174, #207, #21 ) ) ;
#82 = CARTESIAN_POINT ( 'NONE',  ( 50.42907593463128500, 9.500000000000005300, -6.283481900601572100 ) ) ;
#83 = CARTESIAN_POINT ( 'NONE',  ( 50.60119535633651100, 9.672119421705234600, -6.124475980038419600 ) ) ;
#84 = PRESENTATION_STYLE_ASSIGNMENT (( #285 ) ) ;
#85 = CARTESIAN_POINT ( 'NONE',  ( 50.42907593463127800, 9.999999999999998200, 25.00000000000000700 ) ) ;
#86 = ORIENTED_EDGE ( 'NONE', *, *, #188, .T. ) ;
#87 = CARTESIAN_POINT ( 'NONE',  ( 72.42907593463128500, 10.00000000000000200, 3.999999999999997300 ) ) ;
#88 = CARTESIAN_POINT ( 'NONE',  ( 50.42907593463128500, -9.500000000000000000, -6.283481900601578300 ) ) ;
#89 = VECTOR ( 'NONE', #48, 1000.000000000000000 ) ;
#90 = ORIENTED_EDGE ( 'NONE', *, *, #2, .F. ) ;
#91 = VERTEX_POINT ( 'NONE', #60 ) ;
#92 = DIRECTION ( 'NONE',  ( -1.000000000000000000, 0.0000000000000000000, 0.0000000000000000000 ) ) ;
#93 = PRODUCT_DEFINITION ( 'UNKNOWN', '', #55, #277 ) ;
#94 = SHAPE_DEFINITION_REPRESENTATION ( #56, #235 ) ;
#95 = SURFACE_SIDE_STYLE ('',( #127 ) ) ;
#96 = LINE ( 'NONE', #87, #256 ) ;
#97 = ORIENTED_EDGE ( 'NONE', *, *, #31, .F. ) ;
#98 = LINE ( 'NONE', #112, #10 ) ;
#99 = ORIENTED_EDGE ( 'NONE', *, *, #23, .F. ) ;
#100 = CARTESIAN_POINT ( 'NONE',  ( 50.92907593463127100, 9.999999999999998200, 25.00000000000001100 ) ) ;
#101 = ORIENTED_EDGE ( 'NONE', *, *, #210, .T. ) ;
#102 =( NAMED_UNIT ( * ) PLANE_ANGLE_UNIT ( ) SI_UNIT ( $, .RADIAN. ) );
#103 = B_SPLINE_CURVE_WITH_KNOTS ( 'NONE', 3,
 ( #35, #83, #272, #138 ),
 .UNSPECIFIED., .F., .F.,
 ( 4, 4 ),
 ( 0.0000000000000000000, 1.000000000000000000 ),
 .UNSPECIFIED. ) ;
#104 = ORIENTED_EDGE ( 'NONE', *, *, #139, .F. ) ;
#105 = PRESENTATION_LAYER_ASSIGNMENT (  '', '', ( #178 ) ) ;
#106 = EDGE_CURVE ( 'NONE', #251, #134, #179, .T. ) ;
#107 = DIRECTION ( 'NONE',  ( 0.0000000000000000000, 1.000000000000000000, 0.0000000000000000000 ) ) ;
#108 = DIRECTION ( 'NONE',  ( 0.0000000000000000000, 0.0000000000000000000, 1.000000000000000000 ) ) ;
#109 = DIRECTION ( 'NONE',  ( 1.000000000000000000, -0.0000000000000000000, 0.0000000000000000000 ) ) ;
#110 = VECTOR ( 'NONE', #67, 1000.000000000000000 ) ;
#111 = ORIENTED_EDGE ( 'NONE', *, *, #59, .F. ) ;
#112 = CARTESIAN_POINT ( 'NONE',  ( 50.92907593463127800, -10.00000000000000900, 25.00000000000000700 ) ) ;
#113 = AXIS2_PLACEMENT_3D ( 'NONE', #176, #157, #160 ) ;
#114 = ADVANCED_FACE ( 'NONE', ( #217 ), #301, .F. ) ;
#115 = DIRECTION ( 'NONE',  ( -1.000000000000000000, 0.0000000000000000000, 0.0000000000000000000 ) ) ;
#116 =( NAMED_UNIT ( * ) PLANE_ANGLE_UNIT ( ) SI_UNIT ( $, .RADIAN. ) );
#117 = EDGE_CURVE ( 'NONE', #26, #279, #103, .T. ) ;
#118 = VERTEX_POINT ( 'NONE', #271 ) ;
#119 = DIRECTION ( 'NONE',  ( -1.000000000000000000, 0.0000000000000000000, 0.0000000000000000000 ) ) ;
#120 = DIRECTION ( 'NONE',  ( 0.0000000000000000000, 0.0000000000000000000, 1.000000000000000000 ) ) ;
#121 = FILL_AREA_STYLE ('',( #284 ) ) ;
#122 = VERTEX_POINT ( 'NONE', #269 ) ;
#123 = EDGE_CURVE ( 'NONE', #342, #118, #130, .T. ) ;
#124 =( NAMED_UNIT ( * ) PLANE_ANGLE_UNIT ( ) SI_UNIT ( $, .RADIAN. ) );
#125 = DIRECTION ( 'NONE',  ( 0.0000000000000000000, 0.0000000000000000000, 1.000000000000000000 ) ) ;
#126 =( NAMED_UNIT ( * ) SI_UNIT ( $, .STERADIAN. ) SOLID_ANGLE_UNIT ( ) );
#127 = SURFACE_STYLE_FILL_AREA ( #168 ) ;
#128 = VECTOR ( 'NONE', #13, 1000.000000000000000 ) ;
#129 = EDGE_CURVE ( 'NONE', #312, #77, #28, .T. ) ;
#130 = LINE ( 'NONE', #329, #213 ) ;
#131 = AXIS2_PLACEMENT_3D ( 'NONE', #278, #15, #172 ) ;
#132 = FACE_OUTER_BOUND ( 'NONE', #248, .T. ) ;
#133 = CIRCLE ( 'NONE', #156, 5.500000000000002700 ) ;
#134 = VERTEX_POINT ( 'NONE', #300 ) ;
#135 = DIRECTION ( 'NONE',  ( 0.0000000000000000000, 1.126518466761244500E-016, -1.000000000000000000 ) ) ;
#136 = DIRECTION ( 'NONE',  ( 0.7071067811865426900, -0.7071067811865524600, -0.0000000000000000000 ) ) ;
#137 = EDGE_LOOP ( 'NONE', ( #11, #151 ) ) ;
#138 = CARTESIAN_POINT ( 'NONE',  ( 50.92907593463127800, 10.00000000000000200, -5.797958971132721300 ) ) ;
#139 = EDGE_CURVE ( 'NONE', #279, #251, #196, .T. ) ;
#140 = CARTESIAN_POINT ( 'NONE',  ( 50.92907593463127800, -9.999999999999998200, -5.797958971132724800 ) ) ;
#141 = VECTOR ( 'NONE', #142, 1000.000000000000000 ) ;
#142 = DIRECTION ( 'NONE',  ( 0.0000000000000000000, 1.126518466761244500E-016, -1.000000000000000000 ) ) ;
#143 = VERTEX_POINT ( 'NONE', #88 ) ;
#144 = CARTESIAN_POINT ( 'NONE',  ( 50.42907593463128500, 6.442100848736361700E-016, 3.999999999999997300 ) ) ;
#145 = CARTESIAN_POINT ( 'NONE',  ( 50.42907593463128500, -2.602085213965210600E-015, 5.007417855406813200E-030 ) ) ;
#146 = CARTESIAN_POINT ( 'NONE',  ( 50.92907593463127800, 10.00000000000000200, -5.797958971132720400 ) ) ;
#147 = CIRCLE ( 'NONE', #252, 5.500000000000002700 ) ;
#148 = ORIENTED_EDGE ( 'NONE', *, *, #249, .T. ) ;
#149 = DIRECTION ( 'NONE',  ( 0.0000000000000000000, 0.0000000000000000000, 1.000000000000000000 ) ) ;
#150 = LINE ( 'NONE', #43, #110 ) ;
#151 = ORIENTED_EDGE ( 'NONE', *, *, #249, .F. ) ;
#152 = AXIS2_PLACEMENT_3D ( 'NONE', #331, #327, #246 ) ;
#153 = CARTESIAN_POINT ( 'NONE',  ( 72.42907593463128500, 9.999999999999998200, 25.00000000000000700 ) ) ;
#154 = CYLINDRICAL_SURFACE ( 'NONE', #280, 5.500000000000002700 ) ;
#155 = ORIENTED_EDGE ( 'NONE', *, *, #264, .T. ) ;
#156 = AXIS2_PLACEMENT_3D ( 'NONE', #265, #262, #215 ) ;
#157 = DIRECTION ( 'NONE',  ( 1.000000000000000000, -0.0000000000000000000, 0.0000000000000000000 ) ) ;
#158 = CIRCLE ( 'NONE', #193, 5.500000000000002700 ) ;
#159 = ORIENTED_EDGE ( 'NONE', *, *, #264, .F. ) ;
#160 = DIRECTION ( 'NONE',  ( 0.0000000000000000000, 0.0000000000000000000, -1.000000000000000000 ) ) ;
#161 = CARTESIAN_POINT ( 'NONE',  ( 50.92907593463127800, -10.00000000000000900, 25.00000000000000700 ) ) ;
#162 = CARTESIAN_POINT ( 'NONE',  ( 50.42907593463128500, 9.500000000000000000, 25.00000000000001100 ) ) ;
#163 = LINE ( 'NONE', #242, #58 ) ;
#164 = VERTEX_POINT ( 'NONE', #275 ) ;
#165 = DIRECTION ( 'NONE',  ( 0.0000000000000000000, -1.000000000000000000, -1.126518466761244500E-016 ) ) ;
#166 = LINE ( 'NONE', #228, #340 ) ;
#167 = ORIENTED_EDGE ( 'NONE', *, *, #323, .T. ) ;
#168 = FILL_AREA_STYLE ('',( #199 ) ) ;
#169 = ADVANCED_FACE ( 'NONE', ( #345 ), #20, .F. ) ;
#170 = CARTESIAN_POINT ( 'NONE',  ( 50.42907593463128500, -2.602085213965210600E-015, 5.007417855406813200E-030 ) ) ;
#171 = EDGE_CURVE ( 'NONE', #122, #143, #74, .T. ) ;
#172 = DIRECTION ( 'NONE',  ( 0.7071067811865421300, 0.7071067811865530100, 0.0000000000000000000 ) ) ;
#173 = EDGE_LOOP ( 'NONE', ( #90, #50, #148, #34 ) ) ;
#174 = ORIENTED_EDGE ( 'NONE', *, *, #184, .T. ) ;
#175 = PRODUCT_CONTEXT ( 'NONE', #255, 'mechanical' ) ;
#176 = CARTESIAN_POINT ( 'NONE',  ( 72.42907593463128500, 6.442100848736361700E-016, 3.999999999999997300 ) ) ;
#177 =( LENGTH_UNIT ( ) NAMED_UNIT ( * ) SI_UNIT ( .MILLI., .METRE. ) );
#178 = STYLED_ITEM ( 'NONE', ( #49 ), #268 ) ;
#179 = CIRCLE ( 'NONE', #78, 14.00000000000000500 ) ;
#180 = ORIENTED_EDGE ( 'NONE', *, *, #346, .T. ) ;
#181 = CARTESIAN_POINT ( 'NONE',  ( 72.42907593463128500, -2.602085213965210600E-015, 5.007417855406813200E-030 ) ) ;
#182 = PRODUCT ( '1702.730', '1702.730', '', ( #175 ) ) ;
#183 = CYLINDRICAL_SURFACE ( 'NONE', #152, 14.00000000000000500 ) ;
#184 = EDGE_CURVE ( 'NONE', #143, #26, #330, .T. ) ;
#185 = VECTOR ( 'NONE', #317, 1000.000000000000000 ) ;
#186 = EDGE_LOOP ( 'NONE', ( #66, #209, #54, #216, #223, #325 ) ) ;
#187 = ORIENTED_EDGE ( 'NONE', *, *, #117, .F. ) ;
#188 = EDGE_CURVE ( 'NONE', #91, #73, #68, .T. ) ;
#189 = DIRECTION ( 'NONE',  ( -0.7071067811865421300, -0.7071067811865530100, -0.0000000000000000000 ) ) ;
#190 = DIRECTION ( 'NONE',  ( 1.000000000000000000, -0.0000000000000000000, -0.0000000000000000000 ) ) ;
#191 = SURFACE_STYLE_FILL_AREA ( #121 ) ;
#192 = ORIENTED_EDGE ( 'NONE', *, *, #303, .T. ) ;
#193 = AXIS2_PLACEMENT_3D ( 'NONE', #181, #205, #149 ) ;
#194 = CARTESIAN_POINT ( 'NONE',  ( 50.42907593463128500, 6.442100848736361700E-016, 3.999999999999997300 ) ) ;
#195 = CARTESIAN_POINT ( 'NONE',  ( 50.60119535633644000, -9.672119421705151200, -6.124475980038494200 ) ) ;
#196 = LINE ( 'NONE', #37, #211 ) ;
#197 = VECTOR ( 'NONE', #136, 1000.000000000000000 ) ;
#198 = PLANE ( 'NONE',  #334 ) ;
#199 = FILL_AREA_STYLE_COLOUR ( '', #38 ) ;
#200 = DIRECTION ( 'NONE',  ( -0.7071067811865426900, 0.7071067811865524600, 0.0000000000000000000 ) ) ;
#201 = CARTESIAN_POINT ( 'NONE',  ( 72.42907593463128500, -1.928529474434166100E-015, -5.500000000000002700 ) ) ;
#202 = VECTOR ( 'NONE', #71, 1000.000000000000000 ) ;
#203 = ORIENTED_EDGE ( 'NONE', *, *, #129, .T. ) ;
#204 = DIRECTION ( 'NONE',  ( -0.0000000000000000000, -0.0000000000000000000, 1.000000000000000000 ) ) ;
#205 = DIRECTION ( 'NONE',  ( -1.000000000000000000, 0.0000000000000000000, 0.0000000000000000000 ) ) ;
#206 = AXIS2_PLACEMENT_3D ( 'NONE', #153, #316, #234 ) ;
#207 = ORIENTED_EDGE ( 'NONE', *, *, #117, .T. ) ;
#208 = CARTESIAN_POINT ( 'NONE',  ( 72.42907593463128500, -10.00000000000000900, 25.00000000000000700 ) ) ;
#209 = ORIENTED_EDGE ( 'NONE', *, *, #23, .T. ) ;
#210 = EDGE_CURVE ( 'NONE', #73, #118, #147, .T. ) ;
#211 = VECTOR ( 'NONE', #190, 1000.000000000000000 ) ;
#212 = PRESENTATION_LAYER_ASSIGNMENT (  '', '', ( #326 ) ) ;
#213 = VECTOR ( 'NONE', #12, 1000.000000000000000 ) ;
#214 = ORIENTED_EDGE ( 'NONE', *, *, #323, .F. ) ;
#215 = DIRECTION ( 'NONE',  ( 0.0000000000000000000, 0.0000000000000000000, 1.000000000000000000 ) ) ;
#216 = ORIENTED_EDGE ( 'NONE', *, *, #315, .F. ) ;
#217 = FACE_OUTER_BOUND ( 'NONE', #311, .T. ) ;
#218 = ORIENTED_EDGE ( 'NONE', *, *, #123, .F. ) ;
#219 = DIRECTION ( 'NONE',  ( -1.000000000000000000, 0.0000000000000000000, 0.0000000000000000000 ) ) ;
#220 = PLANE ( 'NONE',  #14 ) ;
#221 = ORIENTED_EDGE ( 'NONE', *, *, #2, .T. ) ;
#222 = ADVANCED_FACE ( 'NONE', ( #321 ), #154, .F. ) ;
#223 = ORIENTED_EDGE ( 'NONE', *, *, #290, .F. ) ;
#224 = ADVANCED_FACE ( 'NONE', ( #132 ), #226, .F. ) ;
#225 = SURFACE_STYLE_USAGE ( .BOTH. , #95 ) ;
#226 = PLANE ( 'NONE',  #131 ) ;
#227 = ORIENTED_EDGE ( 'NONE', *, *, #289, .F. ) ;
#228 = CARTESIAN_POINT ( 'NONE',  ( 50.42907593463128500, 9.500000000000005300, 3.999999999999997300 ) ) ;
#229 = APPLICATION_PROTOCOL_DEFINITION ( 'draft international standard', 'automotive_design', 1998, #22 ) ;
#230 = PLANE ( 'NONE',  #241 ) ;
#231 = PRODUCT_RELATED_PRODUCT_CATEGORY ( 'part', '', ( #182 ) ) ;
#232 = SURFACE_SIDE_STYLE ('',( #191 ) ) ;
#233 = ORIENTED_EDGE ( 'NONE', *, *, #171, .F. ) ;
#234 = DIRECTION ( 'NONE',  ( -1.000000000000000000, 0.0000000000000000000, -0.0000000000000000000 ) ) ;
#235 = ADVANCED_BREP_SHAPE_REPRESENTATION ( '1702.730', ( #268, #273 ), #318 ) ;
#236 = AXIS2_PLACEMENT_3D ( 'NONE', #144, #18, #120 ) ;
#237 = ORIENTED_EDGE ( 'NONE', *, *, #106, .T. ) ;
#238 = ORIENTED_EDGE ( 'NONE', *, *, #259, .F. ) ;
#239 = LINE ( 'NONE', #146, #141 ) ;
#240 = LINE ( 'NONE', #64, #128 ) ;
#241 = AXIS2_PLACEMENT_3D ( 'NONE', #208, #24, #258 ) ;
#242 = CARTESIAN_POINT ( 'NONE',  ( 50.92907593463127800, 10.00000000000000000, 25.00000000000002100 ) ) ;
#243 = CARTESIAN_POINT ( 'NONE',  ( 50.42907593463128500, -2.602085213965210600E-015, 5.500000000000002700 ) ) ;
#244 = ORIENTED_EDGE ( 'NONE', *, *, #259, .T. ) ;
#245 = DIRECTION ( 'NONE',  ( -0.0000000000000000000, -0.0000000000000000000, 1.000000000000000000 ) ) ;
#246 = DIRECTION ( 'NONE',  ( 0.0000000000000000000, 0.0000000000000000000, 1.000000000000000000 ) ) ;
#247 = VECTOR ( 'NONE', #107, 1000.000000000000000 ) ;
#248 = EDGE_LOOP ( 'NONE', ( #299, #244, #187, #180 ) ) ;
#249 = EDGE_CURVE ( 'NONE', #118, #73, #79, .T. ) ;
#250 = DIRECTION ( 'NONE',  ( 1.000000000000000000, -0.0000000000000000000, 0.0000000000000000000 ) ) ;
#251 = VERTEX_POINT ( 'NONE', #338 ) ;
#252 = AXIS2_PLACEMENT_3D ( 'NONE', #145, #92, #309 ) ;
#253 = CARTESIAN_POINT ( 'NONE',  ( 50.42907593463128500, -9.500000000000000000, -6.283481900601578300 ) ) ;
#254 = AXIS2_PLACEMENT_3D ( 'NONE', #8, #165, #135 ) ;
#255 = APPLICATION_CONTEXT ( 'automotive_design' ) ;
#256 = VECTOR ( 'NONE', #245, 1000.000000000000000 ) ;
#257 = FACE_BOUND ( 'NONE', #294, .T. ) ;
#258 = DIRECTION ( 'NONE',  ( 0.0000000000000000000, -3.379555400283732900E-016, 1.000000000000000000 ) ) ;
#259 = EDGE_CURVE ( 'NONE', #319, #279, #239, .T. ) ;
#260 = FACE_OUTER_BOUND ( 'NONE', #186, .T. ) ;
#261 = ORIENTED_EDGE ( 'NONE', *, *, #346, .F. ) ;
#262 = DIRECTION ( 'NONE',  ( -1.000000000000000000, 0.0000000000000000000, 0.0000000000000000000 ) ) ;
#263 =( GEOMETRIC_REPRESENTATION_CONTEXT ( 3 ) GLOBAL_UNCERTAINTY_ASSIGNED_CONTEXT ( ( #310 ) ) GLOBAL_UNIT_ASSIGNED_CONTEXT ( ( #281, #116, #313 ) ) REPRESENTATION_CONTEXT ( 'NONE', 'WORKASPACE' ) );
#264 = EDGE_CURVE ( 'NONE', #16, #134, #150, .T. ) ;
#265 = CARTESIAN_POINT ( 'NONE',  ( 72.42907593463128500, -2.602085213965210600E-015, 5.007417855406813200E-030 ) ) ;
#266 = COLOUR_RGB ( '',0.7529411764705882200, 0.7529411764705882200, 0.7529411764705882200 ) ;
#267 = FACE_OUTER_BOUND ( 'NONE', #81, .T. ) ;
#268 = MANIFOLD_SOLID_BREP ( 'NONE', #336 ) ;
#269 = CARTESIAN_POINT ( 'NONE',  ( 50.92907593463127800, -9.999999999999998200, -5.797958971132724800 ) ) ;
#270 = MECHANICAL_DESIGN_GEOMETRIC_PRESENTATION_REPRESENTATION (  '', ( #178 ), #263 ) ;
#271 = CARTESIAN_POINT ( 'NONE',  ( 50.42907593463128500, -1.928529474434166100E-015, -5.500000000000002700 ) ) ;
#272 = CARTESIAN_POINT ( 'NONE',  ( 50.76786202300318300, 9.838786088371898900, -5.962497230685635000 ) ) ;
#273 = AXIS2_PLACEMENT_3D ( 'NONE', #51, #125, #339 ) ;
#274 = FACE_OUTER_BOUND ( 'NONE', #33, .T. ) ;
#275 = CARTESIAN_POINT ( 'NONE',  ( 50.92907593463127800, -10.00000000000000900, 25.00000000000000700 ) ) ;
#276 = ADVANCED_FACE ( 'NONE', ( #274 ), #198, .F. ) ;
#277 = PRODUCT_DEFINITION_CONTEXT ( 'detailed design', #22, 'design' ) ;
#278 = CARTESIAN_POINT ( 'NONE',  ( 50.92907593463127800, 10.00000000000000200, -5.797958971132720400 ) ) ;
#279 = VERTEX_POINT ( 'NONE', #337 ) ;
#280 = AXIS2_PLACEMENT_3D ( 'NONE', #39, #119, #335 ) ;
#281 =( LENGTH_UNIT ( ) NAMED_UNIT ( * ) SI_UNIT ( .MILLI., .METRE. ) );
#282 = LINE ( 'NONE', #332, #3 ) ;
#283 = EDGE_LOOP ( 'NONE', ( #293, #192, #203, #261 ) ) ;
#284 = FILL_AREA_STYLE_COLOUR ( '', #266 ) ;
#285 = SURFACE_STYLE_USAGE ( .BOTH. , #232 ) ;
#286 = CARTESIAN_POINT ( 'NONE',  ( 50.42907593463127800, -9.500000000000003600, 25.00000000000000700 ) ) ;
#287 = FACE_BOUND ( 'NONE', #137, .T. ) ;
#288 = EDGE_LOOP ( 'NONE', ( #25, #155, #75, #69 ) ) ;
#289 = EDGE_CURVE ( 'NONE', #122, #164, #98, .T. ) ;
#290 = EDGE_CURVE ( 'NONE', #319, #53, #282, .T. ) ;
#291 = ORIENTED_EDGE ( 'NONE', *, *, #171, .T. ) ;
#292 = LINE ( 'NONE', #70, #202 ) ;
#293 = ORIENTED_EDGE ( 'NONE', *, *, #184, .F. ) ;
#294 = EDGE_LOOP ( 'NONE', ( #17, #221 ) ) ;
#295 = AXIS2_PLACEMENT_3D ( 'NONE', #170, #115, #306 ) ;
#296 = UNCERTAINTY_MEASURE_WITH_UNIT (LENGTH_MEASURE( 1.000000000000000100E-005 ), #47, 'distance_accuracy_value', 'NONE');
#297 = DIRECTION ( 'NONE',  ( -1.000000000000000000, 0.0000000000000000000, 0.0000000000000000000 ) ) ;
#298 = VECTOR ( 'NONE', #42, 1000.000000000000000 ) ;
#299 = ORIENTED_EDGE ( 'NONE', *, *, #29, .F. ) ;
#300 = CARTESIAN_POINT ( 'NONE',  ( 72.42907593463128500, -9.999999999999998200, -5.797958971132722200 ) ) ;
#301 = PLANE ( 'NONE',  #254 ) ;
#302 = CARTESIAN_POINT ( 'NONE',  ( 72.42907593463128500, 10.00000000000000000, 25.00000000000000700 ) ) ;
#303 = EDGE_CURVE ( 'NONE', #143, #312, #57, .T. ) ;
#304 = LINE ( 'NONE', #343, #89 ) ;
#305 = DIRECTION ( 'NONE',  ( 0.0000000000000000000, -3.379555400283732900E-016, 1.000000000000000000 ) ) ;
#306 = DIRECTION ( 'NONE',  ( 0.0000000000000000000, 0.0000000000000000000, 1.000000000000000000 ) ) ;
#307 = ADVANCED_FACE ( 'NONE', ( #260 ), #52, .F. ) ;
#308 = EDGE_CURVE ( 'NONE', #91, #342, #158, .T. ) ;
#309 = DIRECTION ( 'NONE',  ( 0.0000000000000000000, 0.0000000000000000000, 1.000000000000000000 ) ) ;
#310 = UNCERTAINTY_MEASURE_WITH_UNIT (LENGTH_MEASURE( 1.000000000000000100E-005 ), #281, 'distance_accuracy_value', 'NONE');
#311 = EDGE_LOOP ( 'NONE', ( #63, #111, #104, #238 ) ) ;
#312 = VERTEX_POINT ( 'NONE', #286 ) ;
#313 =( NAMED_UNIT ( * ) SI_UNIT ( $, .STERADIAN. ) SOLID_ANGLE_UNIT ( ) );
#314 = APPLICATION_PROTOCOL_DEFINITION ( 'draft international standard', 'automotive_design', 1998, #255 ) ;
#315 = EDGE_CURVE ( 'NONE', #53, #16, #304, .T. ) ;
#316 = DIRECTION ( 'NONE',  ( 0.0000000000000000000, 0.0000000000000000000, -1.000000000000000000 ) ) ;
#317 = DIRECTION ( 'NONE',  ( -1.689777700141866500E-016, -1.689777700141843300E-016, 1.000000000000000000 ) ) ;
#318 =( GEOMETRIC_REPRESENTATION_CONTEXT ( 3 ) GLOBAL_UNCERTAINTY_ASSIGNED_CONTEXT ( ( #296 ) ) GLOBAL_UNIT_ASSIGNED_CONTEXT ( ( #47, #102, #126 ) ) REPRESENTATION_CONTEXT ( 'NONE', 'WORKASPACE' ) );
#319 = VERTEX_POINT ( 'NONE', #100 ) ;
#320 = CARTESIAN_POINT ( 'NONE',  ( 72.42907593463128500, -10.00000000000000900, 25.00000000000000700 ) ) ;
#321 = FACE_OUTER_BOUND ( 'NONE', #4, .T. ) ;
#322 = UNCERTAINTY_MEASURE_WITH_UNIT (LENGTH_MEASURE( 1.000000000000000100E-005 ), #177, 'distance_accuracy_value', 'NONE');
#323 = EDGE_CURVE ( 'NONE', #134, #122, #292, .T. ) ;
#324 = FACE_OUTER_BOUND ( 'NONE', #283, .T. ) ;
#325 = ORIENTED_EDGE ( 'NONE', *, *, #29, .T. ) ;
#326 = STYLED_ITEM ( 'NONE', ( #84 ), #235 ) ;
#327 = DIRECTION ( 'NONE',  ( -1.000000000000000000, 0.0000000000000000000, 0.0000000000000000000 ) ) ;
#328 = CARTESIAN_POINT ( 'NONE',  ( 72.42907593463128500, -2.602085213965210600E-015, 5.007417855406813200E-030 ) ) ;
#329 = CARTESIAN_POINT ( 'NONE',  ( 72.42907593463128500, -1.928529474434166100E-015, -5.500000000000002700 ) ) ;
#330 = CIRCLE ( 'NONE', #236, 14.00000000000000500 ) ;
#331 = CARTESIAN_POINT ( 'NONE',  ( 72.42907593463128500, 6.442100848736361700E-016, 3.999999999999997300 ) ) ;
#332 = CARTESIAN_POINT ( 'NONE',  ( 72.42907593463128500, 9.999999999999998200, 25.00000000000000700 ) ) ;
#333 = ADVANCED_FACE ( 'NONE', ( #62 ), #230, .F. ) ;
#334 = AXIS2_PLACEMENT_3D ( 'NONE', #45, #19, #200 ) ;
#335 = DIRECTION ( 'NONE',  ( 0.0000000000000000000, 0.0000000000000000000, 1.000000000000000000 ) ) ;
#336 = CLOSED_SHELL ( 'NONE', ( #169, #333, #276, #41, #7, #307, #65, #114, #222, #224 ) ) ;
#337 = CARTESIAN_POINT ( 'NONE',  ( 50.92907593463127800, 10.00000000000000200, -5.797958971132721300 ) ) ;
#338 = CARTESIAN_POINT ( 'NONE',  ( 72.42907593463128500, 10.00000000000000200, -5.797958971132721300 ) ) ;
#339 = DIRECTION ( 'NONE',  ( 1.000000000000000000, 0.0000000000000000000, 0.0000000000000000000 ) ) ;
#340 = VECTOR ( 'NONE', #204, 1000.000000000000000 ) ;
#341 = PLANE ( 'NONE',  #113 ) ;
#342 = VERTEX_POINT ( 'NONE', #201 ) ;
#343 = CARTESIAN_POINT ( 'NONE',  ( 72.42907593463128500, 6.442100848736361700E-016, 25.00000000000000700 ) ) ;
#344 = CARTESIAN_POINT ( 'NONE',  ( 50.42907593463127800, -9.500000000000003600, 25.00000000000000700 ) ) ;
#345 = FACE_OUTER_BOUND ( 'NONE', #173, .T. ) ;
#346 = EDGE_CURVE ( 'NONE', #26, #77, #166, .T. ) ;
ENDSEC;
END-ISO-10303-21;
