ISO-10303-21;
HEADER;
FILE_DESCRIPTION(('STEP AP214'),'1');
FILE_NAME(' ','  ',('TraceParts'),('TraceParts S.A.'),'XStep 1.0',' ',' ');
FILE_SCHEMA(('automotive_design'));
ENDSEC;
DATA;
#1=MECHANICAL_DESIGN_GEOMETRIC_PRESENTATION_REPRESENTATION(' ',(#10,#11,#12,#13,#14,#15,#16,#17,#18,#19,#20,#21,#22,#23,#24,#25,#26,#27,#28,#29,#30,#31,#32,#33,#34,#35,#36,#37,#38,#39,#40,#41,#42,#43,#44,#45,#46,#47,#48,#49,#50,#51,#52,#53,#54,#55,#56,#57),#6);
#2=PRODUCT_DEFINITION_CONTEXT('',#58,'design');
#3=APPLICATION_PROTOCOL_DEFINITION('INTERNATIONAL STANDARD','automotive_design',1994,#58);
#4=PRODUCT_CATEGORY_RELATIONSHIP('NONE','NONE',#59,#60);
#5=SHAPE_DEFINITION_REPRESENTATION(#61,#62);
#6= (GEOMETRIC_REPRESENTATION_CONTEXT(3)GLOBAL_UNCERTAINTY_ASSIGNED_CONTEXT((#65))GLOBAL_UNIT_ASSIGNED_CONTEXT((#67,#68,#69))REPRESENTATION_CONTEXT('NONE','WORKSPACE'));
#10=STYLED_ITEM('',(#71),#72);
#11=STYLED_ITEM('',(#73),#74);
#12=STYLED_ITEM('',(#75),#76);
#13=STYLED_ITEM('',(#77),#78);
#14=STYLED_ITEM('',(#79),#80);
#15=STYLED_ITEM('',(#81),#82);
#16=STYLED_ITEM('',(#83),#84);
#17=STYLED_ITEM('',(#85),#86);
#18=STYLED_ITEM('',(#87),#88);
#19=STYLED_ITEM('',(#89),#90);
#20=STYLED_ITEM('',(#91),#92);
#21=STYLED_ITEM('',(#93),#94);
#22=STYLED_ITEM('',(#95),#96);
#23=STYLED_ITEM('',(#97),#98);
#24=STYLED_ITEM('',(#99),#100);
#25=STYLED_ITEM('',(#101),#102);
#26=STYLED_ITEM('',(#103),#104);
#27=STYLED_ITEM('',(#105),#106);
#28=STYLED_ITEM('',(#107),#108);
#29=STYLED_ITEM('',(#109),#110);
#30=STYLED_ITEM('',(#111),#112);
#31=STYLED_ITEM('',(#113),#114);
#32=STYLED_ITEM('',(#115),#116);
#33=STYLED_ITEM('',(#117),#118);
#34=STYLED_ITEM('',(#119),#120);
#35=STYLED_ITEM('',(#121),#122);
#36=STYLED_ITEM('',(#123),#124);
#37=STYLED_ITEM('',(#125),#126);
#38=STYLED_ITEM('',(#127),#128);
#39=STYLED_ITEM('',(#129),#130);
#40=STYLED_ITEM('',(#131),#132);
#41=STYLED_ITEM('',(#133),#134);
#42=STYLED_ITEM('',(#135),#136);
#43=STYLED_ITEM('',(#137),#138);
#44=STYLED_ITEM('',(#139),#140);
#45=STYLED_ITEM('',(#141),#142);
#46=STYLED_ITEM('',(#143),#144);
#47=STYLED_ITEM('',(#145),#146);
#48=STYLED_ITEM('',(#147),#148);
#49=STYLED_ITEM('',(#149),#150);
#50=STYLED_ITEM('',(#151),#152);
#51=STYLED_ITEM('',(#153),#154);
#52=STYLED_ITEM('',(#155),#156);
#53=STYLED_ITEM('',(#157),#158);
#54=STYLED_ITEM('',(#159),#160);
#55=STYLED_ITEM('',(#161),#162);
#56=STYLED_ITEM('',(#163),#164);
#57=STYLED_ITEM('',(#165),#166);
#58=APPLICATION_CONTEXT(' ');
#59=PRODUCT_CATEGORY('part','NONE');
#60=PRODUCT_RELATED_PRODUCT_CATEGORY('detail',' ',(#167));
#61=PRODUCT_DEFINITION_SHAPE('NONE','NONE',#168);
#62=ADVANCED_BREP_SHAPE_REPRESENTATION('1',(#124,#169),#6);
#65=UNCERTAINTY_MEASURE_WITH_UNIT(LENGTH_MEASURE(1.0E-006),#67,'','');
#67= (CONVERSION_BASED_UNIT('MILLIMETRE',#172)LENGTH_UNIT()NAMED_UNIT(#175));
#68= (NAMED_UNIT(#177)PLANE_ANGLE_UNIT()SI_UNIT($,.RADIAN.));
#69= (NAMED_UNIT(#177)SOLID_ANGLE_UNIT()SI_UNIT($,.STERADIAN.));
#71=PRESENTATION_STYLE_ASSIGNMENT((#183));
#72=ADVANCED_FACE('',(#184,#185),#186,.T.);
#73=PRESENTATION_STYLE_ASSIGNMENT((#187));
#74=VERTEX_POINT('',#188);
#75=PRESENTATION_STYLE_ASSIGNMENT((#189));
#76=ADVANCED_FACE('',(#190,#191),#192,.T.);
#77=PRESENTATION_STYLE_ASSIGNMENT((#193));
#78=VERTEX_POINT('',#194);
#79=PRESENTATION_STYLE_ASSIGNMENT((#195));
#80=EDGE_CURVE('',#156,#112,#196,.T.);
#81=PRESENTATION_STYLE_ASSIGNMENT((#197));
#82=EDGE_CURVE('',#134,#146,#198,.T.);
#83=PRESENTATION_STYLE_ASSIGNMENT((#199));
#84=EDGE_CURVE('',#74,#152,#200,.T.);
#85=PRESENTATION_STYLE_ASSIGNMENT((#201));
#86=EDGE_CURVE('',#100,#166,#202,.T.);
#87=PRESENTATION_STYLE_ASSIGNMENT((#203));
#88=EDGE_CURVE('',#74,#136,#204,.T.);
#89=PRESENTATION_STYLE_ASSIGNMENT((#205));
#90=ADVANCED_FACE('',(#206),#207,.F.);
#91=PRESENTATION_STYLE_ASSIGNMENT((#208));
#92=EDGE_CURVE('',#142,#116,#209,.T.);
#93=PRESENTATION_STYLE_ASSIGNMENT((#210));
#94=EDGE_CURVE('',#134,#162,#211,.T.);
#95=PRESENTATION_STYLE_ASSIGNMENT((#212));
#96=EDGE_CURVE('',#116,#142,#213,.T.);
#97=PRESENTATION_STYLE_ASSIGNMENT((#214));
#98=ADVANCED_FACE('',(#215),#216,.T.);
#99=PRESENTATION_STYLE_ASSIGNMENT((#217));
#100=VERTEX_POINT('',#218);
#101=PRESENTATION_STYLE_ASSIGNMENT((#219));
#102=EDGE_CURVE('',#152,#74,#220,.T.);
#103=PRESENTATION_STYLE_ASSIGNMENT((#221));
#104=VERTEX_POINT('',#222);
#105=PRESENTATION_STYLE_ASSIGNMENT((#223));
#106=ADVANCED_FACE('',(#224),#225,.T.);
#107=PRESENTATION_STYLE_ASSIGNMENT((#226));
#108=EDGE_CURVE('',#146,#134,#227,.T.);
#109=PRESENTATION_STYLE_ASSIGNMENT((#228));
#110=ADVANCED_FACE('',(#229),#230,.T.);
#111=PRESENTATION_STYLE_ASSIGNMENT((#231));
#112=VERTEX_POINT('',#232);
#113=PRESENTATION_STYLE_ASSIGNMENT((#233));
#114=ADVANCED_FACE('',(#234),#235,.F.);
#115=PRESENTATION_STYLE_ASSIGNMENT((#236));
#116=VERTEX_POINT('',#237);
#117=PRESENTATION_STYLE_ASSIGNMENT((#238));
#118=ADVANCED_FACE('',(#239),#240,.F.);
#119=PRESENTATION_STYLE_ASSIGNMENT((#241));
#120=EDGE_CURVE('',#112,#156,#242,.T.);
#121=PRESENTATION_STYLE_ASSIGNMENT((#243));
#122=EDGE_CURVE('',#116,#112,#244,.T.);
#123=PRESENTATION_STYLE_ASSIGNMENT((#245));
#124=MANIFOLD_SOLID_BREP('1',#246);
#125=PRESENTATION_STYLE_ASSIGNMENT((#247));
#126=EDGE_CURVE('',#78,#104,#248,.T.);
#127=PRESENTATION_STYLE_ASSIGNMENT((#249));
#128=EDGE_CURVE('',#78,#100,#250,.T.);
#129=PRESENTATION_STYLE_ASSIGNMENT((#251));
#130=EDGE_CURVE('',#162,#152,#252,.T.);
#131=PRESENTATION_STYLE_ASSIGNMENT((#253));
#132=EDGE_CURVE('',#156,#142,#254,.T.);
#133=PRESENTATION_STYLE_ASSIGNMENT((#255));
#134=VERTEX_POINT('',#256);
#135=PRESENTATION_STYLE_ASSIGNMENT((#257));
#136=VERTEX_POINT('',#258);
#137=PRESENTATION_STYLE_ASSIGNMENT((#259));
#138=ADVANCED_FACE('',(#260),#261,.F.);
#139=PRESENTATION_STYLE_ASSIGNMENT((#262));
#140=EDGE_CURVE('',#162,#136,#263,.T.);
#141=PRESENTATION_STYLE_ASSIGNMENT((#264));
#142=VERTEX_POINT('',#265);
#143=PRESENTATION_STYLE_ASSIGNMENT((#266));
#144=ADVANCED_FACE('',(#267,#268),#269,.T.);
#145=PRESENTATION_STYLE_ASSIGNMENT((#270));
#146=VERTEX_POINT('',#271);
#147=PRESENTATION_STYLE_ASSIGNMENT((#272));
#148=EDGE_CURVE('',#136,#162,#273,.T.);
#149=PRESENTATION_STYLE_ASSIGNMENT((#274));
#150=EDGE_CURVE('',#104,#78,#275,.T.);
#151=PRESENTATION_STYLE_ASSIGNMENT((#276));
#152=VERTEX_POINT('',#277);
#153=PRESENTATION_STYLE_ASSIGNMENT((#278));
#154=EDGE_CURVE('',#166,#100,#279,.T.);
#155=PRESENTATION_STYLE_ASSIGNMENT((#280));
#156=VERTEX_POINT('',#281);
#157=PRESENTATION_STYLE_ASSIGNMENT((#282));
#158=EDGE_CURVE('',#136,#146,#283,.T.);
#159=PRESENTATION_STYLE_ASSIGNMENT((#284));
#160=EDGE_CURVE('',#166,#104,#285,.T.);
#161=PRESENTATION_STYLE_ASSIGNMENT((#286));
#162=VERTEX_POINT('',#287);
#163=PRESENTATION_STYLE_ASSIGNMENT((#288));
#164=ADVANCED_FACE('',(#289),#290,.T.);
#165=PRESENTATION_STYLE_ASSIGNMENT((#291));
#166=VERTEX_POINT('',#292);
#167=PRODUCT('1','1','PART-1-DESC',(#293));
#168=PRODUCT_DEFINITION('NONE','NONE',#294,#2);
#169=AXIS2_PLACEMENT_3D('',#295,#296,#297);
#172=LENGTH_MEASURE_WITH_UNIT(LENGTH_MEASURE(1.0),#298);
#175=DIMENSIONAL_EXPONENTS(1.0,0.0,0.0,0.0,0.0,0.0,0.0);
#177=DIMENSIONAL_EXPONENTS(0.0,0.0,0.0,0.0,0.0,0.0,0.0);
#183=SURFACE_STYLE_USAGE(.BOTH.,#299);
#184=FACE_OUTER_BOUND('',#300,.T.);
#185=FACE_BOUND('',#301,.T.);
#186=PLANE('',#302);
#187=POINT_STYLE(' ',#303,POSITIVE_LENGTH_MEASURE(1.0E-006),#304);
#188=CARTESIAN_POINT('',(23.0,1.03054884599067E-014,90.0));
#189=SURFACE_STYLE_USAGE(.BOTH.,#305);
#190=FACE_OUTER_BOUND('',#306,.T.);
#191=FACE_BOUND('',#307,.T.);
#192=PLANE('',#308);
#193=POINT_STYLE(' ',#309,POSITIVE_LENGTH_MEASURE(1.0E-006),#310);
#194=CARTESIAN_POINT('',(13.0,9.08088210608429E-015,90.0));
#195=CURVE_STYLE('',#311,POSITIVE_LENGTH_MEASURE(1.0E-006),#312);
#196=CIRCLE('',#313,8.0);
#197=CURVE_STYLE('',#314,POSITIVE_LENGTH_MEASURE(1.0E-006),#315);
#198=CIRCLE('',#316,25.0);
#199=CURVE_STYLE('',#317,POSITIVE_LENGTH_MEASURE(1.0E-006),#318);
#200=CIRCLE('',#319,23.0);
#201=CURVE_STYLE('',#320,POSITIVE_LENGTH_MEASURE(1.0E-006),#321);
#202=CIRCLE('',#322,13.0);
#203=CURVE_STYLE('',#323,POSITIVE_LENGTH_MEASURE(1.0E-006),#324);
#204=LINE('',#325,#326);
#205=SURFACE_STYLE_USAGE(.BOTH.,#327);
#206=FACE_OUTER_BOUND('',#328,.T.);
#207=CYLINDRICAL_SURFACE('',#329,8.0);
#208=CURVE_STYLE('',#330,POSITIVE_LENGTH_MEASURE(1.0E-006),#331);
#209=CIRCLE('',#332,8.0);
#210=CURVE_STYLE('',#333,POSITIVE_LENGTH_MEASURE(1.0E-006),#334);
#211=LINE('',#335,#336);
#212=CURVE_STYLE('',#337,POSITIVE_LENGTH_MEASURE(1.0E-006),#338);
#213=CIRCLE('',#339,8.0);
#214=SURFACE_STYLE_USAGE(.BOTH.,#340);
#215=FACE_OUTER_BOUND('',#341,.T.);
#216=CYLINDRICAL_SURFACE('',#342,25.0);
#217=POINT_STYLE(' ',#343,POSITIVE_LENGTH_MEASURE(1.0E-006),#344);
#218=CARTESIAN_POINT('',(13.0,5.03968113847045E-015,24.0));
#219=CURVE_STYLE('',#345,POSITIVE_LENGTH_MEASURE(1.0E-006),#346);
#220=CIRCLE('',#347,23.0);
#221=POINT_STYLE(' ',#348,POSITIVE_LENGTH_MEASURE(1.0E-006),#349);
#222=CARTESIAN_POINT('',(-13.0,7.1670498579362E-015,90.0));
#223=SURFACE_STYLE_USAGE(.BOTH.,#350);
#224=FACE_OUTER_BOUND('',#351,.T.);
#225=CONICAL_SURFACE('',#352,24.0,0.785398163397448);
#226=CURVE_STYLE('',#353,POSITIVE_LENGTH_MEASURE(1.0E-006),#354);
#227=CIRCLE('',#355,25.0);
#228=SURFACE_STYLE_USAGE(.BOTH.,#356);
#229=FACE_OUTER_BOUND('',#357,.T.);
#230=CONICAL_SURFACE('',#358,24.0,0.785398163397448);
#231=POINT_STYLE(' ',#359,POSITIVE_LENGTH_MEASURE(1.0E-006),#360);
#232=CARTESIAN_POINT('',(-7.99999999999997,7.29083600723582E-015,24.0));
#233=SURFACE_STYLE_USAGE(.BOTH.,#361);
#234=FACE_OUTER_BOUND('',#362,.T.);
#235=CYLINDRICAL_SURFACE('',#363,8.0);
#236=POINT_STYLE(' ',#364,POSITIVE_LENGTH_MEASURE(1.0E-006),#365);
#237=CARTESIAN_POINT('',(-7.99999999999997,7.29083600723582E-015,-4.2632564145606E-014));
#238=SURFACE_STYLE_USAGE(.BOTH.,#366);
#239=FACE_OUTER_BOUND('',#367,.T.);
#240=CYLINDRICAL_SURFACE('',#368,13.0);
#241=CURVE_STYLE('',#369,POSITIVE_LENGTH_MEASURE(1.0E-006),#370);
#242=CIRCLE('',#371,8.0);
#243=CURVE_STYLE('',#372,POSITIVE_LENGTH_MEASURE(1.0E-006),#373);
#244=LINE('',#374,#375);
#245=SURFACE_STYLE_USAGE(.BOTH.,#376);
#246=CLOSED_SHELL('',(#98,#106,#138,#90,#144,#114,#72,#118,#76,#110,#164));
#247=CURVE_STYLE('',#377,POSITIVE_LENGTH_MEASURE(1.0E-006),#378);
#248=CIRCLE('',#379,13.0);
#249=CURVE_STYLE('',#380,POSITIVE_LENGTH_MEASURE(1.0E-006),#381);
#250=LINE('',#382,#383);
#251=CURVE_STYLE('',#384,POSITIVE_LENGTH_MEASURE(1.0E-006),#385);
#252=LINE('',#386,#387);
#253=CURVE_STYLE('',#388,POSITIVE_LENGTH_MEASURE(1.0E-006),#389);
#254=LINE('',#390,#391);
#255=POINT_STYLE(' ',#392,POSITIVE_LENGTH_MEASURE(1.0E-006),#393);
#256=CARTESIAN_POINT('',(-25.0,6.86996309961713E-015,-2.8421709430404E-014));
#257=POINT_STYLE(' ',#394,POSITIVE_LENGTH_MEASURE(1.0E-006),#395);
#258=CARTESIAN_POINT('',(25.0,1.04279490952889E-014,88.0));
#259=SURFACE_STYLE_USAGE(.BOTH.,#396);
#260=FACE_OUTER_BOUND('',#397,.T.);
#261=CYLINDRICAL_SURFACE('',#398,13.0);
#262=CURVE_STYLE('',#399,POSITIVE_LENGTH_MEASURE(1.0E-006),#400);
#263=CIRCLE('',#401,25.0);
#264=POINT_STYLE(' ',#402,POSITIVE_LENGTH_MEASURE(1.0E-006),#403);
#265=CARTESIAN_POINT('',(8.00000000000003,2.95785033697241E-015,-4.2632564145606E-014));
#266=SURFACE_STYLE_USAGE(.BOTH.,#404);
#267=FACE_BOUND('',#405,.T.);
#268=FACE_OUTER_BOUND('',#406,.T.);
#269=PLANE('',#407);
#270=POINT_STYLE(' ',#408,POSITIVE_LENGTH_MEASURE(1.0E-006),#409);
#271=CARTESIAN_POINT('',(25.0,5.03968113847045E-015,-2.8421709430404E-014));
#272=CURVE_STYLE('',#410,POSITIVE_LENGTH_MEASURE(1.0E-006),#411);
#273=CIRCLE('',#412,25.0);
#274=CURVE_STYLE('',#413,POSITIVE_LENGTH_MEASURE(1.0E-006),#414);
#275=CIRCLE('',#415,13.0);
#276=POINT_STYLE(' ',#416,POSITIVE_LENGTH_MEASURE(1.0E-006),#417);
#277=CARTESIAN_POINT('',(-23.0,6.91947755933698E-015,90.0));
#278=CURVE_STYLE('',#418,POSITIVE_LENGTH_MEASURE(1.0E-006),#419);
#279=CIRCLE('',#420,13.0);
#280=POINT_STYLE(' ',#421,POSITIVE_LENGTH_MEASURE(1.0E-006),#422);
#281=CARTESIAN_POINT('',(8.00000000000003,4.42737796155926E-015,24.0));
#282=CURVE_STYLE('',#423,POSITIVE_LENGTH_MEASURE(1.0E-006),#424);
#283=LINE('',#425,#426);
#284=CURVE_STYLE('',#427,POSITIVE_LENGTH_MEASURE(1.0E-006),#428);
#285=LINE('',#429,#430);
#286=POINT_STYLE(' ',#431,POSITIVE_LENGTH_MEASURE(1.0E-006),#432);
#287=CARTESIAN_POINT('',(-25.0,6.86996309961713E-015,88.0));
#288=SURFACE_STYLE_USAGE(.BOTH.,#433);
#289=FACE_OUTER_BOUND('',#434,.T.);
#290=CYLINDRICAL_SURFACE('',#435,25.0);
#291=POINT_STYLE(' ',#436,POSITIVE_LENGTH_MEASURE(1.0E-006),#437);
#292=CARTESIAN_POINT('',(-13.0,7.1670498579362E-015,24.0));
#293=PRODUCT_CONTEXT('',#58,'mechanical');
#294=PRODUCT_DEFINITION_FORMATION_WITH_SPECIFIED_SOURCE(' ','NONE',#167,.NOT_KNOWN.);
#295=CARTESIAN_POINT('',(0.0,0.0,0.0));
#296=DIRECTION('',(0.0,0.0,1.0));
#297=DIRECTION('',(1.0,0.0,0.0));
#298= (NAMED_UNIT(#175)LENGTH_UNIT()SI_UNIT(.MILLI.,.METRE.));
#299=SURFACE_SIDE_STYLE('',(#439));
#300=EDGE_LOOP('',(#440,#441));
#301=EDGE_LOOP('',(#442,#443));
#302=AXIS2_PLACEMENT_3D('',#444,#445,#446);
#303=PRE_DEFINED_MARKER('');
#304=COLOUR_RGB('',0.509803950786591,0.509803950786591,0.588235318660736);
#305=SURFACE_SIDE_STYLE('',(#447));
#306=EDGE_LOOP('',(#448,#449));
#307=EDGE_LOOP('',(#450,#451));
#308=AXIS2_PLACEMENT_3D('',#452,#453,#454);
#309=PRE_DEFINED_MARKER('');
#310=COLOUR_RGB('',0.509803950786591,0.509803950786591,0.588235318660736);
#311=DRAUGHTING_PRE_DEFINED_CURVE_FONT('continuous');
#312=COLOUR_RGB('',0.509803950786591,0.509803950786591,0.588235318660736);
#313=AXIS2_PLACEMENT_3D('',#455,#456,#457);
#314=DRAUGHTING_PRE_DEFINED_CURVE_FONT('continuous');
#315=COLOUR_RGB('',0.509803950786591,0.509803950786591,0.588235318660736);
#316=AXIS2_PLACEMENT_3D('',#458,#459,#460);
#317=DRAUGHTING_PRE_DEFINED_CURVE_FONT('continuous');
#318=COLOUR_RGB('',0.509803950786591,0.509803950786591,0.588235318660736);
#319=AXIS2_PLACEMENT_3D('',#461,#462,#463);
#320=DRAUGHTING_PRE_DEFINED_CURVE_FONT('continuous');
#321=COLOUR_RGB('',0.509803950786591,0.509803950786591,0.588235318660736);
#322=AXIS2_PLACEMENT_3D('',#464,#465,#466);
#323=DRAUGHTING_PRE_DEFINED_CURVE_FONT('continuous');
#324=COLOUR_RGB('',0.509803950786591,0.509803950786591,0.588235318660736);
#325=CARTESIAN_POINT('',(24.0,8.08306736275336E-015,89.0));
#326=VECTOR('',#467,1.0);
#327=SURFACE_SIDE_STYLE('',(#468));
#328=EDGE_LOOP('',(#469,#470,#471,#472));
#329=AXIS2_PLACEMENT_3D('',#473,#474,#475);
#330=DRAUGHTING_PRE_DEFINED_CURVE_FONT('continuous');
#331=COLOUR_RGB('',0.509803950786591,0.509803950786591,0.588235318660736);
#332=AXIS2_PLACEMENT_3D('',#476,#477,#478);
#333=DRAUGHTING_PRE_DEFINED_CURVE_FONT('continuous');
#334=COLOUR_RGB('',0.509803950786591,0.509803950786591,0.588235318660736);
#335=CARTESIAN_POINT('',(-25.0,6.86996309961713E-015,44.0));
#336=VECTOR('',#479,1.0);
#337=DRAUGHTING_PRE_DEFINED_CURVE_FONT('continuous');
#338=COLOUR_RGB('',0.509803950786591,0.509803950786591,0.588235318660736);
#339=AXIS2_PLACEMENT_3D('',#480,#481,#482);
#340=SURFACE_SIDE_STYLE('',(#483));
#341=EDGE_LOOP('',(#484,#485,#486,#487));
#342=AXIS2_PLACEMENT_3D('',#488,#489,#490);
#343=PRE_DEFINED_MARKER('');
#344=COLOUR_RGB('',0.509803950786591,0.509803950786591,0.588235318660736);
#345=DRAUGHTING_PRE_DEFINED_CURVE_FONT('continuous');
#346=COLOUR_RGB('',0.509803950786591,0.509803950786591,0.588235318660736);
#347=AXIS2_PLACEMENT_3D('',#491,#492,#493);
#348=PRE_DEFINED_MARKER('');
#349=COLOUR_RGB('',0.509803950786591,0.509803950786591,0.588235318660736);
#350=SURFACE_SIDE_STYLE('',(#494));
#351=EDGE_LOOP('',(#495,#496,#497,#498));
#352=AXIS2_PLACEMENT_3D('',#499,#500,#501);
#353=DRAUGHTING_PRE_DEFINED_CURVE_FONT('continuous');
#354=COLOUR_RGB('',0.509803950786591,0.509803950786591,0.588235318660736);
#355=AXIS2_PLACEMENT_3D('',#502,#503,#504);
#356=SURFACE_SIDE_STYLE('',(#505));
#357=EDGE_LOOP('',(#506,#507,#508,#509));
#358=AXIS2_PLACEMENT_3D('',#510,#511,#512);
#359=PRE_DEFINED_MARKER('');
#360=COLOUR_RGB('',0.509803950786591,0.509803950786591,0.588235318660736);
#361=SURFACE_SIDE_STYLE('',(#513));
#362=EDGE_LOOP('',(#514,#515,#516,#517));
#363=AXIS2_PLACEMENT_3D('',#518,#519,#520);
#364=PRE_DEFINED_MARKER('');
#365=COLOUR_RGB('',0.509803950786591,0.509803950786591,0.588235318660736);
#366=SURFACE_SIDE_STYLE('',(#521));
#367=EDGE_LOOP('',(#522,#523,#524,#525));
#368=AXIS2_PLACEMENT_3D('',#526,#527,#528);
#369=DRAUGHTING_PRE_DEFINED_CURVE_FONT('continuous');
#370=COLOUR_RGB('',0.509803950786591,0.509803950786591,0.588235318660736);
#371=AXIS2_PLACEMENT_3D('',#529,#530,#531);
#372=DRAUGHTING_PRE_DEFINED_CURVE_FONT('continuous');
#373=COLOUR_RGB('',0.509803950786591,0.509803950786591,0.588235318660736);
#374=CARTESIAN_POINT('',(-7.99999999999997,7.29083600723582E-015,12.0));
#375=VECTOR('',#532,1.0);
#376=SURFACE_SIDE_STYLE('',(#533));
#377=DRAUGHTING_PRE_DEFINED_CURVE_FONT('continuous');
#378=COLOUR_RGB('',0.509803950786591,0.509803950786591,0.588235318660736);
#379=AXIS2_PLACEMENT_3D('',#534,#535,#536);
#380=DRAUGHTING_PRE_DEFINED_CURVE_FONT('continuous');
#381=COLOUR_RGB('',0.509803950786591,0.509803950786591,0.588235318660736);
#382=CARTESIAN_POINT('',(13.0,7.8107378342942E-015,57.0));
#383=VECTOR('',#537,1.0);
#384=DRAUGHTING_PRE_DEFINED_CURVE_FONT('continuous');
#385=COLOUR_RGB('',0.509803950786591,0.509803950786591,0.588235318660736);
#386=CARTESIAN_POINT('',(-24.0,6.89472032947705E-015,89.0));
#387=VECTOR('',#538,1.0);
#388=DRAUGHTING_PRE_DEFINED_CURVE_FONT('continuous');
#389=COLOUR_RGB('',0.509803950786591,0.509803950786591,0.588235318660736);
#390=CARTESIAN_POINT('',(8.00000000000003,7.68695168499459E-015,12.0));
#391=VECTOR('',#539,1.0);
#392=PRE_DEFINED_MARKER('');
#393=COLOUR_RGB('',0.509803950786591,0.509803950786591,0.588235318660736);
#394=PRE_DEFINED_MARKER('');
#395=COLOUR_RGB('',0.509803950786591,0.509803950786591,0.588235318660736);
#396=SURFACE_SIDE_STYLE('',(#540));
#397=EDGE_LOOP('',(#541,#542,#543,#544));
#398=AXIS2_PLACEMENT_3D('',#545,#546,#547);
#399=DRAUGHTING_PRE_DEFINED_CURVE_FONT('continuous');
#400=COLOUR_RGB('',0.509803950786591,0.509803950786591,0.588235318660736);
#401=AXIS2_PLACEMENT_3D('',#548,#549,#550);
#402=PRE_DEFINED_MARKER('');
#403=COLOUR_RGB('',0.509803950786591,0.509803950786591,0.588235318660736);
#404=SURFACE_SIDE_STYLE('',(#551));
#405=EDGE_LOOP('',(#552,#553));
#406=EDGE_LOOP('',(#554,#555));
#407=AXIS2_PLACEMENT_3D('',#556,#557,#558);
#408=PRE_DEFINED_MARKER('');
#409=COLOUR_RGB('',0.509803950786591,0.509803950786591,0.588235318660736);
#410=DRAUGHTING_PRE_DEFINED_CURVE_FONT('continuous');
#411=COLOUR_RGB('',0.509803950786591,0.509803950786591,0.588235318660736);
#412=AXIS2_PLACEMENT_3D('',#559,#560,#561);
#413=DRAUGHTING_PRE_DEFINED_CURVE_FONT('continuous');
#414=COLOUR_RGB('',0.509803950786591,0.509803950786591,0.588235318660736);
#415=AXIS2_PLACEMENT_3D('',#562,#563,#564);
#416=PRE_DEFINED_MARKER('');
#417=COLOUR_RGB('',0.509803950786591,0.509803950786591,0.588235318660736);
#418=DRAUGHTING_PRE_DEFINED_CURVE_FONT('continuous');
#419=COLOUR_RGB('',0.509803950786591,0.509803950786591,0.588235318660736);
#420=AXIS2_PLACEMENT_3D('',#565,#566,#567);
#421=PRE_DEFINED_MARKER('');
#422=COLOUR_RGB('',0.509803950786591,0.509803950786591,0.588235318660736);
#423=DRAUGHTING_PRE_DEFINED_CURVE_FONT('continuous');
#424=COLOUR_RGB('',0.509803950786591,0.509803950786591,0.588235318660736);
#425=CARTESIAN_POINT('',(25.0,8.10782459261328E-015,44.0));
#426=VECTOR('',#568,1.0);
#427=DRAUGHTING_PRE_DEFINED_CURVE_FONT('continuous');
#428=COLOUR_RGB('',0.509803950786591,0.509803950786591,0.588235318660736);
#429=CARTESIAN_POINT('',(-13.0,7.1670498579362E-015,57.0));
#430=VECTOR('',#569,1.0);
#431=PRE_DEFINED_MARKER('');
#432=COLOUR_RGB('',0.509803950786591,0.509803950786591,0.588235318660736);
#433=SURFACE_SIDE_STYLE('',(#570));
#434=EDGE_LOOP('',(#571,#572,#573,#574));
#435=AXIS2_PLACEMENT_3D('',#575,#576,#577);
#436=PRE_DEFINED_MARKER('');
#437=COLOUR_RGB('',0.509803950786591,0.509803950786591,0.588235318660736);
#439=SURFACE_STYLE_FILL_AREA(#578);
#440=ORIENTED_EDGE('',*,*,#86,.F.);
#441=ORIENTED_EDGE('',*,*,#154,.F.);
#442=ORIENTED_EDGE('',*,*,#80,.T.);
#443=ORIENTED_EDGE('',*,*,#120,.T.);
#444=CARTESIAN_POINT('',(10.5,4.73352955001486E-015,24.0));
#445=DIRECTION('',(0.0,0.0,1.0));
#446=DIRECTION('',(-1.0,-1.22460635382238E-016,0.0));
#447=SURFACE_STYLE_FILL_AREA(#579);
#448=ORIENTED_EDGE('',*,*,#84,.F.);
#449=ORIENTED_EDGE('',*,*,#102,.F.);
#450=ORIENTED_EDGE('',*,*,#126,.T.);
#451=ORIENTED_EDGE('',*,*,#150,.T.);
#452=CARTESIAN_POINT('',(18.0,9.69318528299548E-015,90.0));
#453=DIRECTION('',(0.0,0.0,1.0));
#454=DIRECTION('',(-1.0,-1.22460635382238E-016,0.0));
#455=CARTESIAN_POINT('',(2.8421709430404E-014,7.4888938461152E-015,24.0));
#456=DIRECTION('',(0.0,0.0,-1.0));
#457=DIRECTION('',(1.0,-9.77034055223147E-017,0.0));
#458=CARTESIAN_POINT('',(2.8421709430404E-014,7.4888938461152E-015,-2.8421709430404E-014));
#459=DIRECTION('',(0.0,0.0,-1.0));
#460=DIRECTION('',(1.0,-9.77034055223147E-017,0.0));
#461=CARTESIAN_POINT('',(2.8421709430404E-014,7.4888938461152E-015,90.0));
#462=DIRECTION('',(0.0,0.0,-1.0));
#463=DIRECTION('',(1.0,-9.77034055223147E-017,0.0));
#464=CARTESIAN_POINT('',(2.8421709430404E-014,7.4888938461152E-015,24.0));
#465=DIRECTION('',(0.0,0.0,-1.0));
#466=DIRECTION('',(1.0,-9.77034055223147E-017,0.0));
#467=DIRECTION('',(0.707106781186548,1.75060051173457E-017,-0.707106781186548));
#468=SURFACE_STYLE_FILL_AREA(#580);
#469=ORIENTED_EDGE('',*,*,#132,.F.);
#470=ORIENTED_EDGE('',*,*,#120,.F.);
#471=ORIENTED_EDGE('',*,*,#122,.F.);
#472=ORIENTED_EDGE('',*,*,#96,.T.);
#473=CARTESIAN_POINT('',(2.8421709430404E-014,7.4888938461152E-015,12.0));
#474=DIRECTION('',(-0.0,-0.0,1.0));
#475=DIRECTION('',(1.0,-9.77034055223147E-017,0.0));
#476=CARTESIAN_POINT('',(2.8421709430404E-014,7.4888938461152E-015,-4.2632564145606E-014));
#477=DIRECTION('',(0.0,0.0,-1.0));
#478=DIRECTION('',(1.0,-9.77034055223147E-017,0.0));
#479=DIRECTION('',(-0.0,-0.0,1.0));
#480=CARTESIAN_POINT('',(2.8421709430404E-014,7.4888938461152E-015,-4.2632564145606E-014));
#481=DIRECTION('',(0.0,0.0,-1.0));
#482=DIRECTION('',(1.0,-9.77034055223147E-017,0.0));
#483=SURFACE_STYLE_FILL_AREA(#581);
#484=ORIENTED_EDGE('',*,*,#158,.F.);
#485=ORIENTED_EDGE('',*,*,#148,.T.);
#486=ORIENTED_EDGE('',*,*,#94,.F.);
#487=ORIENTED_EDGE('',*,*,#108,.F.);
#488=CARTESIAN_POINT('',(2.8421709430404E-014,7.4888938461152E-015,44.0));
#489=DIRECTION('',(-0.0,-0.0,1.0));
#490=DIRECTION('',(1.0,-9.77034055223147E-017,0.0));
#491=CARTESIAN_POINT('',(2.8421709430404E-014,7.4888938461152E-015,90.0));
#492=DIRECTION('',(0.0,0.0,-1.0));
#493=DIRECTION('',(1.0,-9.77034055223147E-017,0.0));
#494=SURFACE_STYLE_FILL_AREA(#582);
#495=ORIENTED_EDGE('',*,*,#88,.F.);
#496=ORIENTED_EDGE('',*,*,#84,.T.);
#497=ORIENTED_EDGE('',*,*,#130,.F.);
#498=ORIENTED_EDGE('',*,*,#148,.F.);
#499=CARTESIAN_POINT('',(2.8421709430404E-014,7.4888938461152E-015,89.0));
#500=DIRECTION('',(0.0,-0.0,-1.0));
#501=DIRECTION('',(1.0,-9.77034055223147E-017,0.0));
#502=CARTESIAN_POINT('',(2.8421709430404E-014,7.4888938461152E-015,-2.8421709430404E-014));
#503=DIRECTION('',(0.0,0.0,-1.0));
#504=DIRECTION('',(1.0,-9.77034055223147E-017,0.0));
#505=SURFACE_STYLE_FILL_AREA(#583);
#506=ORIENTED_EDGE('',*,*,#88,.T.);
#507=ORIENTED_EDGE('',*,*,#140,.F.);
#508=ORIENTED_EDGE('',*,*,#130,.T.);
#509=ORIENTED_EDGE('',*,*,#102,.T.);
#510=CARTESIAN_POINT('',(2.8421709430404E-014,7.4888938461152E-015,89.0));
#511=DIRECTION('',(0.0,-0.0,-1.0));
#512=DIRECTION('',(1.0,-9.77034055223147E-017,0.0));
#513=SURFACE_STYLE_FILL_AREA(#584);
#514=ORIENTED_EDGE('',*,*,#132,.T.);
#515=ORIENTED_EDGE('',*,*,#92,.T.);
#516=ORIENTED_EDGE('',*,*,#122,.T.);
#517=ORIENTED_EDGE('',*,*,#80,.F.);
#518=CARTESIAN_POINT('',(2.8421709430404E-014,7.4888938461152E-015,12.0));
#519=DIRECTION('',(-0.0,-0.0,1.0));
#520=DIRECTION('',(1.0,-9.77034055223147E-017,0.0));
#521=SURFACE_STYLE_FILL_AREA(#585);
#522=ORIENTED_EDGE('',*,*,#128,.T.);
#523=ORIENTED_EDGE('',*,*,#86,.T.);
#524=ORIENTED_EDGE('',*,*,#160,.T.);
#525=ORIENTED_EDGE('',*,*,#126,.F.);
#526=CARTESIAN_POINT('',(2.8421709430404E-014,7.4888938461152E-015,57.0));
#527=DIRECTION('',(-0.0,-0.0,1.0));
#528=DIRECTION('',(1.0,-9.77034055223147E-017,0.0));
#529=CARTESIAN_POINT('',(2.8421709430404E-014,7.4888938461152E-015,24.0));
#530=DIRECTION('',(0.0,0.0,-1.0));
#531=DIRECTION('',(1.0,-9.77034055223147E-017,0.0));
#532=DIRECTION('',(-0.0,-0.0,1.0));
#533=SURFACE_STYLE_FILL_AREA(#586);
#534=CARTESIAN_POINT('',(2.8421709430404E-014,7.4888938461152E-015,90.0));
#535=DIRECTION('',(0.0,0.0,-1.0));
#536=DIRECTION('',(1.0,-9.77034055223147E-017,0.0));
#537=DIRECTION('',(-0.0,-0.0,-1.0));
#538=DIRECTION('',(0.707106781186548,1.75060051173456E-017,0.707106781186548));
#539=DIRECTION('',(-0.0,-0.0,-1.0));
#540=SURFACE_STYLE_FILL_AREA(#587);
#541=ORIENTED_EDGE('',*,*,#128,.F.);
#542=ORIENTED_EDGE('',*,*,#150,.F.);
#543=ORIENTED_EDGE('',*,*,#160,.F.);
#544=ORIENTED_EDGE('',*,*,#154,.T.);
#545=CARTESIAN_POINT('',(2.8421709430404E-014,7.4888938461152E-015,57.0));
#546=DIRECTION('',(-0.0,-0.0,1.0));
#547=DIRECTION('',(1.0,-9.77034055223147E-017,0.0));
#548=CARTESIAN_POINT('',(2.8421709430404E-014,7.4888938461152E-015,88.0));
#549=DIRECTION('',(0.0,0.0,-1.0));
#550=DIRECTION('',(1.0,-9.77034055223147E-017,0.0));
#551=SURFACE_STYLE_FILL_AREA(#588);
#552=ORIENTED_EDGE('',*,*,#92,.F.);
#553=ORIENTED_EDGE('',*,*,#96,.F.);
#554=ORIENTED_EDGE('',*,*,#108,.T.);
#555=ORIENTED_EDGE('',*,*,#82,.T.);
#556=CARTESIAN_POINT('',(16.5,3.99876573772143E-015,-2.8421709430404E-014));
#557=DIRECTION('',(0.0,0.0,-1.0));
#558=DIRECTION('',(1.0,1.22460635382238E-016,0.0));
#559=CARTESIAN_POINT('',(2.8421709430404E-014,7.4888938461152E-015,88.0));
#560=DIRECTION('',(0.0,0.0,-1.0));
#561=DIRECTION('',(1.0,-9.77034055223147E-017,0.0));
#562=CARTESIAN_POINT('',(2.8421709430404E-014,7.4888938461152E-015,90.0));
#563=DIRECTION('',(0.0,0.0,-1.0));
#564=DIRECTION('',(1.0,-9.77034055223147E-017,0.0));
#565=CARTESIAN_POINT('',(2.8421709430404E-014,7.4888938461152E-015,24.0));
#566=DIRECTION('',(0.0,0.0,-1.0));
#567=DIRECTION('',(1.0,-9.77034055223147E-017,0.0));
#568=DIRECTION('',(0.0,0.0,-1.0));
#569=DIRECTION('',(-0.0,-0.0,1.0));
#570=SURFACE_STYLE_FILL_AREA(#589);
#571=ORIENTED_EDGE('',*,*,#158,.T.);
#572=ORIENTED_EDGE('',*,*,#82,.F.);
#573=ORIENTED_EDGE('',*,*,#94,.T.);
#574=ORIENTED_EDGE('',*,*,#140,.T.);
#575=CARTESIAN_POINT('',(2.8421709430404E-014,7.4888938461152E-015,44.0));
#576=DIRECTION('',(-0.0,-0.0,1.0));
#577=DIRECTION('',(1.0,-9.77034055223147E-017,0.0));
#578=FILL_AREA_STYLE('',(#590));
#579=FILL_AREA_STYLE('',(#591));
#580=FILL_AREA_STYLE('',(#592));
#581=FILL_AREA_STYLE('',(#593));
#582=FILL_AREA_STYLE('',(#594));
#583=FILL_AREA_STYLE('',(#595));
#584=FILL_AREA_STYLE('',(#596));
#585=FILL_AREA_STYLE('',(#597));
#586=FILL_AREA_STYLE('',(#598));
#587=FILL_AREA_STYLE('',(#599));
#588=FILL_AREA_STYLE('',(#600));
#589=FILL_AREA_STYLE('',(#601));
#590=FILL_AREA_STYLE_COLOUR('',#602);
#591=FILL_AREA_STYLE_COLOUR('',#603);
#592=FILL_AREA_STYLE_COLOUR('',#604);
#593=FILL_AREA_STYLE_COLOUR('',#605);
#594=FILL_AREA_STYLE_COLOUR('',#606);
#595=FILL_AREA_STYLE_COLOUR('',#607);
#596=FILL_AREA_STYLE_COLOUR('',#608);
#597=FILL_AREA_STYLE_COLOUR('',#609);
#598=FILL_AREA_STYLE_COLOUR('',#610);
#599=FILL_AREA_STYLE_COLOUR('',#611);
#600=FILL_AREA_STYLE_COLOUR('',#612);
#601=FILL_AREA_STYLE_COLOUR('',#613);
#602=COLOUR_RGB('',0.509803950786591,0.509803950786591,0.588235318660736);
#603=COLOUR_RGB('',0.509803950786591,0.509803950786591,0.588235318660736);
#604=COLOUR_RGB('',0.509803950786591,0.509803950786591,0.588235318660736);
#605=COLOUR_RGB('',0.509803950786591,0.509803950786591,0.588235318660736);
#606=COLOUR_RGB('',0.509803950786591,0.509803950786591,0.588235318660736);
#607=COLOUR_RGB('',0.509803950786591,0.509803950786591,0.588235318660736);
#608=COLOUR_RGB('',0.509803950786591,0.509803950786591,0.588235318660736);
#609=COLOUR_RGB('',0.509803950786591,0.509803950786591,0.588235318660736);
#610=COLOUR_RGB('',0.509803950786591,0.509803950786591,0.588235318660736);
#611=COLOUR_RGB('',0.509803950786591,0.509803950786591,0.588235318660736);
#612=COLOUR_RGB('',0.509803950786591,0.509803950786591,0.588235318660736);
#613=COLOUR_RGB('',0.509803950786591,0.509803950786591,0.588235318660736);
ENDSEC;
END-ISO-10303-21;
