ISO-10303-21;
HEADER;
FILE_DESCRIPTION(('STEP AP214'),'1');
FILE_NAME(' ','  ',('TraceParts'),('TraceParts S.A.'),'XStep 1.0',' ',' ');
FILE_SCHEMA(('automotive_design'));
ENDSEC;
DATA;
#1=MECHANICAL_DESIGN_GEOMETRIC_PRESENTATION_REPRESENTATION(' ',(#10,#11,#12,#13,#14,#15,#16,#17,#18,#19,#20,#21,#22,#23,#24,#25,#26,#27,#28,#29,#30,#31,#32,#33,#34,#35,#36),#6);
#2=PRODUCT_DEFINITION_CONTEXT('',#37,'design');
#3=APPLICATION_PROTOCOL_DEFINITION('INTERNATIONAL STANDARD','automotive_design',1994,#37);
#4=PRODUCT_CATEGORY_RELATIONSHIP('NONE','NONE',#38,#39);
#5=SHAPE_DEFINITION_REPRESENTATION(#40,#41);
#6= (GEOMETRIC_REPRESENTATION_CONTEXT(3)GLOBAL_UNCERTAINTY_ASSIGNED_CONTEXT((#44))GLOBAL_UNIT_ASSIGNED_CONTEXT((#46,#47,#48))REPRESENTATION_CONTEXT('NONE','WORKSPACE'));
#10=STYLED_ITEM('',(#50),#51);
#11=STYLED_ITEM('',(#52),#53);
#12=STYLED_ITEM('',(#54),#55);
#13=STYLED_ITEM('',(#56),#57);
#14=STYLED_ITEM('',(#58),#59);
#15=STYLED_ITEM('',(#60),#61);
#16=STYLED_ITEM('',(#62),#63);
#17=STYLED_ITEM('',(#64),#65);
#18=STYLED_ITEM('',(#66),#67);
#19=STYLED_ITEM('',(#68),#69);
#20=STYLED_ITEM('',(#70),#71);
#21=STYLED_ITEM('',(#72),#73);
#22=STYLED_ITEM('',(#74),#75);
#23=STYLED_ITEM('',(#76),#77);
#24=STYLED_ITEM('',(#78),#79);
#25=STYLED_ITEM('',(#80),#81);
#26=STYLED_ITEM('',(#82),#83);
#27=STYLED_ITEM('',(#84),#85);
#28=STYLED_ITEM('',(#86),#87);
#29=STYLED_ITEM('',(#88),#89);
#30=STYLED_ITEM('',(#90),#91);
#31=STYLED_ITEM('',(#92),#93);
#32=STYLED_ITEM('',(#94),#95);
#33=STYLED_ITEM('',(#96),#97);
#34=STYLED_ITEM('',(#98),#99);
#35=STYLED_ITEM('',(#100),#101);
#36=STYLED_ITEM('',(#102),#103);
#37=APPLICATION_CONTEXT(' ');
#38=PRODUCT_CATEGORY('part','NONE');
#39=PRODUCT_RELATED_PRODUCT_CATEGORY('detail',' ',(#104));
#40=PRODUCT_DEFINITION_SHAPE('NONE','NONE',#105);
#41=ADVANCED_BREP_SHAPE_REPRESENTATION('1',(#53,#106),#6);
#44=UNCERTAINTY_MEASURE_WITH_UNIT(LENGTH_MEASURE(1.0E-006),#46,'','');
#46= (CONVERSION_BASED_UNIT('MILLIMETRE',#109)LENGTH_UNIT()NAMED_UNIT(#112));
#47= (NAMED_UNIT(#114)PLANE_ANGLE_UNIT()SI_UNIT($,.RADIAN.));
#48= (NAMED_UNIT(#114)SOLID_ANGLE_UNIT()SI_UNIT($,.STERADIAN.));
#50=PRESENTATION_STYLE_ASSIGNMENT((#120));
#51=VERTEX_POINT('',#121);
#52=PRESENTATION_STYLE_ASSIGNMENT((#122));
#53=MANIFOLD_SOLID_BREP('1',#123);
#54=PRESENTATION_STYLE_ASSIGNMENT((#124));
#55=VERTEX_POINT('',#125);
#56=PRESENTATION_STYLE_ASSIGNMENT((#126));
#57=EDGE_CURVE('',#99,#67,#127,.T.);
#58=PRESENTATION_STYLE_ASSIGNMENT((#128));
#59=EDGE_CURVE('',#73,#79,#129,.T.);
#60=PRESENTATION_STYLE_ASSIGNMENT((#130));
#61=EDGE_CURVE('',#65,#51,#131,.T.);
#62=PRESENTATION_STYLE_ASSIGNMENT((#132));
#63=EDGE_CURVE('',#67,#99,#133,.T.);
#64=PRESENTATION_STYLE_ASSIGNMENT((#134));
#65=VERTEX_POINT('',#135);
#66=PRESENTATION_STYLE_ASSIGNMENT((#136));
#67=VERTEX_POINT('',#137);
#68=PRESENTATION_STYLE_ASSIGNMENT((#138));
#69=EDGE_CURVE('',#51,#65,#139,.T.);
#70=PRESENTATION_STYLE_ASSIGNMENT((#140));
#71=ADVANCED_FACE('',(#141,#142),#143,.F.);
#72=PRESENTATION_STYLE_ASSIGNMENT((#144));
#73=VERTEX_POINT('',#145);
#74=PRESENTATION_STYLE_ASSIGNMENT((#146));
#75=EDGE_CURVE('',#101,#55,#147,.T.);
#76=PRESENTATION_STYLE_ASSIGNMENT((#148));
#77=ADVANCED_FACE('',(#149),#150,.F.);
#78=PRESENTATION_STYLE_ASSIGNMENT((#151));
#79=VERTEX_POINT('',#152);
#80=PRESENTATION_STYLE_ASSIGNMENT((#153));
#81=EDGE_CURVE('',#67,#55,#154,.T.);
#82=PRESENTATION_STYLE_ASSIGNMENT((#155));
#83=ADVANCED_FACE('',(#156),#157,.T.);
#84=PRESENTATION_STYLE_ASSIGNMENT((#158));
#85=EDGE_CURVE('',#79,#73,#159,.T.);
#86=PRESENTATION_STYLE_ASSIGNMENT((#160));
#87=ADVANCED_FACE('',(#161),#162,.T.);
#88=PRESENTATION_STYLE_ASSIGNMENT((#163));
#89=EDGE_CURVE('',#55,#101,#164,.T.);
#90=PRESENTATION_STYLE_ASSIGNMENT((#165));
#91=EDGE_CURVE('',#51,#73,#166,.T.);
#92=PRESENTATION_STYLE_ASSIGNMENT((#167));
#93=ADVANCED_FACE('',(#168,#169),#170,.T.);
#94=PRESENTATION_STYLE_ASSIGNMENT((#171));
#95=EDGE_CURVE('',#101,#99,#172,.T.);
#96=PRESENTATION_STYLE_ASSIGNMENT((#173));
#97=EDGE_CURVE('',#79,#65,#174,.T.);
#98=PRESENTATION_STYLE_ASSIGNMENT((#175));
#99=VERTEX_POINT('',#176);
#100=PRESENTATION_STYLE_ASSIGNMENT((#177));
#101=VERTEX_POINT('',#178);
#102=PRESENTATION_STYLE_ASSIGNMENT((#179));
#103=ADVANCED_FACE('',(#180),#181,.F.);
#104=PRODUCT('1','1','PART-1-DESC',(#182));
#105=PRODUCT_DEFINITION('NONE','NONE',#183,#2);
#106=AXIS2_PLACEMENT_3D('',#184,#185,#186);
#109=LENGTH_MEASURE_WITH_UNIT(LENGTH_MEASURE(1.0),#187);
#112=DIMENSIONAL_EXPONENTS(1.0,0.0,0.0,0.0,0.0,0.0,0.0);
#114=DIMENSIONAL_EXPONENTS(0.0,0.0,0.0,0.0,0.0,0.0,0.0);
#120=POINT_STYLE(' ',#188,POSITIVE_LENGTH_MEASURE(1.0E-006),#189);
#121=CARTESIAN_POINT('',(-29.75,0.0,20.0));
#122=SURFACE_STYLE_USAGE(.BOTH.,#190);
#123=CLOSED_SHELL('',(#83,#103,#77,#87,#71,#93));
#124=POINT_STYLE(' ',#191,POSITIVE_LENGTH_MEASURE(1.0E-006),#192);
#125=CARTESIAN_POINT('',(6.5,0.0,0.0));
#126=CURVE_STYLE('',#193,POSITIVE_LENGTH_MEASURE(1.0E-006),#194);
#127=CIRCLE('',#195,6.5);
#128=CURVE_STYLE('',#196,POSITIVE_LENGTH_MEASURE(1.0E-006),#197);
#129=CIRCLE('',#198,29.75);
#130=CURVE_STYLE('',#199,POSITIVE_LENGTH_MEASURE(1.0E-006),#200);
#131=CIRCLE('',#201,29.75);
#132=CURVE_STYLE('',#202,POSITIVE_LENGTH_MEASURE(1.0E-006),#203);
#133=CIRCLE('',#204,6.5);
#134=POINT_STYLE(' ',#205,POSITIVE_LENGTH_MEASURE(1.0E-006),#206);
#135=CARTESIAN_POINT('',(29.75,-3.64320390262157E-015,20.0));
#136=POINT_STYLE(' ',#207,POSITIVE_LENGTH_MEASURE(1.0E-006),#208);
#137=CARTESIAN_POINT('',(6.5,-7.95994129984545E-016,20.0));
#138=CURVE_STYLE('',#209,POSITIVE_LENGTH_MEASURE(1.0E-006),#210);
#139=CIRCLE('',#211,29.75);
#140=SURFACE_STYLE_USAGE(.BOTH.,#212);
#141=FACE_BOUND('',#213,.T.);
#142=FACE_OUTER_BOUND('',#214,.T.);
#143=PLANE('',#215);
#144=POINT_STYLE(' ',#216,POSITIVE_LENGTH_MEASURE(1.0E-006),#217);
#145=CARTESIAN_POINT('',(-29.75,3.64320390262157E-015,0.0));
#146=CURVE_STYLE('',#218,POSITIVE_LENGTH_MEASURE(1.0E-006),#219);
#147=CIRCLE('',#220,6.5);
#148=SURFACE_STYLE_USAGE(.BOTH.,#221);
#149=FACE_OUTER_BOUND('',#222,.T.);
#150=CYLINDRICAL_SURFACE('',#223,6.5);
#151=POINT_STYLE(' ',#224,POSITIVE_LENGTH_MEASURE(1.0E-006),#225);
#152=CARTESIAN_POINT('',(29.75,0.0,0.0));
#153=CURVE_STYLE('',#226,POSITIVE_LENGTH_MEASURE(1.0E-006),#227);
#154=LINE('',#228,#229);
#155=SURFACE_STYLE_USAGE(.BOTH.,#230);
#156=FACE_OUTER_BOUND('',#231,.T.);
#157=CYLINDRICAL_SURFACE('',#232,29.75);
#158=CURVE_STYLE('',#233,POSITIVE_LENGTH_MEASURE(1.0E-006),#234);
#159=CIRCLE('',#235,29.75);
#160=SURFACE_STYLE_USAGE(.BOTH.,#236);
#161=FACE_OUTER_BOUND('',#237,.T.);
#162=CYLINDRICAL_SURFACE('',#238,29.75);
#163=CURVE_STYLE('',#239,POSITIVE_LENGTH_MEASURE(1.0E-006),#240);
#164=CIRCLE('',#241,6.5);
#165=CURVE_STYLE('',#242,POSITIVE_LENGTH_MEASURE(1.0E-006),#243);
#166=LINE('',#244,#245);
#167=SURFACE_STYLE_USAGE(.BOTH.,#246);
#168=FACE_BOUND('',#247,.T.);
#169=FACE_OUTER_BOUND('',#248,.T.);
#170=PLANE('',#249);
#171=CURVE_STYLE('',#250,POSITIVE_LENGTH_MEASURE(1.0E-006),#251);
#172=LINE('',#252,#253);
#173=CURVE_STYLE('',#254,POSITIVE_LENGTH_MEASURE(1.0E-006),#255);
#174=LINE('',#256,#257);
#175=POINT_STYLE(' ',#258,POSITIVE_LENGTH_MEASURE(1.0E-006),#259);
#176=CARTESIAN_POINT('',(-6.5,0.0,20.0));
#177=POINT_STYLE(' ',#260,POSITIVE_LENGTH_MEASURE(1.0E-006),#261);
#178=CARTESIAN_POINT('',(-6.5,7.95994129984545E-016,0.0));
#179=SURFACE_STYLE_USAGE(.BOTH.,#262);
#180=FACE_OUTER_BOUND('',#263,.T.);
#181=CYLINDRICAL_SURFACE('',#264,6.5);
#182=PRODUCT_CONTEXT('',#37,'mechanical');
#183=PRODUCT_DEFINITION_FORMATION_WITH_SPECIFIED_SOURCE(' ','NONE',#104,.NOT_KNOWN.);
#184=CARTESIAN_POINT('',(0.0,0.0,0.0));
#185=DIRECTION('',(0.0,0.0,1.0));
#186=DIRECTION('',(1.0,0.0,0.0));
#187= (NAMED_UNIT(#112)LENGTH_UNIT()SI_UNIT(.MILLI.,.METRE.));
#188=PRE_DEFINED_MARKER('');
#189=COLOUR_RGB('',0.509803950786591,0.509803950786591,0.588235318660736);
#190=SURFACE_SIDE_STYLE('',(#266));
#191=PRE_DEFINED_MARKER('');
#192=COLOUR_RGB('',0.509803950786591,0.509803950786591,0.588235318660736);
#193=DRAUGHTING_PRE_DEFINED_CURVE_FONT('continuous');
#194=COLOUR_RGB('',0.509803950786591,0.509803950786591,0.588235318660736);
#195=AXIS2_PLACEMENT_3D('',#267,#268,#269);
#196=DRAUGHTING_PRE_DEFINED_CURVE_FONT('continuous');
#197=COLOUR_RGB('',0.509803950786591,0.509803950786591,0.588235318660736);
#198=AXIS2_PLACEMENT_3D('',#270,#271,#272);
#199=DRAUGHTING_PRE_DEFINED_CURVE_FONT('continuous');
#200=COLOUR_RGB('',0.509803950786591,0.509803950786591,0.588235318660736);
#201=AXIS2_PLACEMENT_3D('',#273,#274,#275);
#202=DRAUGHTING_PRE_DEFINED_CURVE_FONT('continuous');
#203=COLOUR_RGB('',0.509803950786591,0.509803950786591,0.588235318660736);
#204=AXIS2_PLACEMENT_3D('',#276,#277,#278);
#205=PRE_DEFINED_MARKER('');
#206=COLOUR_RGB('',0.509803950786591,0.509803950786591,0.588235318660736);
#207=PRE_DEFINED_MARKER('');
#208=COLOUR_RGB('',0.509803950786591,0.509803950786591,0.588235318660736);
#209=DRAUGHTING_PRE_DEFINED_CURVE_FONT('continuous');
#210=COLOUR_RGB('',0.509803950786591,0.509803950786591,0.588235318660736);
#211=AXIS2_PLACEMENT_3D('',#279,#280,#281);
#212=SURFACE_SIDE_STYLE('',(#282));
#213=EDGE_LOOP('',(#283,#284));
#214=EDGE_LOOP('',(#285,#286));
#215=AXIS2_PLACEMENT_3D('',#287,#288,#289);
#216=PRE_DEFINED_MARKER('');
#217=COLOUR_RGB('',0.509803950786591,0.509803950786591,0.588235318660736);
#218=DRAUGHTING_PRE_DEFINED_CURVE_FONT('continuous');
#219=COLOUR_RGB('',0.509803950786591,0.509803950786591,0.588235318660736);
#220=AXIS2_PLACEMENT_3D('',#290,#291,#292);
#221=SURFACE_SIDE_STYLE('',(#293));
#222=EDGE_LOOP('',(#294,#295,#296,#297));
#223=AXIS2_PLACEMENT_3D('',#298,#299,#300);
#224=PRE_DEFINED_MARKER('');
#225=COLOUR_RGB('',0.509803950786591,0.509803950786591,0.588235318660736);
#226=DRAUGHTING_PRE_DEFINED_CURVE_FONT('continuous');
#227=COLOUR_RGB('',0.509803950786591,0.509803950786591,0.588235318660736);
#228=CARTESIAN_POINT('',(6.5,-7.95994129984545E-016,0.0));
#229=VECTOR('',#301,1.0);
#230=SURFACE_SIDE_STYLE('',(#302));
#231=EDGE_LOOP('',(#303,#304,#305,#306));
#232=AXIS2_PLACEMENT_3D('',#307,#308,#309);
#233=DRAUGHTING_PRE_DEFINED_CURVE_FONT('continuous');
#234=COLOUR_RGB('',0.509803950786591,0.509803950786591,0.588235318660736);
#235=AXIS2_PLACEMENT_3D('',#310,#311,#312);
#236=SURFACE_SIDE_STYLE('',(#313));
#237=EDGE_LOOP('',(#314,#315,#316,#317));
#238=AXIS2_PLACEMENT_3D('',#318,#319,#320);
#239=DRAUGHTING_PRE_DEFINED_CURVE_FONT('continuous');
#240=COLOUR_RGB('',0.509803950786591,0.509803950786591,0.588235318660736);
#241=AXIS2_PLACEMENT_3D('',#321,#322,#323);
#242=DRAUGHTING_PRE_DEFINED_CURVE_FONT('continuous');
#243=COLOUR_RGB('',0.509803950786591,0.509803950786591,0.588235318660736);
#244=CARTESIAN_POINT('',(-29.75,3.64320390262157E-015,0.0));
#245=VECTOR('',#324,1.0);
#246=SURFACE_SIDE_STYLE('',(#325));
#247=EDGE_LOOP('',(#326,#327));
#248=EDGE_LOOP('',(#328,#329));
#249=AXIS2_PLACEMENT_3D('',#330,#331,#332);
#250=DRAUGHTING_PRE_DEFINED_CURVE_FONT('continuous');
#251=COLOUR_RGB('',0.509803950786591,0.509803950786591,0.588235318660736);
#252=CARTESIAN_POINT('',(-6.5,7.95994129984545E-016,0.0));
#253=VECTOR('',#333,1.0);
#254=DRAUGHTING_PRE_DEFINED_CURVE_FONT('continuous');
#255=COLOUR_RGB('',0.509803950786591,0.509803950786591,0.588235318660736);
#256=CARTESIAN_POINT('',(29.75,-3.64320390262157E-015,0.0));
#257=VECTOR('',#334,1.0);
#258=PRE_DEFINED_MARKER('');
#259=COLOUR_RGB('',0.509803950786591,0.509803950786591,0.588235318660736);
#260=PRE_DEFINED_MARKER('');
#261=COLOUR_RGB('',0.509803950786591,0.509803950786591,0.588235318660736);
#262=SURFACE_SIDE_STYLE('',(#335));
#263=EDGE_LOOP('',(#336,#337,#338,#339));
#264=AXIS2_PLACEMENT_3D('',#340,#341,#342);
#266=SURFACE_STYLE_FILL_AREA(#343);
#267=CARTESIAN_POINT('',(0.0,0.0,20.0));
#268=DIRECTION('',(0.0,0.0,-1.0));
#269=DIRECTION('',(1.0,0.0,0.0));
#270=CARTESIAN_POINT('',(0.0,0.0,0.0));
#271=DIRECTION('',(0.0,0.0,1.0));
#272=DIRECTION('',(1.0,0.0,0.0));
#273=CARTESIAN_POINT('',(0.0,0.0,20.0));
#274=DIRECTION('',(0.0,0.0,-1.0));
#275=DIRECTION('',(-1.0,0.0,0.0));
#276=CARTESIAN_POINT('',(0.0,0.0,20.0));
#277=DIRECTION('',(0.0,0.0,-1.0));
#278=DIRECTION('',(1.0,0.0,0.0));
#279=CARTESIAN_POINT('',(0.0,0.0,20.0));
#280=DIRECTION('',(0.0,0.0,-1.0));
#281=DIRECTION('',(-1.0,0.0,0.0));
#282=SURFACE_STYLE_FILL_AREA(#344);
#283=ORIENTED_EDGE('',*,*,#89,.T.);
#284=ORIENTED_EDGE('',*,*,#75,.T.);
#285=ORIENTED_EDGE('',*,*,#85,.F.);
#286=ORIENTED_EDGE('',*,*,#59,.F.);
#287=CARTESIAN_POINT('',(0.0,0.0,0.0));
#288=DIRECTION('',(0.0,0.0,1.0));
#289=DIRECTION('',(1.0,0.0,0.0));
#290=CARTESIAN_POINT('',(0.0,0.0,0.0));
#291=DIRECTION('',(0.0,0.0,1.0));
#292=DIRECTION('',(1.0,0.0,0.0));
#293=SURFACE_STYLE_FILL_AREA(#345);
#294=ORIENTED_EDGE('',*,*,#81,.T.);
#295=ORIENTED_EDGE('',*,*,#75,.F.);
#296=ORIENTED_EDGE('',*,*,#95,.T.);
#297=ORIENTED_EDGE('',*,*,#63,.F.);
#298=CARTESIAN_POINT('',(0.0,0.0,0.0));
#299=DIRECTION('',(-0.0,-0.0,-1.0));
#300=DIRECTION('',(1.0,0.0,0.0));
#301=DIRECTION('',(-0.0,0.0,-1.0));
#302=SURFACE_STYLE_FILL_AREA(#346);
#303=ORIENTED_EDGE('',*,*,#97,.F.);
#304=ORIENTED_EDGE('',*,*,#85,.T.);
#305=ORIENTED_EDGE('',*,*,#91,.F.);
#306=ORIENTED_EDGE('',*,*,#69,.T.);
#307=CARTESIAN_POINT('',(0.0,0.0,0.0));
#308=DIRECTION('',(-0.0,-0.0,-1.0));
#309=DIRECTION('',(1.0,0.0,0.0));
#310=CARTESIAN_POINT('',(0.0,0.0,0.0));
#311=DIRECTION('',(0.0,0.0,1.0));
#312=DIRECTION('',(1.0,0.0,0.0));
#313=SURFACE_STYLE_FILL_AREA(#347);
#314=ORIENTED_EDGE('',*,*,#97,.T.);
#315=ORIENTED_EDGE('',*,*,#61,.T.);
#316=ORIENTED_EDGE('',*,*,#91,.T.);
#317=ORIENTED_EDGE('',*,*,#59,.T.);
#318=CARTESIAN_POINT('',(0.0,0.0,0.0));
#319=DIRECTION('',(-0.0,-0.0,-1.0));
#320=DIRECTION('',(1.0,0.0,0.0));
#321=CARTESIAN_POINT('',(0.0,0.0,0.0));
#322=DIRECTION('',(0.0,0.0,1.0));
#323=DIRECTION('',(1.0,0.0,0.0));
#324=DIRECTION('',(-0.0,-0.0,-1.0));
#325=SURFACE_STYLE_FILL_AREA(#348);
#326=ORIENTED_EDGE('',*,*,#57,.T.);
#327=ORIENTED_EDGE('',*,*,#63,.T.);
#328=ORIENTED_EDGE('',*,*,#69,.F.);
#329=ORIENTED_EDGE('',*,*,#61,.F.);
#330=CARTESIAN_POINT('',(0.0,0.0,20.0));
#331=DIRECTION('',(0.0,0.0,1.0));
#332=DIRECTION('',(1.0,0.0,0.0));
#333=DIRECTION('',(-0.0,0.0,1.0));
#334=DIRECTION('',(0.0,0.0,1.0));
#335=SURFACE_STYLE_FILL_AREA(#349);
#336=ORIENTED_EDGE('',*,*,#81,.F.);
#337=ORIENTED_EDGE('',*,*,#57,.F.);
#338=ORIENTED_EDGE('',*,*,#95,.F.);
#339=ORIENTED_EDGE('',*,*,#89,.F.);
#340=CARTESIAN_POINT('',(0.0,0.0,0.0));
#341=DIRECTION('',(-0.0,-0.0,-1.0));
#342=DIRECTION('',(1.0,0.0,0.0));
#343=FILL_AREA_STYLE('',(#350));
#344=FILL_AREA_STYLE('',(#351));
#345=FILL_AREA_STYLE('',(#352));
#346=FILL_AREA_STYLE('',(#353));
#347=FILL_AREA_STYLE('',(#354));
#348=FILL_AREA_STYLE('',(#355));
#349=FILL_AREA_STYLE('',(#356));
#350=FILL_AREA_STYLE_COLOUR('',#357);
#351=FILL_AREA_STYLE_COLOUR('',#358);
#352=FILL_AREA_STYLE_COLOUR('',#359);
#353=FILL_AREA_STYLE_COLOUR('',#360);
#354=FILL_AREA_STYLE_COLOUR('',#361);
#355=FILL_AREA_STYLE_COLOUR('',#362);
#356=FILL_AREA_STYLE_COLOUR('',#363);
#357=COLOUR_RGB('',0.509803950786591,0.509803950786591,0.588235318660736);
#358=COLOUR_RGB('',0.509803950786591,0.509803950786591,0.588235318660736);
#359=COLOUR_RGB('',0.509803950786591,0.509803950786591,0.588235318660736);
#360=COLOUR_RGB('',0.509803950786591,0.509803950786591,0.588235318660736);
#361=COLOUR_RGB('',0.509803950786591,0.509803950786591,0.588235318660736);
#362=COLOUR_RGB('',0.509803950786591,0.509803950786591,0.588235318660736);
#363=COLOUR_RGB('',0.509803950786591,0.509803950786591,0.588235318660736);
ENDSEC;
END-ISO-10303-21;
