ISO-10303-21;
HEADER;
FILE_DESCRIPTION(('STEP AP214'),'1');
FILE_NAME(' ','  ',('TraceParts'),('TraceParts S.A.'),'XStep 1.0',' ',' ');
FILE_SCHEMA(('automotive_design'));
ENDSEC;
DATA;
#1=MECHANICAL_DESIGN_GEOMETRIC_PRESENTATION_REPRESENTATION(' ',(#10,#11,#12,#13,#14,#15,#16,#17,#18,#19,#20,#21,#22,#23,#24,#25,#26,#27,#28,#29,#30,#31,#32,#33,#34,#35,#36),#6);
#2=PRODUCT_DEFINITION_CONTEXT('',#37,'design');
#3=APPLICATION_PROTOCOL_DEFINITION('INTERNATIONAL STANDARD','automotive_design',1994,#37);
#4=PRODUCT_CATEGORY_RELATIONSHIP('NONE','NONE',#38,#39);
#5=SHAPE_DEFINITION_REPRESENTATION(#40,#41);
#6= (GEOMETRIC_REPRESENTATION_CONTEXT(3)GLOBAL_UNCERTAINTY_ASSIGNED_CONTEXT((#44))GLOBAL_UNIT_ASSIGNED_CONTEXT((#46,#47,#48))REPRESENTATION_CONTEXT('NONE','WORKSPACE'));
#10=STYLED_ITEM('',(#50),#51);
#11=STYLED_ITEM('',(#52),#53);
#12=STYLED_ITEM('',(#54),#55);
#13=STYLED_ITEM('',(#56),#57);
#14=STYLED_ITEM('',(#58),#59);
#15=STYLED_ITEM('',(#60),#61);
#16=STYLED_ITEM('',(#62),#63);
#17=STYLED_ITEM('',(#64),#65);
#18=STYLED_ITEM('',(#66),#67);
#19=STYLED_ITEM('',(#68),#69);
#20=STYLED_ITEM('',(#70),#71);
#21=STYLED_ITEM('',(#72),#73);
#22=STYLED_ITEM('',(#74),#75);
#23=STYLED_ITEM('',(#76),#77);
#24=STYLED_ITEM('',(#78),#79);
#25=STYLED_ITEM('',(#80),#81);
#26=STYLED_ITEM('',(#82),#83);
#27=STYLED_ITEM('',(#84),#85);
#28=STYLED_ITEM('',(#86),#87);
#29=STYLED_ITEM('',(#88),#89);
#30=STYLED_ITEM('',(#90),#91);
#31=STYLED_ITEM('',(#92),#93);
#32=STYLED_ITEM('',(#94),#95);
#33=STYLED_ITEM('',(#96),#97);
#34=STYLED_ITEM('',(#98),#99);
#35=STYLED_ITEM('',(#100),#101);
#36=STYLED_ITEM('',(#102),#103);
#37=APPLICATION_CONTEXT(' ');
#38=PRODUCT_CATEGORY('part','NONE');
#39=PRODUCT_RELATED_PRODUCT_CATEGORY('detail',' ',(#104));
#40=PRODUCT_DEFINITION_SHAPE('NONE','NONE',#105);
#41=ADVANCED_BREP_SHAPE_REPRESENTATION('1',(#57,#106),#6);
#44=UNCERTAINTY_MEASURE_WITH_UNIT(LENGTH_MEASURE(1.0E-006),#46,'','');
#46= (CONVERSION_BASED_UNIT('MILLIMETRE',#109)LENGTH_UNIT()NAMED_UNIT(#112));
#47= (NAMED_UNIT(#114)PLANE_ANGLE_UNIT()SI_UNIT($,.RADIAN.));
#48= (NAMED_UNIT(#114)SOLID_ANGLE_UNIT()SI_UNIT($,.STERADIAN.));
#50=PRESENTATION_STYLE_ASSIGNMENT((#120));
#51=EDGE_CURVE('',#61,#73,#121,.T.);
#52=PRESENTATION_STYLE_ASSIGNMENT((#122));
#53=ADVANCED_FACE('',(#123),#124,.F.);
#54=PRESENTATION_STYLE_ASSIGNMENT((#125));
#55=ADVANCED_FACE('',(#126),#127,.T.);
#56=PRESENTATION_STYLE_ASSIGNMENT((#128));
#57=MANIFOLD_SOLID_BREP('1',#129);
#58=PRESENTATION_STYLE_ASSIGNMENT((#130));
#59=EDGE_CURVE('',#73,#97,#131,.T.);
#60=PRESENTATION_STYLE_ASSIGNMENT((#132));
#61=VERTEX_POINT('',#133);
#62=PRESENTATION_STYLE_ASSIGNMENT((#134));
#63=EDGE_CURVE('',#69,#95,#135,.T.);
#64=PRESENTATION_STYLE_ASSIGNMENT((#136));
#65=VERTEX_POINT('',#137);
#66=PRESENTATION_STYLE_ASSIGNMENT((#138));
#67=EDGE_CURVE('',#95,#65,#139,.T.);
#68=PRESENTATION_STYLE_ASSIGNMENT((#140));
#69=VERTEX_POINT('',#141);
#70=PRESENTATION_STYLE_ASSIGNMENT((#142));
#71=ADVANCED_FACE('',(#143,#144),#145,.T.);
#72=PRESENTATION_STYLE_ASSIGNMENT((#146));
#73=VERTEX_POINT('',#147);
#74=PRESENTATION_STYLE_ASSIGNMENT((#148));
#75=EDGE_CURVE('',#83,#61,#149,.T.);
#76=PRESENTATION_STYLE_ASSIGNMENT((#150));
#77=EDGE_CURVE('',#97,#83,#151,.T.);
#78=PRESENTATION_STYLE_ASSIGNMENT((#152));
#79=EDGE_CURVE('',#61,#83,#153,.T.);
#80=PRESENTATION_STYLE_ASSIGNMENT((#154));
#81=EDGE_CURVE('',#95,#69,#155,.T.);
#82=PRESENTATION_STYLE_ASSIGNMENT((#156));
#83=VERTEX_POINT('',#157);
#84=PRESENTATION_STYLE_ASSIGNMENT((#158));
#85=EDGE_CURVE('',#103,#65,#159,.T.);
#86=PRESENTATION_STYLE_ASSIGNMENT((#160));
#87=ADVANCED_FACE('',(#161),#162,.F.);
#88=PRESENTATION_STYLE_ASSIGNMENT((#163));
#89=ADVANCED_FACE('',(#164,#165),#166,.F.);
#90=PRESENTATION_STYLE_ASSIGNMENT((#167));
#91=EDGE_CURVE('',#97,#73,#168,.T.);
#92=PRESENTATION_STYLE_ASSIGNMENT((#169));
#93=EDGE_CURVE('',#65,#103,#170,.T.);
#94=PRESENTATION_STYLE_ASSIGNMENT((#171));
#95=VERTEX_POINT('',#172);
#96=PRESENTATION_STYLE_ASSIGNMENT((#173));
#97=VERTEX_POINT('',#174);
#98=PRESENTATION_STYLE_ASSIGNMENT((#175));
#99=EDGE_CURVE('',#103,#69,#176,.T.);
#100=PRESENTATION_STYLE_ASSIGNMENT((#177));
#101=ADVANCED_FACE('',(#178),#179,.T.);
#102=PRESENTATION_STYLE_ASSIGNMENT((#180));
#103=VERTEX_POINT('',#181);
#104=PRODUCT('1','1','PART-1-DESC',(#182));
#105=PRODUCT_DEFINITION('NONE','NONE',#183,#2);
#106=AXIS2_PLACEMENT_3D('',#184,#185,#186);
#109=LENGTH_MEASURE_WITH_UNIT(LENGTH_MEASURE(1.0),#187);
#112=DIMENSIONAL_EXPONENTS(1.0,0.0,0.0,0.0,0.0,0.0,0.0);
#114=DIMENSIONAL_EXPONENTS(0.0,0.0,0.0,0.0,0.0,0.0,0.0);
#120=CURVE_STYLE('',#188,POSITIVE_LENGTH_MEASURE(1.0E-006),#189);
#121=LINE('',#190,#191);
#122=SURFACE_STYLE_USAGE(.BOTH.,#192);
#123=FACE_OUTER_BOUND('',#193,.T.);
#124=CYLINDRICAL_SURFACE('',#194,6.5);
#125=SURFACE_STYLE_USAGE(.BOTH.,#195);
#126=FACE_OUTER_BOUND('',#196,.T.);
#127=CYLINDRICAL_SURFACE('',#197,19.75);
#128=SURFACE_STYLE_USAGE(.BOTH.,#198);
#129=CLOSED_SHELL('',(#101,#53,#87,#55,#89,#71));
#130=CURVE_STYLE('',#199,POSITIVE_LENGTH_MEASURE(1.0E-006),#200);
#131=CIRCLE('',#201,19.75);
#132=POINT_STYLE(' ',#202,POSITIVE_LENGTH_MEASURE(1.0E-006),#203);
#133=CARTESIAN_POINT('',(-19.75,0.0,20.0));
#134=CURVE_STYLE('',#204,POSITIVE_LENGTH_MEASURE(1.0E-006),#205);
#135=CIRCLE('',#206,6.5);
#136=POINT_STYLE(' ',#207,POSITIVE_LENGTH_MEASURE(1.0E-006),#208);
#137=CARTESIAN_POINT('',(6.5,0.0,0.0));
#138=CURVE_STYLE('',#209,POSITIVE_LENGTH_MEASURE(1.0E-006),#210);
#139=LINE('',#211,#212);
#140=POINT_STYLE(' ',#213,POSITIVE_LENGTH_MEASURE(1.0E-006),#214);
#141=CARTESIAN_POINT('',(-6.5,0.0,20.0));
#142=SURFACE_STYLE_USAGE(.BOTH.,#215);
#143=FACE_BOUND('',#216,.T.);
#144=FACE_OUTER_BOUND('',#217,.T.);
#145=PLANE('',#218);
#146=POINT_STYLE(' ',#219,POSITIVE_LENGTH_MEASURE(1.0E-006),#220);
#147=CARTESIAN_POINT('',(-19.75,2.4185975487992E-015,0.0));
#148=CURVE_STYLE('',#221,POSITIVE_LENGTH_MEASURE(1.0E-006),#222);
#149=CIRCLE('',#223,19.75);
#150=CURVE_STYLE('',#224,POSITIVE_LENGTH_MEASURE(1.0E-006),#225);
#151=LINE('',#226,#227);
#152=CURVE_STYLE('',#228,POSITIVE_LENGTH_MEASURE(1.0E-006),#229);
#153=CIRCLE('',#230,19.75);
#154=CURVE_STYLE('',#231,POSITIVE_LENGTH_MEASURE(1.0E-006),#232);
#155=CIRCLE('',#233,6.5);
#156=POINT_STYLE(' ',#234,POSITIVE_LENGTH_MEASURE(1.0E-006),#235);
#157=CARTESIAN_POINT('',(19.75,-2.4185975487992E-015,20.0));
#158=CURVE_STYLE('',#236,POSITIVE_LENGTH_MEASURE(1.0E-006),#237);
#159=CIRCLE('',#238,6.5);
#160=SURFACE_STYLE_USAGE(.BOTH.,#239);
#161=FACE_OUTER_BOUND('',#240,.T.);
#162=CYLINDRICAL_SURFACE('',#241,6.5);
#163=SURFACE_STYLE_USAGE(.BOTH.,#242);
#164=FACE_BOUND('',#243,.T.);
#165=FACE_OUTER_BOUND('',#244,.T.);
#166=PLANE('',#245);
#167=CURVE_STYLE('',#246,POSITIVE_LENGTH_MEASURE(1.0E-006),#247);
#168=CIRCLE('',#248,19.75);
#169=CURVE_STYLE('',#249,POSITIVE_LENGTH_MEASURE(1.0E-006),#250);
#170=CIRCLE('',#251,6.5);
#171=POINT_STYLE(' ',#252,POSITIVE_LENGTH_MEASURE(1.0E-006),#253);
#172=CARTESIAN_POINT('',(6.5,-7.95994129984545E-016,20.0));
#173=POINT_STYLE(' ',#254,POSITIVE_LENGTH_MEASURE(1.0E-006),#255);
#174=CARTESIAN_POINT('',(19.75,0.0,0.0));
#175=CURVE_STYLE('',#256,POSITIVE_LENGTH_MEASURE(1.0E-006),#257);
#176=LINE('',#258,#259);
#177=SURFACE_STYLE_USAGE(.BOTH.,#260);
#178=FACE_OUTER_BOUND('',#261,.T.);
#179=CYLINDRICAL_SURFACE('',#262,19.75);
#180=POINT_STYLE(' ',#263,POSITIVE_LENGTH_MEASURE(1.0E-006),#264);
#181=CARTESIAN_POINT('',(-6.5,7.95994129984545E-016,0.0));
#182=PRODUCT_CONTEXT('',#37,'mechanical');
#183=PRODUCT_DEFINITION_FORMATION_WITH_SPECIFIED_SOURCE(' ','NONE',#104,.NOT_KNOWN.);
#184=CARTESIAN_POINT('',(0.0,0.0,0.0));
#185=DIRECTION('',(0.0,0.0,1.0));
#186=DIRECTION('',(1.0,0.0,0.0));
#187= (NAMED_UNIT(#112)LENGTH_UNIT()SI_UNIT(.MILLI.,.METRE.));
#188=DRAUGHTING_PRE_DEFINED_CURVE_FONT('continuous');
#189=COLOUR_RGB('',0.509803950786591,0.509803950786591,0.588235318660736);
#190=CARTESIAN_POINT('',(-19.75,2.4185975487992E-015,0.0));
#191=VECTOR('',#266,1.0);
#192=SURFACE_SIDE_STYLE('',(#267));
#193=EDGE_LOOP('',(#268,#269,#270,#271));
#194=AXIS2_PLACEMENT_3D('',#272,#273,#274);
#195=SURFACE_SIDE_STYLE('',(#275));
#196=EDGE_LOOP('',(#276,#277,#278,#279));
#197=AXIS2_PLACEMENT_3D('',#280,#281,#282);
#198=SURFACE_SIDE_STYLE('',(#283));
#199=DRAUGHTING_PRE_DEFINED_CURVE_FONT('continuous');
#200=COLOUR_RGB('',0.509803950786591,0.509803950786591,0.588235318660736);
#201=AXIS2_PLACEMENT_3D('',#284,#285,#286);
#202=PRE_DEFINED_MARKER('');
#203=COLOUR_RGB('',0.509803950786591,0.509803950786591,0.588235318660736);
#204=DRAUGHTING_PRE_DEFINED_CURVE_FONT('continuous');
#205=COLOUR_RGB('',0.509803950786591,0.509803950786591,0.588235318660736);
#206=AXIS2_PLACEMENT_3D('',#287,#288,#289);
#207=PRE_DEFINED_MARKER('');
#208=COLOUR_RGB('',0.509803950786591,0.509803950786591,0.588235318660736);
#209=DRAUGHTING_PRE_DEFINED_CURVE_FONT('continuous');
#210=COLOUR_RGB('',0.509803950786591,0.509803950786591,0.588235318660736);
#211=CARTESIAN_POINT('',(6.5,-7.95994129984545E-016,0.0));
#212=VECTOR('',#290,1.0);
#213=PRE_DEFINED_MARKER('');
#214=COLOUR_RGB('',0.509803950786591,0.509803950786591,0.588235318660736);
#215=SURFACE_SIDE_STYLE('',(#291));
#216=EDGE_LOOP('',(#292,#293));
#217=EDGE_LOOP('',(#294,#295));
#218=AXIS2_PLACEMENT_3D('',#296,#297,#298);
#219=PRE_DEFINED_MARKER('');
#220=COLOUR_RGB('',0.509803950786591,0.509803950786591,0.588235318660736);
#221=DRAUGHTING_PRE_DEFINED_CURVE_FONT('continuous');
#222=COLOUR_RGB('',0.509803950786591,0.509803950786591,0.588235318660736);
#223=AXIS2_PLACEMENT_3D('',#299,#300,#301);
#224=DRAUGHTING_PRE_DEFINED_CURVE_FONT('continuous');
#225=COLOUR_RGB('',0.509803950786591,0.509803950786591,0.588235318660736);
#226=CARTESIAN_POINT('',(19.75,-2.4185975487992E-015,0.0));
#227=VECTOR('',#302,1.0);
#228=DRAUGHTING_PRE_DEFINED_CURVE_FONT('continuous');
#229=COLOUR_RGB('',0.509803950786591,0.509803950786591,0.588235318660736);
#230=AXIS2_PLACEMENT_3D('',#303,#304,#305);
#231=DRAUGHTING_PRE_DEFINED_CURVE_FONT('continuous');
#232=COLOUR_RGB('',0.509803950786591,0.509803950786591,0.588235318660736);
#233=AXIS2_PLACEMENT_3D('',#306,#307,#308);
#234=PRE_DEFINED_MARKER('');
#235=COLOUR_RGB('',0.509803950786591,0.509803950786591,0.588235318660736);
#236=DRAUGHTING_PRE_DEFINED_CURVE_FONT('continuous');
#237=COLOUR_RGB('',0.509803950786591,0.509803950786591,0.588235318660736);
#238=AXIS2_PLACEMENT_3D('',#309,#310,#311);
#239=SURFACE_SIDE_STYLE('',(#312));
#240=EDGE_LOOP('',(#313,#314,#315,#316));
#241=AXIS2_PLACEMENT_3D('',#317,#318,#319);
#242=SURFACE_SIDE_STYLE('',(#320));
#243=EDGE_LOOP('',(#321,#322));
#244=EDGE_LOOP('',(#323,#324));
#245=AXIS2_PLACEMENT_3D('',#325,#326,#327);
#246=DRAUGHTING_PRE_DEFINED_CURVE_FONT('continuous');
#247=COLOUR_RGB('',0.509803950786591,0.509803950786591,0.588235318660736);
#248=AXIS2_PLACEMENT_3D('',#328,#329,#330);
#249=DRAUGHTING_PRE_DEFINED_CURVE_FONT('continuous');
#250=COLOUR_RGB('',0.509803950786591,0.509803950786591,0.588235318660736);
#251=AXIS2_PLACEMENT_3D('',#331,#332,#333);
#252=PRE_DEFINED_MARKER('');
#253=COLOUR_RGB('',0.509803950786591,0.509803950786591,0.588235318660736);
#254=PRE_DEFINED_MARKER('');
#255=COLOUR_RGB('',0.509803950786591,0.509803950786591,0.588235318660736);
#256=DRAUGHTING_PRE_DEFINED_CURVE_FONT('continuous');
#257=COLOUR_RGB('',0.509803950786591,0.509803950786591,0.588235318660736);
#258=CARTESIAN_POINT('',(-6.5,7.95994129984545E-016,0.0));
#259=VECTOR('',#334,1.0);
#260=SURFACE_SIDE_STYLE('',(#335));
#261=EDGE_LOOP('',(#336,#337,#338,#339));
#262=AXIS2_PLACEMENT_3D('',#340,#341,#342);
#263=PRE_DEFINED_MARKER('');
#264=COLOUR_RGB('',0.509803950786591,0.509803950786591,0.588235318660736);
#266=DIRECTION('',(-0.0,-0.0,-1.0));
#267=SURFACE_STYLE_FILL_AREA(#343);
#268=ORIENTED_EDGE('',*,*,#67,.F.);
#269=ORIENTED_EDGE('',*,*,#63,.F.);
#270=ORIENTED_EDGE('',*,*,#99,.F.);
#271=ORIENTED_EDGE('',*,*,#93,.F.);
#272=CARTESIAN_POINT('',(0.0,0.0,0.0));
#273=DIRECTION('',(-0.0,-0.0,-1.0));
#274=DIRECTION('',(1.0,0.0,0.0));
#275=SURFACE_STYLE_FILL_AREA(#344);
#276=ORIENTED_EDGE('',*,*,#77,.T.);
#277=ORIENTED_EDGE('',*,*,#75,.T.);
#278=ORIENTED_EDGE('',*,*,#51,.T.);
#279=ORIENTED_EDGE('',*,*,#59,.T.);
#280=CARTESIAN_POINT('',(0.0,0.0,0.0));
#281=DIRECTION('',(-0.0,-0.0,-1.0));
#282=DIRECTION('',(1.0,0.0,0.0));
#283=SURFACE_STYLE_FILL_AREA(#345);
#284=CARTESIAN_POINT('',(0.0,0.0,0.0));
#285=DIRECTION('',(0.0,0.0,1.0));
#286=DIRECTION('',(1.0,0.0,0.0));
#287=CARTESIAN_POINT('',(0.0,0.0,20.0));
#288=DIRECTION('',(0.0,0.0,-1.0));
#289=DIRECTION('',(1.0,0.0,0.0));
#290=DIRECTION('',(-0.0,0.0,-1.0));
#291=SURFACE_STYLE_FILL_AREA(#346);
#292=ORIENTED_EDGE('',*,*,#63,.T.);
#293=ORIENTED_EDGE('',*,*,#81,.T.);
#294=ORIENTED_EDGE('',*,*,#79,.F.);
#295=ORIENTED_EDGE('',*,*,#75,.F.);
#296=CARTESIAN_POINT('',(0.0,0.0,20.0));
#297=DIRECTION('',(0.0,0.0,1.0));
#298=DIRECTION('',(1.0,0.0,0.0));
#299=CARTESIAN_POINT('',(0.0,0.0,20.0));
#300=DIRECTION('',(0.0,0.0,-1.0));
#301=DIRECTION('',(-1.0,0.0,0.0));
#302=DIRECTION('',(0.0,0.0,1.0));
#303=CARTESIAN_POINT('',(0.0,0.0,20.0));
#304=DIRECTION('',(0.0,0.0,-1.0));
#305=DIRECTION('',(-1.0,0.0,0.0));
#306=CARTESIAN_POINT('',(0.0,0.0,20.0));
#307=DIRECTION('',(0.0,0.0,-1.0));
#308=DIRECTION('',(1.0,0.0,0.0));
#309=CARTESIAN_POINT('',(0.0,0.0,0.0));
#310=DIRECTION('',(0.0,0.0,1.0));
#311=DIRECTION('',(1.0,0.0,0.0));
#312=SURFACE_STYLE_FILL_AREA(#347);
#313=ORIENTED_EDGE('',*,*,#67,.T.);
#314=ORIENTED_EDGE('',*,*,#85,.F.);
#315=ORIENTED_EDGE('',*,*,#99,.T.);
#316=ORIENTED_EDGE('',*,*,#81,.F.);
#317=CARTESIAN_POINT('',(0.0,0.0,0.0));
#318=DIRECTION('',(-0.0,-0.0,-1.0));
#319=DIRECTION('',(1.0,0.0,0.0));
#320=SURFACE_STYLE_FILL_AREA(#348);
#321=ORIENTED_EDGE('',*,*,#93,.T.);
#322=ORIENTED_EDGE('',*,*,#85,.T.);
#323=ORIENTED_EDGE('',*,*,#91,.F.);
#324=ORIENTED_EDGE('',*,*,#59,.F.);
#325=CARTESIAN_POINT('',(0.0,0.0,0.0));
#326=DIRECTION('',(0.0,0.0,1.0));
#327=DIRECTION('',(1.0,0.0,0.0));
#328=CARTESIAN_POINT('',(0.0,0.0,0.0));
#329=DIRECTION('',(0.0,0.0,1.0));
#330=DIRECTION('',(1.0,0.0,0.0));
#331=CARTESIAN_POINT('',(0.0,0.0,0.0));
#332=DIRECTION('',(0.0,0.0,1.0));
#333=DIRECTION('',(1.0,0.0,0.0));
#334=DIRECTION('',(-0.0,0.0,1.0));
#335=SURFACE_STYLE_FILL_AREA(#349);
#336=ORIENTED_EDGE('',*,*,#77,.F.);
#337=ORIENTED_EDGE('',*,*,#91,.T.);
#338=ORIENTED_EDGE('',*,*,#51,.F.);
#339=ORIENTED_EDGE('',*,*,#79,.T.);
#340=CARTESIAN_POINT('',(0.0,0.0,0.0));
#341=DIRECTION('',(-0.0,-0.0,-1.0));
#342=DIRECTION('',(1.0,0.0,0.0));
#343=FILL_AREA_STYLE('',(#350));
#344=FILL_AREA_STYLE('',(#351));
#345=FILL_AREA_STYLE('',(#352));
#346=FILL_AREA_STYLE('',(#353));
#347=FILL_AREA_STYLE('',(#354));
#348=FILL_AREA_STYLE('',(#355));
#349=FILL_AREA_STYLE('',(#356));
#350=FILL_AREA_STYLE_COLOUR('',#357);
#351=FILL_AREA_STYLE_COLOUR('',#358);
#352=FILL_AREA_STYLE_COLOUR('',#359);
#353=FILL_AREA_STYLE_COLOUR('',#360);
#354=FILL_AREA_STYLE_COLOUR('',#361);
#355=FILL_AREA_STYLE_COLOUR('',#362);
#356=FILL_AREA_STYLE_COLOUR('',#363);
#357=COLOUR_RGB('',0.509803950786591,0.509803950786591,0.588235318660736);
#358=COLOUR_RGB('',0.509803950786591,0.509803950786591,0.588235318660736);
#359=COLOUR_RGB('',0.509803950786591,0.509803950786591,0.588235318660736);
#360=COLOUR_RGB('',0.509803950786591,0.509803950786591,0.588235318660736);
#361=COLOUR_RGB('',0.509803950786591,0.509803950786591,0.588235318660736);
#362=COLOUR_RGB('',0.509803950786591,0.509803950786591,0.588235318660736);
#363=COLOUR_RGB('',0.509803950786591,0.509803950786591,0.588235318660736);
ENDSEC;
END-ISO-10303-21;
