ISO-10303-21;
HEADER;
FILE_DESCRIPTION(('STEP AP214'),'1');
FILE_NAME(' ','  ',('TraceParts'),('TraceParts S.A.'),'XStep 1.0',' ',' ');
FILE_SCHEMA(('automotive_design'));
ENDSEC;
DATA;
#1=MECHANICAL_DESIGN_GEOMETRIC_PRESENTATION_REPRESENTATION(' ',(#10,#11,#12,#13,#14,#15,#16,#17,#18,#19,#20,#21,#22,#23,#24,#25,#26,#27,#28,#29,#30,#31,#32,#33,#34,#35,#36),#6);
#2=PRODUCT_DEFINITION_CONTEXT('',#37,'design');
#3=APPLICATION_PROTOCOL_DEFINITION('INTERNATIONAL STANDARD','automotive_design',1994,#37);
#4=PRODUCT_CATEGORY_RELATIONSHIP('NONE','NONE',#38,#39);
#5=SHAPE_DEFINITION_REPRESENTATION(#40,#41);
#6= (GEOMETRIC_REPRESENTATION_CONTEXT(3)GLOBAL_UNCERTAINTY_ASSIGNED_CONTEXT((#44))GLOBAL_UNIT_ASSIGNED_CONTEXT((#46,#47,#48))REPRESENTATION_CONTEXT('NONE','WORKSPACE'));
#10=STYLED_ITEM('',(#50),#51);
#11=STYLED_ITEM('',(#52),#53);
#12=STYLED_ITEM('',(#54),#55);
#13=STYLED_ITEM('',(#56),#57);
#14=STYLED_ITEM('',(#58),#59);
#15=STYLED_ITEM('',(#60),#61);
#16=STYLED_ITEM('',(#62),#63);
#17=STYLED_ITEM('',(#64),#65);
#18=STYLED_ITEM('',(#66),#67);
#19=STYLED_ITEM('',(#68),#69);
#20=STYLED_ITEM('',(#70),#71);
#21=STYLED_ITEM('',(#72),#73);
#22=STYLED_ITEM('',(#74),#75);
#23=STYLED_ITEM('',(#76),#77);
#24=STYLED_ITEM('',(#78),#79);
#25=STYLED_ITEM('',(#80),#81);
#26=STYLED_ITEM('',(#82),#83);
#27=STYLED_ITEM('',(#84),#85);
#28=STYLED_ITEM('',(#86),#87);
#29=STYLED_ITEM('',(#88),#89);
#30=STYLED_ITEM('',(#90),#91);
#31=STYLED_ITEM('',(#92),#93);
#32=STYLED_ITEM('',(#94),#95);
#33=STYLED_ITEM('',(#96),#97);
#34=STYLED_ITEM('',(#98),#99);
#35=STYLED_ITEM('',(#100),#101);
#36=STYLED_ITEM('',(#102),#103);
#37=APPLICATION_CONTEXT(' ');
#38=PRODUCT_CATEGORY('part','NONE');
#39=PRODUCT_RELATED_PRODUCT_CATEGORY('detail',' ',(#104));
#40=PRODUCT_DEFINITION_SHAPE('NONE','NONE',#105);
#41=ADVANCED_BREP_SHAPE_REPRESENTATION('1',(#53,#106),#6);
#44=UNCERTAINTY_MEASURE_WITH_UNIT(LENGTH_MEASURE(1.0E-006),#46,'','');
#46= (CONVERSION_BASED_UNIT('MILLIMETRE',#109)LENGTH_UNIT()NAMED_UNIT(#112));
#47= (NAMED_UNIT(#114)PLANE_ANGLE_UNIT()SI_UNIT($,.RADIAN.));
#48= (NAMED_UNIT(#114)SOLID_ANGLE_UNIT()SI_UNIT($,.STERADIAN.));
#50=PRESENTATION_STYLE_ASSIGNMENT((#120));
#51=EDGE_CURVE('',#87,#81,#121,.T.);
#52=PRESENTATION_STYLE_ASSIGNMENT((#122));
#53=MANIFOLD_SOLID_BREP('1',#123);
#54=PRESENTATION_STYLE_ASSIGNMENT((#124));
#55=EDGE_CURVE('',#69,#101,#125,.T.);
#56=PRESENTATION_STYLE_ASSIGNMENT((#126));
#57=EDGE_CURVE('',#81,#89,#127,.T.);
#58=PRESENTATION_STYLE_ASSIGNMENT((#128));
#59=EDGE_CURVE('',#99,#89,#129,.T.);
#60=PRESENTATION_STYLE_ASSIGNMENT((#130));
#61=EDGE_CURVE('',#89,#99,#131,.T.);
#62=PRESENTATION_STYLE_ASSIGNMENT((#132));
#63=EDGE_CURVE('',#101,#69,#133,.T.);
#64=PRESENTATION_STYLE_ASSIGNMENT((#134));
#65=EDGE_CURVE('',#101,#71,#135,.T.);
#66=PRESENTATION_STYLE_ASSIGNMENT((#136));
#67=ADVANCED_FACE('',(#137,#138),#139,.F.);
#68=PRESENTATION_STYLE_ASSIGNMENT((#140));
#69=VERTEX_POINT('',#141);
#70=PRESENTATION_STYLE_ASSIGNMENT((#142));
#71=VERTEX_POINT('',#143);
#72=PRESENTATION_STYLE_ASSIGNMENT((#144));
#73=EDGE_CURVE('',#103,#71,#145,.T.);
#74=PRESENTATION_STYLE_ASSIGNMENT((#146));
#75=EDGE_CURVE('',#81,#87,#147,.T.);
#76=PRESENTATION_STYLE_ASSIGNMENT((#148));
#77=ADVANCED_FACE('',(#149),#150,.T.);
#78=PRESENTATION_STYLE_ASSIGNMENT((#151));
#79=ADVANCED_FACE('',(#152),#153,.F.);
#80=PRESENTATION_STYLE_ASSIGNMENT((#154));
#81=VERTEX_POINT('',#155);
#82=PRESENTATION_STYLE_ASSIGNMENT((#156));
#83=EDGE_CURVE('',#99,#87,#157,.T.);
#84=PRESENTATION_STYLE_ASSIGNMENT((#158));
#85=EDGE_CURVE('',#71,#103,#159,.T.);
#86=PRESENTATION_STYLE_ASSIGNMENT((#160));
#87=VERTEX_POINT('',#161);
#88=PRESENTATION_STYLE_ASSIGNMENT((#162));
#89=VERTEX_POINT('',#163);
#90=PRESENTATION_STYLE_ASSIGNMENT((#164));
#91=ADVANCED_FACE('',(#165),#166,.T.);
#92=PRESENTATION_STYLE_ASSIGNMENT((#167));
#93=EDGE_CURVE('',#103,#69,#168,.T.);
#94=PRESENTATION_STYLE_ASSIGNMENT((#169));
#95=ADVANCED_FACE('',(#170,#171),#172,.T.);
#96=PRESENTATION_STYLE_ASSIGNMENT((#173));
#97=ADVANCED_FACE('',(#174),#175,.F.);
#98=PRESENTATION_STYLE_ASSIGNMENT((#176));
#99=VERTEX_POINT('',#177);
#100=PRESENTATION_STYLE_ASSIGNMENT((#178));
#101=VERTEX_POINT('',#179);
#102=PRESENTATION_STYLE_ASSIGNMENT((#180));
#103=VERTEX_POINT('',#181);
#104=PRODUCT('1','1','PART-1-DESC',(#182));
#105=PRODUCT_DEFINITION('NONE','NONE',#183,#2);
#106=AXIS2_PLACEMENT_3D('',#184,#185,#186);
#109=LENGTH_MEASURE_WITH_UNIT(LENGTH_MEASURE(1.0),#187);
#112=DIMENSIONAL_EXPONENTS(1.0,0.0,0.0,0.0,0.0,0.0,0.0);
#114=DIMENSIONAL_EXPONENTS(0.0,0.0,0.0,0.0,0.0,0.0,0.0);
#120=CURVE_STYLE('',#188,POSITIVE_LENGTH_MEASURE(1.0E-006),#189);
#121=CIRCLE('',#190,29.75);
#122=SURFACE_STYLE_USAGE(.BOTH.,#191);
#123=CLOSED_SHELL('',(#77,#79,#97,#91,#67,#95));
#124=CURVE_STYLE('',#192,POSITIVE_LENGTH_MEASURE(1.0E-006),#193);
#125=CIRCLE('',#194,6.5);
#126=CURVE_STYLE('',#195,POSITIVE_LENGTH_MEASURE(1.0E-006),#196);
#127=LINE('',#197,#198);
#128=CURVE_STYLE('',#199,POSITIVE_LENGTH_MEASURE(1.0E-006),#200);
#129=CIRCLE('',#201,29.75);
#130=CURVE_STYLE('',#202,POSITIVE_LENGTH_MEASURE(1.0E-006),#203);
#131=CIRCLE('',#204,29.75);
#132=CURVE_STYLE('',#205,POSITIVE_LENGTH_MEASURE(1.0E-006),#206);
#133=CIRCLE('',#207,6.5);
#134=CURVE_STYLE('',#208,POSITIVE_LENGTH_MEASURE(1.0E-006),#209);
#135=LINE('',#210,#211);
#136=SURFACE_STYLE_USAGE(.BOTH.,#212);
#137=FACE_BOUND('',#213,.T.);
#138=FACE_OUTER_BOUND('',#214,.T.);
#139=PLANE('',#215);
#140=POINT_STYLE(' ',#216,POSITIVE_LENGTH_MEASURE(1.0E-006),#217);
#141=CARTESIAN_POINT('',(-6.5,0.0,10.0));
#142=POINT_STYLE(' ',#218,POSITIVE_LENGTH_MEASURE(1.0E-006),#219);
#143=CARTESIAN_POINT('',(6.5,0.0,0.0));
#144=CURVE_STYLE('',#220,POSITIVE_LENGTH_MEASURE(1.0E-006),#221);
#145=CIRCLE('',#222,6.5);
#146=CURVE_STYLE('',#223,POSITIVE_LENGTH_MEASURE(1.0E-006),#224);
#147=CIRCLE('',#225,29.75);
#148=SURFACE_STYLE_USAGE(.BOTH.,#226);
#149=FACE_OUTER_BOUND('',#227,.T.);
#150=CYLINDRICAL_SURFACE('',#228,29.75);
#151=SURFACE_STYLE_USAGE(.BOTH.,#229);
#152=FACE_OUTER_BOUND('',#230,.T.);
#153=CYLINDRICAL_SURFACE('',#231,6.5);
#154=POINT_STYLE(' ',#232,POSITIVE_LENGTH_MEASURE(1.0E-006),#233);
#155=CARTESIAN_POINT('',(29.75,0.0,0.0));
#156=CURVE_STYLE('',#234,POSITIVE_LENGTH_MEASURE(1.0E-006),#235);
#157=LINE('',#236,#237);
#158=CURVE_STYLE('',#238,POSITIVE_LENGTH_MEASURE(1.0E-006),#239);
#159=CIRCLE('',#240,6.5);
#160=POINT_STYLE(' ',#241,POSITIVE_LENGTH_MEASURE(1.0E-006),#242);
#161=CARTESIAN_POINT('',(-29.75,3.64320390262157E-015,0.0));
#162=POINT_STYLE(' ',#243,POSITIVE_LENGTH_MEASURE(1.0E-006),#244);
#163=CARTESIAN_POINT('',(29.75,-3.64320390262157E-015,10.0));
#164=SURFACE_STYLE_USAGE(.BOTH.,#245);
#165=FACE_OUTER_BOUND('',#246,.T.);
#166=CYLINDRICAL_SURFACE('',#247,29.75);
#167=CURVE_STYLE('',#248,POSITIVE_LENGTH_MEASURE(1.0E-006),#249);
#168=LINE('',#250,#251);
#169=SURFACE_STYLE_USAGE(.BOTH.,#252);
#170=FACE_BOUND('',#253,.T.);
#171=FACE_OUTER_BOUND('',#254,.T.);
#172=PLANE('',#255);
#173=SURFACE_STYLE_USAGE(.BOTH.,#256);
#174=FACE_OUTER_BOUND('',#257,.T.);
#175=CYLINDRICAL_SURFACE('',#258,6.5);
#176=POINT_STYLE(' ',#259,POSITIVE_LENGTH_MEASURE(1.0E-006),#260);
#177=CARTESIAN_POINT('',(-29.75,0.0,10.0));
#178=POINT_STYLE(' ',#261,POSITIVE_LENGTH_MEASURE(1.0E-006),#262);
#179=CARTESIAN_POINT('',(6.5,-7.95994129984545E-016,10.0));
#180=POINT_STYLE(' ',#263,POSITIVE_LENGTH_MEASURE(1.0E-006),#264);
#181=CARTESIAN_POINT('',(-6.5,7.95994129984545E-016,0.0));
#182=PRODUCT_CONTEXT('',#37,'mechanical');
#183=PRODUCT_DEFINITION_FORMATION_WITH_SPECIFIED_SOURCE(' ','NONE',#104,.NOT_KNOWN.);
#184=CARTESIAN_POINT('',(0.0,0.0,0.0));
#185=DIRECTION('',(0.0,0.0,1.0));
#186=DIRECTION('',(1.0,0.0,0.0));
#187= (NAMED_UNIT(#112)LENGTH_UNIT()SI_UNIT(.MILLI.,.METRE.));
#188=DRAUGHTING_PRE_DEFINED_CURVE_FONT('continuous');
#189=COLOUR_RGB('',0.509803950786591,0.509803950786591,0.588235318660736);
#190=AXIS2_PLACEMENT_3D('',#266,#267,#268);
#191=SURFACE_SIDE_STYLE('',(#269));
#192=DRAUGHTING_PRE_DEFINED_CURVE_FONT('continuous');
#193=COLOUR_RGB('',0.509803950786591,0.509803950786591,0.588235318660736);
#194=AXIS2_PLACEMENT_3D('',#270,#271,#272);
#195=DRAUGHTING_PRE_DEFINED_CURVE_FONT('continuous');
#196=COLOUR_RGB('',0.509803950786591,0.509803950786591,0.588235318660736);
#197=CARTESIAN_POINT('',(29.75,-3.64320390262157E-015,0.0));
#198=VECTOR('',#273,1.0);
#199=DRAUGHTING_PRE_DEFINED_CURVE_FONT('continuous');
#200=COLOUR_RGB('',0.509803950786591,0.509803950786591,0.588235318660736);
#201=AXIS2_PLACEMENT_3D('',#274,#275,#276);
#202=DRAUGHTING_PRE_DEFINED_CURVE_FONT('continuous');
#203=COLOUR_RGB('',0.509803950786591,0.509803950786591,0.588235318660736);
#204=AXIS2_PLACEMENT_3D('',#277,#278,#279);
#205=DRAUGHTING_PRE_DEFINED_CURVE_FONT('continuous');
#206=COLOUR_RGB('',0.509803950786591,0.509803950786591,0.588235318660736);
#207=AXIS2_PLACEMENT_3D('',#280,#281,#282);
#208=DRAUGHTING_PRE_DEFINED_CURVE_FONT('continuous');
#209=COLOUR_RGB('',0.509803950786591,0.509803950786591,0.588235318660736);
#210=CARTESIAN_POINT('',(6.5,-7.95994129984545E-016,0.0));
#211=VECTOR('',#283,1.0);
#212=SURFACE_SIDE_STYLE('',(#284));
#213=EDGE_LOOP('',(#285,#286));
#214=EDGE_LOOP('',(#287,#288));
#215=AXIS2_PLACEMENT_3D('',#289,#290,#291);
#216=PRE_DEFINED_MARKER('');
#217=COLOUR_RGB('',0.509803950786591,0.509803950786591,0.588235318660736);
#218=PRE_DEFINED_MARKER('');
#219=COLOUR_RGB('',0.509803950786591,0.509803950786591,0.588235318660736);
#220=DRAUGHTING_PRE_DEFINED_CURVE_FONT('continuous');
#221=COLOUR_RGB('',0.509803950786591,0.509803950786591,0.588235318660736);
#222=AXIS2_PLACEMENT_3D('',#292,#293,#294);
#223=DRAUGHTING_PRE_DEFINED_CURVE_FONT('continuous');
#224=COLOUR_RGB('',0.509803950786591,0.509803950786591,0.588235318660736);
#225=AXIS2_PLACEMENT_3D('',#295,#296,#297);
#226=SURFACE_SIDE_STYLE('',(#298));
#227=EDGE_LOOP('',(#299,#300,#301,#302));
#228=AXIS2_PLACEMENT_3D('',#303,#304,#305);
#229=SURFACE_SIDE_STYLE('',(#306));
#230=EDGE_LOOP('',(#307,#308,#309,#310));
#231=AXIS2_PLACEMENT_3D('',#311,#312,#313);
#232=PRE_DEFINED_MARKER('');
#233=COLOUR_RGB('',0.509803950786591,0.509803950786591,0.588235318660736);
#234=DRAUGHTING_PRE_DEFINED_CURVE_FONT('continuous');
#235=COLOUR_RGB('',0.509803950786591,0.509803950786591,0.588235318660736);
#236=CARTESIAN_POINT('',(-29.75,3.64320390262157E-015,0.0));
#237=VECTOR('',#314,1.0);
#238=DRAUGHTING_PRE_DEFINED_CURVE_FONT('continuous');
#239=COLOUR_RGB('',0.509803950786591,0.509803950786591,0.588235318660736);
#240=AXIS2_PLACEMENT_3D('',#315,#316,#317);
#241=PRE_DEFINED_MARKER('');
#242=COLOUR_RGB('',0.509803950786591,0.509803950786591,0.588235318660736);
#243=PRE_DEFINED_MARKER('');
#244=COLOUR_RGB('',0.509803950786591,0.509803950786591,0.588235318660736);
#245=SURFACE_SIDE_STYLE('',(#318));
#246=EDGE_LOOP('',(#319,#320,#321,#322));
#247=AXIS2_PLACEMENT_3D('',#323,#324,#325);
#248=DRAUGHTING_PRE_DEFINED_CURVE_FONT('continuous');
#249=COLOUR_RGB('',0.509803950786591,0.509803950786591,0.588235318660736);
#250=CARTESIAN_POINT('',(-6.5,7.95994129984545E-016,0.0));
#251=VECTOR('',#326,1.0);
#252=SURFACE_SIDE_STYLE('',(#327));
#253=EDGE_LOOP('',(#328,#329));
#254=EDGE_LOOP('',(#330,#331));
#255=AXIS2_PLACEMENT_3D('',#332,#333,#334);
#256=SURFACE_SIDE_STYLE('',(#335));
#257=EDGE_LOOP('',(#336,#337,#338,#339));
#258=AXIS2_PLACEMENT_3D('',#340,#341,#342);
#259=PRE_DEFINED_MARKER('');
#260=COLOUR_RGB('',0.509803950786591,0.509803950786591,0.588235318660736);
#261=PRE_DEFINED_MARKER('');
#262=COLOUR_RGB('',0.509803950786591,0.509803950786591,0.588235318660736);
#263=PRE_DEFINED_MARKER('');
#264=COLOUR_RGB('',0.509803950786591,0.509803950786591,0.588235318660736);
#266=CARTESIAN_POINT('',(0.0,0.0,0.0));
#267=DIRECTION('',(0.0,0.0,1.0));
#268=DIRECTION('',(1.0,0.0,0.0));
#269=SURFACE_STYLE_FILL_AREA(#343);
#270=CARTESIAN_POINT('',(0.0,0.0,10.0));
#271=DIRECTION('',(0.0,0.0,-1.0));
#272=DIRECTION('',(1.0,0.0,0.0));
#273=DIRECTION('',(0.0,0.0,1.0));
#274=CARTESIAN_POINT('',(0.0,0.0,10.0));
#275=DIRECTION('',(0.0,0.0,-1.0));
#276=DIRECTION('',(-1.0,0.0,0.0));
#277=CARTESIAN_POINT('',(0.0,0.0,10.0));
#278=DIRECTION('',(0.0,0.0,-1.0));
#279=DIRECTION('',(-1.0,0.0,0.0));
#280=CARTESIAN_POINT('',(0.0,0.0,10.0));
#281=DIRECTION('',(0.0,0.0,-1.0));
#282=DIRECTION('',(1.0,0.0,0.0));
#283=DIRECTION('',(-0.0,0.0,-1.0));
#284=SURFACE_STYLE_FILL_AREA(#344);
#285=ORIENTED_EDGE('',*,*,#85,.T.);
#286=ORIENTED_EDGE('',*,*,#73,.T.);
#287=ORIENTED_EDGE('',*,*,#75,.F.);
#288=ORIENTED_EDGE('',*,*,#51,.F.);
#289=CARTESIAN_POINT('',(0.0,0.0,0.0));
#290=DIRECTION('',(0.0,0.0,1.0));
#291=DIRECTION('',(1.0,0.0,0.0));
#292=CARTESIAN_POINT('',(0.0,0.0,0.0));
#293=DIRECTION('',(0.0,0.0,1.0));
#294=DIRECTION('',(1.0,0.0,0.0));
#295=CARTESIAN_POINT('',(0.0,0.0,0.0));
#296=DIRECTION('',(0.0,0.0,1.0));
#297=DIRECTION('',(1.0,0.0,0.0));
#298=SURFACE_STYLE_FILL_AREA(#345);
#299=ORIENTED_EDGE('',*,*,#57,.F.);
#300=ORIENTED_EDGE('',*,*,#75,.T.);
#301=ORIENTED_EDGE('',*,*,#83,.F.);
#302=ORIENTED_EDGE('',*,*,#59,.T.);
#303=CARTESIAN_POINT('',(0.0,0.0,0.0));
#304=DIRECTION('',(-0.0,-0.0,-1.0));
#305=DIRECTION('',(1.0,0.0,0.0));
#306=SURFACE_STYLE_FILL_AREA(#346);
#307=ORIENTED_EDGE('',*,*,#65,.F.);
#308=ORIENTED_EDGE('',*,*,#55,.F.);
#309=ORIENTED_EDGE('',*,*,#93,.F.);
#310=ORIENTED_EDGE('',*,*,#85,.F.);
#311=CARTESIAN_POINT('',(0.0,0.0,0.0));
#312=DIRECTION('',(-0.0,-0.0,-1.0));
#313=DIRECTION('',(1.0,0.0,0.0));
#314=DIRECTION('',(-0.0,-0.0,-1.0));
#315=CARTESIAN_POINT('',(0.0,0.0,0.0));
#316=DIRECTION('',(0.0,0.0,1.0));
#317=DIRECTION('',(1.0,0.0,0.0));
#318=SURFACE_STYLE_FILL_AREA(#347);
#319=ORIENTED_EDGE('',*,*,#57,.T.);
#320=ORIENTED_EDGE('',*,*,#61,.T.);
#321=ORIENTED_EDGE('',*,*,#83,.T.);
#322=ORIENTED_EDGE('',*,*,#51,.T.);
#323=CARTESIAN_POINT('',(0.0,0.0,0.0));
#324=DIRECTION('',(-0.0,-0.0,-1.0));
#325=DIRECTION('',(1.0,0.0,0.0));
#326=DIRECTION('',(-0.0,0.0,1.0));
#327=SURFACE_STYLE_FILL_AREA(#348);
#328=ORIENTED_EDGE('',*,*,#55,.T.);
#329=ORIENTED_EDGE('',*,*,#63,.T.);
#330=ORIENTED_EDGE('',*,*,#59,.F.);
#331=ORIENTED_EDGE('',*,*,#61,.F.);
#332=CARTESIAN_POINT('',(0.0,0.0,10.0));
#333=DIRECTION('',(0.0,0.0,1.0));
#334=DIRECTION('',(1.0,0.0,0.0));
#335=SURFACE_STYLE_FILL_AREA(#349);
#336=ORIENTED_EDGE('',*,*,#65,.T.);
#337=ORIENTED_EDGE('',*,*,#73,.F.);
#338=ORIENTED_EDGE('',*,*,#93,.T.);
#339=ORIENTED_EDGE('',*,*,#63,.F.);
#340=CARTESIAN_POINT('',(0.0,0.0,0.0));
#341=DIRECTION('',(-0.0,-0.0,-1.0));
#342=DIRECTION('',(1.0,0.0,0.0));
#343=FILL_AREA_STYLE('',(#350));
#344=FILL_AREA_STYLE('',(#351));
#345=FILL_AREA_STYLE('',(#352));
#346=FILL_AREA_STYLE('',(#353));
#347=FILL_AREA_STYLE('',(#354));
#348=FILL_AREA_STYLE('',(#355));
#349=FILL_AREA_STYLE('',(#356));
#350=FILL_AREA_STYLE_COLOUR('',#357);
#351=FILL_AREA_STYLE_COLOUR('',#358);
#352=FILL_AREA_STYLE_COLOUR('',#359);
#353=FILL_AREA_STYLE_COLOUR('',#360);
#354=FILL_AREA_STYLE_COLOUR('',#361);
#355=FILL_AREA_STYLE_COLOUR('',#362);
#356=FILL_AREA_STYLE_COLOUR('',#363);
#357=COLOUR_RGB('',0.509803950786591,0.509803950786591,0.588235318660736);
#358=COLOUR_RGB('',0.509803950786591,0.509803950786591,0.588235318660736);
#359=COLOUR_RGB('',0.509803950786591,0.509803950786591,0.588235318660736);
#360=COLOUR_RGB('',0.509803950786591,0.509803950786591,0.588235318660736);
#361=COLOUR_RGB('',0.509803950786591,0.509803950786591,0.588235318660736);
#362=COLOUR_RGB('',0.509803950786591,0.509803950786591,0.588235318660736);
#363=COLOUR_RGB('',0.509803950786591,0.509803950786591,0.588235318660736);
ENDSEC;
END-ISO-10303-21;
